0
SECTION
2
HEADER
9
$INSUNITS
70
4
9
$ACADVER
1
AC1014
9
$HANDSEED
5
FFFF
0
ENDSEC
0
SECTION
2
TABLES
0
TABLE
2
VPORT
5
8
100
AcDbSymbolTable
0
ENDTAB
0
TABLE
2
LTYPE
5
5
100
AcDbSymbolTable
0
LTYPE
5
14
100
AcDbSymbolTableRecord
100
AcDbLinetypeTableRecord
2
BYBLOCK
70
0
0
LTYPE
5
15
100
AcDbSymbolTableRecord
100
AcDbLinetypeTableRecord
2
BYLAYER
70
0
0
ENDTAB
0
TABLE
2
LAYER
5
2
100
AcDbSymbolTable
70
2
0
LAYER
5
50
100
AcDbSymbolTableRecord
100
AcDbLayerTableRecord
2
0
70
0
6
CONTINUOUS
0
ENDTAB
0
TABLE
2
STYLE
5
3
100
AcDbSymbolTable
70
1
0
STYLE
5
11
100
AcDbSymbolTableRecord
100
AcDbTextStyleTableRecord
2
STANDARD
70
0
0
ENDTAB
0
TABLE
2
VIEW
5
6
100
AcDbSymbolTable
70
0
0
ENDTAB
0
TABLE
2
UCS
5
7
100
AcDbSymbolTable
70
0
0
ENDTAB
0
TABLE
2
APPID
5
9
100
AcDbSymbolTable
70
2
0
APPID
5
12
100
AcDbSymbolTableRecord
100
AcDbRegAppTableRecord
2
ACAD
70
0
0
ENDTAB
0
TABLE
2
DIMSTYLE
5
A
100
AcDbSymbolTable
70
1
0
ENDTAB
0
TABLE
2
BLOCK_RECORD
5
1
100
AcDbSymbolTable
70
1
0
BLOCK_RECORD
5
1F
100
AcDbSymbolTableRecord
100
AcDbBlockTableRecord
2
*MODEL_SPACE
0
BLOCK_RECORD
5
1B
100
AcDbSymbolTableRecord
100
AcDbBlockTableRecord
2
*PAPER_SPACE
0
ENDTAB
0
ENDSEC
0
SECTION
2
BLOCKS
0
BLOCK
5
20
100
AcDbEntity
100
AcDbBlockBegin
2
*MODEL_SPACE
0
ENDBLK
5
21
100
AcDbEntity
100
AcDbBlockEnd
0
BLOCK
5
1C
100
AcDbEntity
100
AcDbBlockBegin
2
*PAPER_SPACE
0
ENDBLK
5
1D
100
AcDbEntity
100
AcDbBlockEnd
0
ENDSEC
0
SECTION
2
ENTITIES
0
LWPOLYLINE
5
100
100
AcDbEntity
8
0
100
AcDbPolyline
90
20
70
1
43
0.0
10
67.667427063062476
20
11.701280186990717
10
58.156861900111601
20
14.791450130742254
42
0.31609748119446068
10
75.918100015331348
20
-39.872020016354497
10
81.795952538257438
20
-31.781850072606002
10
83.090379729257194
20
-32.722306476274163
10
77.212527206331146
20
-40.812476420022691
42
0.31609748119446074
10
134.6891011117761
20
-40.812476420030464
10
128.81124858885224
20
-32.722306476280359
10
130.10567577985225
20
-31.781850072612535
10
135.98352830277611
20
-39.87202001636264
42
0.31609748119446074
10
153.7447664180107
20
14.7914501307293
10
144.23420125505899
20
11.701280186980352
10
143.73977406405916
20
13.222970613052631
10
153.2503392270109
20
16.313140556801592
42
0.31609748119446068
10
106.7508141590592
20
50.097023050721781
10
106.75081415905916
20
40.097023050721781
10
105.15081415905917
20
40.097023050721781
10
105.15081415905917
20
50.097023050721788
42
0.31609748119438635
10
58.651289091111849
20
16.313140556814393
10
68.161854254062717
20
13.222970613062854
0
LWPOLYLINE
5
101
100
AcDbEntity
8
0
100
AcDbPolyline
90
20
70
1
43
0.0
10
-38.283387095996687
20
11.701280186990715
10
-47.793952258947563
20
14.791450130742252
42
0.31609748119446068
10
-30.032714143727802
20
-39.872020016354497
10
-24.154861620801732
20
-31.781850072606002
10
-22.860434429801973
20
-32.722306476274163
10
-28.738286952728018
20
-40.812476420022705
42
0.31609748119446074
10
28.738286952716923
20
-40.812476420030464
10
22.860434429793077
20
-32.722306476280359
10
24.154861620793099
20
-31.781850072612535
10
30.032714143716955
20
-39.87202001636264
42
0.31609748119446079
10
47.793952258951521
20
14.7914501307293
10
38.283387095999821
20
11.70128018698035
10
37.788959904999999
20
13.222970613052629
10
47.299525067951684
20
16.313140556801585
42
0.31609748119446068
10
0.80000000000002736
20
50.097023050721781
10
0.79999999999999982
20
40.097023050721781
10
-0.79999999999999982
20
40.097023050721781
10
-0.79999999999999905
20
50.097023050721788
42
0.31609748119438635
10
-47.299525067947314
20
16.313140556814389
10
-37.788959904996446
20
13.222970613062852
0
LWPOLYLINE
5
102
100
AcDbEntity
8
0
100
AcDbPolyline
90
12
70
1
43
0.0
10
34.845326417920013
20
91.217362860614472
10
24.253812020004268
20
91.217362860615879
42
0.61422721503273525
10
-25.397689727895933
20
111.18657313808804
42
1.6728704716445428
10
-35.115374194789666
20
94.167842932166764
42
0.093313506329932752
10
-35.115374194791116
20
83.06688278908058
42
1.6728704716445455
10
-25.397689727901906
20
66.048152583156792
42
0.61422721503273547
10
24.253812020003586
20
86.017362860615833
10
34.845326417919324
20
86.017362860614455
10
34.845326417919559
20
87.817362860614452
10
24.845326417919537
20
87.817362860615759
10
24.84532641791975
20
89.417362860615782
10
34.845326417919779
20
89.417362860614475
0
CIRCLE
5
103
100
AcDbEntity
8
0
100
AcDbCircle
10
-9.945999884700722
20
99.439670991612076
30
0
40
5.0562583347978833
210
-0
220
0
230
1
0
LWPOLYLINE
5
104
100
AcDbEntity
8
0
100
AcDbPolyline
90
4
70
1
43
0.0
10
6.357442250234242
20
100.64375561540109
42
0.9999999925494194
10
4.3468412502237435
20
98.154281048598534
42
-0.47777109911082488
10
4.3468412502212264
20
79.080444672638436
42
0.99999999999999989
10
6.3574422502310597
20
76.590970105835339
42
0.47777109911082516
0
CIRCLE
5
105
100
AcDbEntity
8
0
100
AcDbCircle
10
-9.9459998847035767
20
77.79505472962866
30
0
40
5.0562583347978833
210
0
220
0
230
1
0
LWPOLYLINE
5
106
100
AcDbEntity
8
0
100
AcDbPolyline
90
12
70
1
43
0.0
10
57.492553496297006
20
74.122808110662518
10
50.79255349629701
20
74.122808110662518
10
50.79255349629701
20
64.122808110662561
10
49.192553496297009
20
64.122808110662561
10
49.192553496297009
20
74.122808110662518
10
42.492553496297006
20
74.122808110662518
10
42.492553496297006
20
34.122808110662717
10
49.192553496297009
20
34.122808110662717
10
49.192553496297009
20
44.122808110662675
10
50.79255349629701
20
44.122808110662675
10
50.79255349629701
20
34.122808110662724
10
57.492553496297006
20
34.122808110662717
0
LWPOLYLINE
5
107
100
AcDbEntity
8
0
100
AcDbPolyline
90
8
70
1
43
0.0
10
69.327584322484256
20
114.71535104275098
10
69.327584322484256
20
124.71535104275098
42
0.96849599695818489
10
69.327584322484256
20
74.74095759970858
10
69.327584322484256
20
84.74095759970858
10
70.92758432248425
20
84.74095759970858
10
70.92758432248425
20
74.74095759970858
42
0.96849599695818489
10
70.92758432248425
20
124.71535104275098
10
70.92758432248425
20
114.71535104275098
0
LWPOLYLINE
5
108
100
AcDbEntity
8
0
100
AcDbPolyline
90
8
70
1
43
0.0
10
124.32579165687702
20
104.71567698195227
10
124.32579165687702
20
114.71567698195227
42
0.96849599695818489
10
124.32579165687702
20
64.741283538909869
10
124.32579165687702
20
74.741283538909869
10
125.92579165687702
20
74.741283538909869
10
125.92579165687702
20
64.741283538909869
42
0.96849599695818489
10
125.92579165687702
20
114.71567698195227
10
125.92579165687702
20
104.71567698195227
0
LWPOLYLINE
5
109
100
AcDbEntity
8
0
100
AcDbPolyline
90
8
70
1
43
0.0
10
123.96866044041992
20
162.92806526445889
10
123.96866044041992
20
172.92806526445889
42
0.96849599695818489
10
123.96866044041992
20
122.95367182141648
10
123.96866044041992
20
132.95367182141649
10
125.56866044041993
20
132.95367182141649
10
125.56866044041993
20
122.95367182141648
42
0.96849599695818489
10
125.56866044041993
20
172.92806526445887
10
125.56866044041993
20
162.92806526445889
0
LWPOLYLINE
5
110
100
AcDbEntity
8
0
100
AcDbPolyline
90
8
70
1
43
0.0
10
66.827665807284575
20
168.28503351131533
10
66.827665807284575
20
178.28503351131533
42
0.96849599695818489
10
66.827665807284589
20
128.31064006827293
10
66.827665807284575
20
138.31064006827293
10
68.427665807284583
20
138.31064006827293
10
68.427665807284583
20
128.31064006827293
42
0.96849599695818489
10
68.427665807284583
20
178.28503351131531
10
68.427665807284583
20
168.28503351131533
0
LWPOLYLINE
5
111
100
AcDbEntity
8
0
100
AcDbPolyline
90
8
70
1
43
0.0
10
0.044128329807656408
20
168.28503351131533
10
0.044128329807657241
20
178.28503351131533
42
0.96849599695818489
10
0.044128329807665845
20
128.31064006827293
10
0.044128329807656269
20
138.31064006827293
10
1.6441283298076566
20
138.31064006827293
10
1.6441283298076557
20
128.31064006827293
42
0.96849599695818489
10
1.6441283298076552
20
178.28503351131531
10
1.6441283298076566
20
168.28503351131533
0
LWPOLYLINE
5
112
100
AcDbEntity
8
0
100
AcDbPolyline
90
8
70
1
43
0.0
10
15.757901853919911
20
223.64037206216517
10
15.757901853919911
20
233.64037206216517
42
0.96849599695818489
10
15.757901853919922
20
183.66597861912277
10
15.757901853919911
20
193.66597861912277
10
17.357901853919909
20
193.66597861912277
10
17.357901853919913
20
183.66597861912277
42
0.96849599695818489
10
17.357901853919909
20
233.64037206216517
10
17.357901853919913
20
223.64037206216517
0
LWPOLYLINE
5
113
100
AcDbEntity
8
0
100
AcDbPolyline
90
8
70
1
43
0.0
10
73.256027703512331
20
223.64037206216517
10
73.256027703512331
20
233.64037206216517
42
0.96849599695818489
10
73.256027703512345
20
183.66597861912277
10
73.256027703512331
20
193.66597861912277
10
74.856027703512339
20
193.66597861912277
10
74.856027703512339
20
183.66597861912277
42
0.96849599695818489
10
74.856027703512339
20
233.64037206216517
10
74.856027703512339
20
223.64037206216517
0
LWPOLYLINE
5
114
100
AcDbEntity
8
0
100
AcDbPolyline
90
8
70
1
43
0.0
10
126.8257101720767
20
223.64037206216517
10
126.8257101720767
20
233.64037206216517
42
0.96849599695818489
10
126.8257101720767
20
183.66597861912277
10
126.8257101720767
20
193.66597861912277
10
128.42571017207669
20
193.66597861912277
10
128.42571017207669
20
183.66597861912277
42
0.96849599695818489
10
128.42571017207669
20
233.64037206216517
10
128.42571017207669
20
223.64037206216517
0
ENDSEC
0
SECTION
2
OBJECTS
0
DICTIONARY
5
C
100
AcDbDictionary
3
ACAD_GROUP
350
D
3
ACAD_MLINESTYLE
350
17
0
DICTIONARY
5
D
100
AcDbDictionary
0
DICTIONARY
5
1A
330
C
100
AcDbDictionary
0
DICTIONARY
5
17
100
AcDbDictionary
0
ENDSEC
0
EOF
