  0
SECTION
  2
HEADER
  9
$ACADVER
  1
AC1015
  9
$ACADMAINTVER
 70
     6
  9
$DWGCODEPAGE
  3
ANSI_1252
  9
$INSBASE
 10
0.0
 20
0.0
 30
0.0
  9
$EXTMIN
 10
-1184.4645079921
 20
-575.67215968
 30
0.0
  9
$EXTMAX
 10
1178.7614863814
 20
575.0
 30
0.0
  9
$LIMMIN
 10
0.0
 20
0.0
  9
$LIMMAX
 10
420.0
 20
297.0
  9
$ORTHOMODE
 70
     0
  9
$REGENMODE
 70
     1
  9
$FILLMODE
 70
     1
  9
$QTEXTMODE
 70
     0
  9
$MIRRTEXT
 70
     1
  9
$LTSCALE
 40
1.0
  9
$ATTMODE
 70
     1
  9
$TEXTSIZE
 40
3.5
  9
$TRACEWID
 40
1.0
  9
$TEXTSTYLE
  7
Standard
  9
$CLAYER
  8
0
  9
$CELTYPE
  6
ByLayer
  9
$CECOLOR
 62
   256
  9
$CELTSCALE
 40
1.0
  9
$DISPSILH
 70
     0
  9
$DIMSCALE
 40
1.0
  9
$DIMASZ
 40
3.302
  9
$DIMEXO
 40
0.0
  9
$DIMDLI
 40
3.75
  9
$DIMRND
 40
0.0
  9
$DIMDLE
 40
0.0
  9
$DIMEXE
 40
1.0
  9
$DIMTP
 40
0.0
  9
$DIMTM
 40
0.0
  9
$DIMTXT
 40
3.5
  9
$DIMCEN
 40
2.5
  9
$DIMTSZ
 40
0.0
  9
$DIMTOL
 70
     0
  9
$DIMLIM
 70
     0
  9
$DIMTIH
 70
     1
  9
$DIMTOH
 70
     1
  9
$DIMSE1
 70
     0
  9
$DIMSE2
 70
     0
  9
$DIMTAD
 70
     1
  9
$DIMZIN
 70
     1
  9
$DIMBLK
  1

  9
$DIMASO
 70
     1
  9
$DIMSHO
 70
     1
  9
$DIMPOST
  1

  9
$DIMAPOST
  1

  9
$DIMALT
 70
     0
  9
$DIMALTD
 70
     3
  9
$DIMALTF
 40
0.0393700787
  9
$DIMLFAC
 40
1.0
  9
$DIMTOFL
 70
     1
  9
$DIMTVP
 40
0.0
  9
$DIMTIX
 70
     0
  9
$DIMSOXD
 70
     0
  9
$DIMSAH
 70
     0
  9
$DIMBLK1
  1

  9
$DIMBLK2
  1

  9
$DIMSTYLE
  2
ISO-25
  9
$DIMCLRD
 70
     0
  9
$DIMCLRE
 70
     0
  9
$DIMCLRT
 70
     0
  9
$DIMTFAC
 40
1.0
  9
$DIMGAP
 40
1.524
  9
$DIMJUST
 70
     0
  9
$DIMSD1
 70
     0
  9
$DIMSD2
 70
     0
  9
$DIMTOLJ
 70
     0
  9
$DIMTZIN
 70
     1
  9
$DIMALTZ
 70
     0
  9
$DIMALTTZ
 70
     0
  9
$DIMUPT
 70
     0
  9
$DIMDEC
 70
     2
  9
$DIMTDEC
 70
     2
  9
$DIMALTU
 70
     2
  9
$DIMALTTD
 70
     3
  9
$DIMTXSTY
  7
Standard
  9
$DIMAUNIT
 70
     0
  9
$DIMADEC
 70
     2
  9
$DIMALTRND
 40
0.0
  9
$DIMAZIN
 70
     0
  9
$DIMDSEP
 70
    44
  9
$DIMATFIT
 70
     3
  9
$DIMFRAC
 70
     0
  9
$DIMLDRBLK
  1

  9
$DIMLUNIT
 70
     2
  9
$DIMLWD
 70
    -2
  9
$DIMLWE
 70
    -2
  9
$DIMTMOVE
 70
     0
  9
$LUNITS
 70
     2
  9
$LUPREC
 70
     2
  9
$SKETCHINC
 40
1.0
  9
$FILLETRAD
 40
0.0
  9
$AUNITS
 70
     0
  9
$AUPREC
 70
     2
  9
$MENU
  1
.
  9
$ELEVATION
 40
0.0
  9
$PELEVATION
 40
0.0
  9
$THICKNESS
 40
0.0
  9
$LIMCHECK
 70
     0
  9
$CHAMFERA
 40
0.0
  9
$CHAMFERB
 40
0.0
  9
$CHAMFERC
 40
0.0
  9
$CHAMFERD
 40
0.0
  9
$SKPOLY
 70
     0
  9
$TDCREATE
 40
2460542.693661424
  9
$TDUCREATE
 40
2460542.568661424
  9
$TDUPDATE
 40
2460542.693692662
  9
$TDUUPDATE
 40
2460542.568692662
  9
$TDINDWG
 40
0.0000000116
  9
$TDUSRTIMER
 40
0.0000000116
  9
$USRTIMER
 70
     1
  9
$ANGBASE
 50
0.0
  9
$ANGDIR
 70
     0
  9
$PDMODE
 70
     0
  9
$PDSIZE
 40
-1.0
  9
$PLINEWID
 40
0.0
  9
$SPLFRAME
 70
     0
  9
$SPLINETYPE
 70
     6
  9
$SPLINESEGS
 70
     8
  9
$HANDSEED
  5
725
  9
$SURFTAB1
 70
     6
  9
$SURFTAB2
 70
     6
  9
$SURFTYPE
 70
     6
  9
$SURFU
 70
     6
  9
$SURFV
 70
     6
  9
$UCSBASE
  2

  9
$UCSNAME
  2

  9
$UCSORG
 10
0.0
 20
0.0
 30
0.0
  9
$UCSXDIR
 10
1.0
 20
0.0
 30
0.0
  9
$UCSYDIR
 10
0.0
 20
1.0
 30
0.0
  9
$UCSORTHOREF
  2

  9
$UCSORTHOVIEW
 70
     0
  9
$UCSORGTOP
 10
0.0
 20
0.0
 30
0.0
  9
$UCSORGBOTTOM
 10
0.0
 20
0.0
 30
0.0
  9
$UCSORGLEFT
 10
0.0
 20
0.0
 30
0.0
  9
$UCSORGRIGHT
 10
0.0
 20
0.0
 30
0.0
  9
$UCSORGFRONT
 10
0.0
 20
0.0
 30
0.0
  9
$UCSORGBACK
 10
0.0
 20
0.0
 30
0.0
  9
$PUCSBASE
  2

  9
$PUCSNAME
  2

  9
$PUCSORG
 10
0.0
 20
0.0
 30
0.0
  9
$PUCSXDIR
 10
1.0
 20
0.0
 30
0.0
  9
$PUCSYDIR
 10
0.0
 20
1.0
 30
0.0
  9
$PUCSORTHOREF
  2

  9
$PUCSORTHOVIEW
 70
     0
  9
$PUCSORGTOP
 10
0.0
 20
0.0
 30
0.0
  9
$PUCSORGBOTTOM
 10
0.0
 20
0.0
 30
0.0
  9
$PUCSORGLEFT
 10
0.0
 20
0.0
 30
0.0
  9
$PUCSORGRIGHT
 10
0.0
 20
0.0
 30
0.0
  9
$PUCSORGFRONT
 10
0.0
 20
0.0
 30
0.0
  9
$PUCSORGBACK
 10
0.0
 20
0.0
 30
0.0
  9
$USERI1
 70
     0
  9
$USERI2
 70
     0
  9
$USERI3
 70
     0
  9
$USERI4
 70
     0
  9
$USERI5
 70
     0
  9
$USERR1
 40
0.0
  9
$USERR2
 40
0.0
  9
$USERR3
 40
0.0
  9
$USERR4
 40
0.0
  9
$USERR5
 40
0.0
  9
$WORLDVIEW
 70
     1
  9
$SHADEDGE
 70
     3
  9
$SHADEDIF
 70
    70
  9
$TILEMODE
 70
     1
  9
$MAXACTVP
 70
    64
  9
$PINSBASE
 10
0.0
 20
0.0
 30
0.0
  9
$PLIMCHECK
 70
     0
  9
$PEXTMIN
 10
1.0000000000E+20
 20
1.0000000000E+20
 30
1.0000000000E+20
  9
$PEXTMAX
 10
-1.0000000000E+20
 20
-1.0000000000E+20
 30
-1.0000000000E+20
  9
$PLIMMIN
 10
0.0
 20
0.0
  9
$PLIMMAX
 10
420.0
 20
297.0
  9
$UNITMODE
 70
     0
  9
$VISRETAIN
 70
     1
  9
$PLINEGEN
 70
     0
  9
$PSLTSCALE
 70
     1
  9
$TREEDEPTH
 70
  3020
  9
$CMLSTYLE
  2
Standard
  9
$CMLJUST
 70
     0
  9
$CMLSCALE
 40
20.0
  9
$PROXYGRAPHICS
 70
     1
  9
$MEASUREMENT
 70
     1
  9
$CELWEIGHT
370
    -1
  9
$ENDCAPS
280
     0
  9
$JOINSTYLE
280
     0
  9
$LWDISPLAY
290
     1
  9
$INSUNITS
 70
     4
  9
$HYPERLINKBASE
  1

  9
$STYLESHEET
  1

  9
$XEDIT
290
     1
  9
$CEPSNTYPE
380
     0
  9
$PSTYLEMODE
290
     1
  9
$FINGERPRINTGUID
  2
{8761b6ec-4acc-4ee1-8467-ce20051ac86b}
  9
$VERSIONGUID
  2
{FAEB1C32-E019-11D5-929B-00C0DF256EC4}
  9
$EXTNAMES
290
     1
  9
$PSVPSCALE
 40
0.0
  9
$OLESTARTUP
290
     0
  0
ENDSEC
  0
SECTION
  2
CLASSES
  0
CLASS
  1
ACDBDICTIONARYWDFLT
  2
AcDbDictionaryWithDefault
  3
ObjectDBX Classes
 90
        0
280
     0
281
     0
  0
CLASS
  1
VISUALSTYLE
  2
AcDbVisualStyle
  3
ObjectDBX Classes
 90
     4095
280
     0
281
     0
  0
CLASS
  1
MATERIAL
  2
AcDbMaterial
  3
ObjectDBX Classes
 90
     1153
280
     0
281
     0
  0
CLASS
  1
SCALE
  2
AcDbScale
  3
ObjectDBX Classes
 90
     1153
280
     0
281
     0
  0
CLASS
  1
TABLESTYLE
  2
AcDbTableStyle
  3
ObjectDBX Classes
 90
     4095
280
     0
281
     0
  0
CLASS
  1
MLEADERSTYLE
  2
AcDbMLeaderStyle
  3
ACDB_MLEADERSTYLE_CLASS
 90
     4095
280
     0
281
     0
  0
CLASS
  1
SUN
  2
AcDbSun
  3
SCENEOE
 90
     1153
280
     0
281
     0
  0
CLASS
  1
ACDBPLACEHOLDER
  2
AcDbPlaceHolder
  3
ObjectDBX Classes
 90
        0
280
     0
281
     0
  0
CLASS
  1
LAYOUT
  2
AcDbLayout
  3
ObjectDBX Classes
 90
        0
280
     0
281
     0
  0
ENDSEC
  0
SECTION
  2
TABLES
  0
TABLE
  2
VPORT
  5
8
330
0
100
AcDbSymbolTable
 70
     1
  0
VPORT
  5
29
330
8
100
AcDbSymbolTableRecord
100
AcDbViewportTableRecord
  2
*Active
 70
     0
 10
0.0
 20
0.0
 11
1.0
 21
1.0
 12
-2.8515108054
 22
-0.33607984
 13
0.0
 23
0.0
 14
10.0
 24
10.0
 15
10.0
 25
10.0
 16
0.0
 26
0.0
 36
1.0
 17
0.0
 27
0.0
 37
0.0
 40
1173.6856028736
 41
2.0537787192
 42
50.0
 43
0.0
 44
0.0
 50
0.0
 51
0.0
 71
     0
 72
   100
 73
     1
 74
     3
 75
     0
 76
     0
 77
     0
 78
     0
281
     0
 65
     1
110
0.0
120
0.0
130
0.0
111
1.0
121
0.0
131
0.0
112
0.0
122
1.0
132
0.0
 79
     0
146
0.0
  0
ENDTAB
  0
TABLE
  2
LTYPE
  5
5
330
0
100
AcDbSymbolTable
 70
     6
  0
LTYPE
  5
14
330
5
100
AcDbSymbolTableRecord
100
AcDbLinetypeTableRecord
  2
ByBlock
 70
     0
  3

 72
    65
 73
     0
 40
0.0
  0
LTYPE
  5
15
330
5
100
AcDbSymbolTableRecord
100
AcDbLinetypeTableRecord
  2
ByLayer
 70
     0
  3

 72
    65
 73
     0
 40
0.0
  0
LTYPE
  5
16
330
5
100
AcDbSymbolTableRecord
100
AcDbLinetypeTableRecord
  2
Continuous
 70
     0
  3
Solid line
 72
    65
 73
     0
 40
0.0
  0
LTYPE
  5
5E
330
5
100
AcDbSymbolTableRecord
100
AcDbLinetypeTableRecord
  2
HIDDEN
 70
     0
  3
Hidden __ __ __ __ __ __ __ __ __ __ __ __ __ __
 72
    65
 73
     2
 40
1.905
 49
1.27
 74
     0
 49
-0.635
 74
     0
  0
LTYPE
  5
5F
330
5
100
AcDbSymbolTableRecord
100
AcDbLinetypeTableRecord
  2
PHANTOM
 70
     0
  3
Phantom ______  __  __  ______  __  __  ______
 72
    65
 73
     6
 40
12.7
 49
6.35
 74
     0
 49
-1.27
 74
     0
 49
1.27
 74
     0
 49
-1.27
 74
     0
 49
1.27
 74
     0
 49
-1.27
 74
     0
  0
LTYPE
  5
60
330
5
100
AcDbSymbolTableRecord
100
AcDbLinetypeTableRecord
  2
CENTER
 70
     0
  3
Center ____ _ ____ _ ____ _ ____ _ ____ _ ____
 72
    65
 73
     4
 40
10.16
 49
6.35
 74
     0
 49
-1.27
 74
     0
 49
1.27
 74
     0
 49
-1.27
 74
     0
  0
LTYPE
  5
61
330
5
100
AcDbSymbolTableRecord
100
AcDbLinetypeTableRecord
  2
CENTERX2
 70
     0
  3
Center (2x) ________  __  ________  __  _____
 72
    65
 73
     4
 40
20.32
 49
12.7
 74
     0
 49
-2.54
 74
     0
 49
2.54
 74
     0
 49
-2.54
 74
     0
  0
LTYPE
  5
62
330
5
100
AcDbSymbolTableRecord
100
AcDbLinetypeTableRecord
  2
DOT2
 70
     0
  3
Dot (.5x) ........................................
 72
    65
 73
     2
 40
0.635
 49
0.0
 74
     0
 49
-0.635
 74
     0
  0
ENDTAB
  0
TABLE
  2
LAYER
  5
2
330
0
100
AcDbSymbolTable
 70
     1
  0
LAYER
  5
10
330
2
100
AcDbSymbolTableRecord
100
AcDbLayerTableRecord
  2
0
 70
     0
 62
     7
  6
Continuous
370
    -3
390
F
  0
ENDTAB
  0
TABLE
  2
STYLE
  5
3
330
0
100
AcDbSymbolTable
 70
     2
  0
STYLE
  5
11
330
3
100
AcDbSymbolTableRecord
100
AcDbTextStyleTableRecord
  2
Standard
 70
     0
 40
0.0
 41
1.0
 50
0.0
 71
     0
 42
3.5
  3
txt
  4

  0
STYLE
  5
721
330
3
100
AcDbSymbolTableRecord
100
AcDbTextStyleTableRecord
  2
SLDTEXTSTYLE0
 70
     0
 40
0.0
 41
0.7
 50
0.0
 71
     0
 42
3.5
  3
TXT
  4

  0
ENDTAB
  0
TABLE
  2
VIEW
  5
6
330
0
100
AcDbSymbolTable
 70
     0
  0
ENDTAB
  0
TABLE
  2
UCS
  5
7
330
0
100
AcDbSymbolTable
 70
     0
  0
ENDTAB
  0
TABLE
  2
APPID
  5
9
330
0
100
AcDbSymbolTable
 70
     1
  0
APPID
  5
12
330
9
100
AcDbSymbolTableRecord
100
AcDbRegAppTableRecord
  2
ACAD
 70
     0
  0
ENDTAB
  0
TABLE
  2
DIMSTYLE
  5
A
330
0
100
AcDbSymbolTable
 70
     1
100
AcDbDimStyleTable
  0
DIMSTYLE
105
27
330
A
100
AcDbSymbolTableRecord
100
AcDbDimStyleTableRecord
  2
ISO-25
 70
     0
 41
2.5
 42
0.625
 43
3.75
 44
1.25
 73
     0
 74
     0
 77
     1
 78
     8
140
2.5
141
2.5
143
0.0393700787
147
0.625
171
     3
172
     1
178
     0
271
     2
272
     2
274
     3
278
    44
283
     0
284
     8
340
11
  0
ENDTAB
  0
TABLE
  2
BLOCK_RECORD
  5
1
330
0
100
AcDbSymbolTable
 70
     1
  0
BLOCK_RECORD
  5
1F
330
1
100
AcDbSymbolTableRecord
100
AcDbBlockTableRecord
  2
*Model_Space
340
22
  0
BLOCK_RECORD
  5
1B
330
1
100
AcDbSymbolTableRecord
100
AcDbBlockTableRecord
  2
*Paper_Space
340
1E
  0
BLOCK_RECORD
  5
23
330
1
100
AcDbSymbolTableRecord
100
AcDbBlockTableRecord
  2
*Paper_Space0
340
26
  0
ENDTAB
  0
ENDSEC
  0
SECTION
  2
BLOCKS
  0
BLOCK
  5
20
330
1F
100
AcDbEntity
  8
0
100
AcDbBlockBegin
  2
*Model_Space
 70
     0
 10
0.0
 20
0.0
 30
0.0
  3
*Model_Space
  1

  0
ENDBLK
  5
21
330
1F
100
AcDbEntity
  8
0
100
AcDbBlockEnd
  0
BLOCK
  5
1C
330
1B
100
AcDbEntity
 67
     1
  8
0
100
AcDbBlockBegin
  2
*Paper_Space
 70
     0
 10
0.0
 20
0.0
 30
0.0
  3
*Paper_Space
  1

  0
ENDBLK
  5
1D
330
1B
100
AcDbEntity
 67
     1
  8
0
100
AcDbBlockEnd
  0
BLOCK
  5
24
330
23
100
AcDbEntity
  8
0
100
AcDbBlockBegin
  2
*Paper_Space0
 70
     0
 10
0.0
 20
0.0
 30
0.0
  3
*Paper_Space0
  1

  0
ENDBLK
  5
25
330
23
100
AcDbEntity
  8
0
100
AcDbBlockEnd
  0
ENDSEC
  0
SECTION
  2
ENTITIES
  0
CIRCLE
  5
A7
330
1F
100
AcDbEntity
  8
0
  6
Continuous
 62
     7
370
    25
100
AcDbCircle
 10
-299.4645079921
 20
560.0
 30
0.0
 40
15.00000000000023
  0
CIRCLE
  5
A8
330
1F
100
AcDbEntity
  8
0
  6
Continuous
 62
     7
370
    25
100
AcDbCircle
 10
-339.4645079921
 20
520.0
 30
0.0
 40
14.99999999999977
  0
CIRCLE
  5
A9
330
1F
100
AcDbEntity
  8
0
  6
Continuous
 62
     7
370
    25
100
AcDbCircle
 10
-259.4645079921
 20
560.0
 30
0.0
 40
15.00000000000023
  0
CIRCLE
  5
AA
330
1F
100
AcDbEntity
  8
0
  6
Continuous
 62
     7
370
    25
100
AcDbCircle
 10
-379.4645079921
 20
560.0
 30
0.0
 40
15.00000000000023
  0
CIRCLE
  5
AB
330
1F
100
AcDbEntity
  8
0
  6
Continuous
 62
     7
370
    25
100
AcDbCircle
 10
-259.4645079921
 20
520.0
 30
0.0
 40
15.00000000000034
  0
CIRCLE
  5
AC
330
1F
100
AcDbEntity
  8
0
  6
Continuous
 62
     7
370
    25
100
AcDbCircle
 10
-419.4645079921
 20
560.0
 30
0.0
 40
15.00000000000023
  0
CIRCLE
  5
AD
330
1F
100
AcDbEntity
  8
0
  6
Continuous
 62
     7
370
    25
100
AcDbCircle
 10
-379.4645079921
 20
520.0
 30
0.0
 40
14.99999999999977
  0
CIRCLE
  5
AE
330
1F
100
AcDbEntity
  8
0
  6
Continuous
 62
     7
370
    25
100
AcDbCircle
 10
-339.4645079921
 20
560.0
 30
0.0
 40
15.00000000000023
  0
CIRCLE
  5
AF
330
1F
100
AcDbEntity
  8
0
  6
Continuous
 62
     7
370
    25
100
AcDbCircle
 10
-299.4645079921
 20
520.0
 30
0.0
 40
14.99999999999977
  0
CIRCLE
  5
B0
330
1F
100
AcDbEntity
  8
0
  6
Continuous
 62
     7
370
    25
100
AcDbCircle
 10
-419.4645079921
 20
520.0
 30
0.0
 40
14.99999999999977
  0
LINE
  5
3C7
330
1F
100
AcDbEntity
  8
0
  6
Continuous
 62
     7
370
    25
100
AcDbLine
 10
-1098.4645079921
 20
-380.4422255664
 30
0.0
 11
-1086.4645079921
 21
-380.4422255664
 31
0.0
  0
LINE
  5
3C8
330
1F
100
AcDbEntity
  8
0
  6
Continuous
 62
     7
370
    25
100
AcDbLine
 10
-1098.4645079921
 20
-392.4422255664
 30
0.0
 11
-1098.4645079921
 21
-380.4422255664
 31
0.0
  0
LINE
  5
3C9
330
1F
100
AcDbEntity
  8
0
  6
Continuous
 62
     7
370
    25
100
AcDbLine
 10
-1086.4645079921
 20
-392.4422255664
 30
0.0
 11
-1098.4645079921
 21
-392.4422255664
 31
0.0
  0
LINE
  5
3CA
330
1F
100
AcDbEntity
  8
0
  6
Continuous
 62
     7
370
    25
100
AcDbLine
 10
-1086.4645079921
 20
-380.4422255664
 30
0.0
 11
-1086.4645079921
 21
-392.4422255664
 31
0.0
  0
LINE
  5
3CB
330
1F
100
AcDbEntity
  8
0
  6
Continuous
 62
     7
370
    25
100
AcDbLine
 10
-1098.4645079921
 20
-268.4422255664
 30
0.0
 11
-1086.4645079921
 21
-268.4422255664
 31
0.0
  0
LINE
  5
3CC
330
1F
100
AcDbEntity
  8
0
  6
Continuous
 62
     7
370
    25
100
AcDbLine
 10
-1098.4645079921
 20
-280.4422255664
 30
0.0
 11
-1098.4645079921
 21
-268.4422255664
 31
0.0
  0
LINE
  5
3CD
330
1F
100
AcDbEntity
  8
0
  6
Continuous
 62
     7
370
    25
100
AcDbLine
 10
-1086.4645079921
 20
-280.4422255664
 30
0.0
 11
-1098.4645079921
 21
-280.4422255664
 31
0.0
  0
LINE
  5
3CE
330
1F
100
AcDbEntity
  8
0
  6
Continuous
 62
     7
370
    25
100
AcDbLine
 10
-1086.4645079921
 20
-268.4422255664
 30
0.0
 11
-1086.4645079921
 21
-280.4422255664
 31
0.0
  0
LINE
  5
3CF
330
1F
100
AcDbEntity
  8
0
  6
Continuous
 62
     7
370
    25
100
AcDbLine
 10
-509.4645079921
 20
-485.4422255664
 30
0.0
 11
-1184.4645079921
 21
-485.4422255664
 31
0.0
  0
LINE
  5
3D0
330
1F
100
AcDbEntity
  8
0
  6
Continuous
 62
     7
370
    25
100
AcDbLine
 10
-545.4645079921
 20
-476.4422255664
 30
0.0
 11
-545.4645079921
 21
-464.4422255664
 31
0.0
  0
LINE
  5
3D1
330
1F
100
AcDbEntity
  8
0
  6
Continuous
 62
     7
370
    25
100
AcDbLine
 10
-545.4645079921
 20
-464.4422255664
 30
0.0
 11
-557.4645079921
 21
-464.4422255664
 31
0.0
  0
LINE
  5
3D2
330
1F
100
AcDbEntity
  8
0
  6
Continuous
 62
     7
370
    25
100
AcDbLine
 10
-557.4645079921
 20
-464.4422255664
 30
0.0
 11
-557.4645079921
 21
-476.4422255664
 31
0.0
  0
LINE
  5
3D3
330
1F
100
AcDbEntity
  8
0
  6
Continuous
 62
     7
370
    25
100
AcDbLine
 10
-557.4645079921
 20
-476.4422255664
 30
0.0
 11
-545.4645079921
 21
-476.4422255664
 31
0.0
  0
LINE
  5
3D4
330
1F
100
AcDbEntity
  8
0
  6
Continuous
 62
     7
370
    25
100
AcDbLine
 10
-1136.4645079921
 20
-476.4422255664
 30
0.0
 11
-1136.4645079921
 21
-464.4422255664
 31
0.0
  0
LINE
  5
3D5
330
1F
100
AcDbEntity
  8
0
  6
Continuous
 62
     7
370
    25
100
AcDbLine
 10
-1136.4645079921
 20
-464.4422255664
 30
0.0
 11
-1148.4645079921
 21
-464.4422255664
 31
0.0
  0
LINE
  5
3D6
330
1F
100
AcDbEntity
  8
0
  6
Continuous
 62
     7
370
    25
100
AcDbLine
 10
-1148.4645079921
 20
-464.4422255664
 30
0.0
 11
-1148.4645079921
 21
-476.4422255664
 31
0.0
  0
LINE
  5
3D7
330
1F
100
AcDbEntity
  8
0
  6
Continuous
 62
     7
370
    25
100
AcDbLine
 10
-1148.4645079921
 20
-476.4422255664
 30
0.0
 11
-1136.4645079921
 21
-476.4422255664
 31
0.0
  0
LINE
  5
3D8
330
1F
100
AcDbEntity
  8
0
  6
Continuous
 62
     7
370
    25
100
AcDbLine
 10
-1136.4645079921
 20
-196.4422255664
 30
0.0
 11
-1136.4645079921
 21
-184.4422255664
 31
0.0
  0
LINE
  5
3D9
330
1F
100
AcDbEntity
  8
0
  6
Continuous
 62
     7
370
    25
100
AcDbLine
 10
-1136.4645079921
 20
-184.4422255664
 30
0.0
 11
-1148.4645079921
 21
-184.4422255664
 31
0.0
  0
LINE
  5
3DA
330
1F
100
AcDbEntity
  8
0
  6
Continuous
 62
     7
370
    25
100
AcDbLine
 10
-1148.4645079921
 20
-184.4422255664
 30
0.0
 11
-1148.4645079921
 21
-196.4422255664
 31
0.0
  0
LINE
  5
3DB
330
1F
100
AcDbEntity
  8
0
  6
Continuous
 62
     7
370
    25
100
AcDbLine
 10
-1148.4645079921
 20
-196.4422255664
 30
0.0
 11
-1136.4645079921
 21
-196.4422255664
 31
0.0
  0
LINE
  5
3DC
330
1F
100
AcDbEntity
  8
0
  6
Continuous
 62
     7
370
    25
100
AcDbLine
 10
-545.4645079921
 20
-196.4422255664
 30
0.0
 11
-545.4645079921
 21
-184.4422255664
 31
0.0
  0
LINE
  5
3DD
330
1F
100
AcDbEntity
  8
0
  6
Continuous
 62
     7
370
    25
100
AcDbLine
 10
-545.4645079921
 20
-184.4422255664
 30
0.0
 11
-557.4645079921
 21
-184.4422255664
 31
0.0
  0
LINE
  5
3DE
330
1F
100
AcDbEntity
  8
0
  6
Continuous
 62
     7
370
    25
100
AcDbLine
 10
-557.4645079921
 20
-184.4422255664
 30
0.0
 11
-557.4645079921
 21
-196.4422255664
 31
0.0
  0
LINE
  5
3DF
330
1F
100
AcDbEntity
  8
0
  6
Continuous
 62
     7
370
    25
100
AcDbLine
 10
-557.4645079921
 20
-196.4422255664
 30
0.0
 11
-545.4645079921
 21
-196.4422255664
 31
0.0
  0
LINE
  5
3E0
330
1F
100
AcDbEntity
  8
0
  6
Continuous
 62
     7
370
    25
100
AcDbLine
 10
-595.4645079921
 20
-280.4422255664
 30
0.0
 11
-595.4645079921
 21
-268.4422255664
 31
0.0
  0
LINE
  5
3E1
330
1F
100
AcDbEntity
  8
0
  6
Continuous
 62
     7
370
    25
100
AcDbLine
 10
-595.4645079921
 20
-268.4422255664
 30
0.0
 11
-607.4645079921
 21
-268.4422255664
 31
0.0
  0
LINE
  5
3E2
330
1F
100
AcDbEntity
  8
0
  6
Continuous
 62
     7
370
    25
100
AcDbLine
 10
-607.4645079921
 20
-268.4422255664
 30
0.0
 11
-607.4645079921
 21
-280.4422255664
 31
0.0
  0
LINE
  5
3E3
330
1F
100
AcDbEntity
  8
0
  6
Continuous
 62
     7
370
    25
100
AcDbLine
 10
-607.4645079921
 20
-280.4422255664
 30
0.0
 11
-595.4645079921
 21
-280.4422255664
 31
0.0
  0
LINE
  5
3E4
330
1F
100
AcDbEntity
  8
0
  6
Continuous
 62
     7
370
    25
100
AcDbLine
 10
-595.4645079921
 20
-392.4422255664
 30
0.0
 11
-595.4645079921
 21
-380.4422255664
 31
0.0
  0
LINE
  5
3E5
330
1F
100
AcDbEntity
  8
0
  6
Continuous
 62
     7
370
    25
100
AcDbLine
 10
-595.4645079921
 20
-380.4422255664
 30
0.0
 11
-607.4645079921
 21
-380.4422255664
 31
0.0
  0
LINE
  5
3E6
330
1F
100
AcDbEntity
  8
0
  6
Continuous
 62
     7
370
    25
100
AcDbLine
 10
-607.4645079921
 20
-380.4422255664
 30
0.0
 11
-607.4645079921
 21
-392.4422255664
 31
0.0
  0
LINE
  5
3E7
330
1F
100
AcDbEntity
  8
0
  6
Continuous
 62
     7
370
    25
100
AcDbLine
 10
-607.4645079921
 20
-392.4422255664
 30
0.0
 11
-595.4645079921
 21
-392.4422255664
 31
0.0
  0
LINE
  5
3E8
330
1F
100
AcDbEntity
  8
0
  6
Continuous
 62
     7
370
    25
100
AcDbLine
 10
-509.4645079921
 20
-175.4422255664
 30
0.0
 11
-509.4645079921
 21
-485.4422255664
 31
0.0
  0
LINE
  5
3E9
330
1F
100
AcDbEntity
  8
0
  6
Continuous
 62
     7
370
    25
100
AcDbLine
 10
-509.4645079921
 20
-175.4422255664
 30
0.0
 11
-1184.4645079921
 21
-175.4422255664
 31
0.0
  0
LINE
  5
3EA
330
1F
100
AcDbEntity
  8
0
  6
Continuous
 62
     7
370
    25
100
AcDbLine
 10
-1184.4645079921
 20
-175.4422255664
 30
0.0
 11
-1184.4645079921
 21
-485.4422255664
 31
0.0
  0
LINE
  5
3EB
330
1F
100
AcDbEntity
  8
0
  6
Continuous
 62
     7
370
    25
100
AcDbLine
 10
-145.4645079921
 20
-539.67215968
 30
0.0
 11
-145.4645079921
 21
-527.67215968
 31
0.0
  0
LINE
  5
3EC
330
1F
100
AcDbEntity
  8
0
  6
Continuous
 62
     7
370
    25
100
AcDbLine
 10
-133.4645079921
 20
-539.67215968
 30
0.0
 11
-145.4645079921
 21
-539.67215968
 31
0.0
  0
LINE
  5
3ED
330
1F
100
AcDbEntity
  8
0
  6
Continuous
 62
     7
370
    25
100
AcDbLine
 10
-133.4645079921
 20
-527.67215968
 30
0.0
 11
-133.4645079921
 21
-539.67215968
 31
0.0
  0
LINE
  5
3EE
330
1F
100
AcDbEntity
  8
0
  6
Continuous
 62
     7
370
    25
100
AcDbLine
 10
-145.4645079921
 20
-527.67215968
 30
0.0
 11
-133.4645079921
 21
-527.67215968
 31
0.0
  0
LINE
  5
3EF
330
1F
100
AcDbEntity
  8
0
  6
Continuous
 62
     7
370
    25
100
AcDbLine
 10
-145.4645079921
 20
51.32784032
 30
0.0
 11
-145.4645079921
 21
63.32784032
 31
0.0
  0
LINE
  5
3F0
330
1F
100
AcDbEntity
  8
0
  6
Continuous
 62
     7
370
    25
100
AcDbLine
 10
-133.4645079921
 20
51.32784032
 30
0.0
 11
-145.4645079921
 21
51.32784032
 31
0.0
  0
LINE
  5
3F1
330
1F
100
AcDbEntity
  8
0
  6
Continuous
 62
     7
370
    25
100
AcDbLine
 10
-133.4645079921
 20
63.32784032
 30
0.0
 11
-133.4645079921
 21
51.32784032
 31
0.0
  0
LINE
  5
3F2
330
1F
100
AcDbEntity
  8
0
  6
Continuous
 62
     7
370
    25
100
AcDbLine
 10
-145.4645079921
 20
63.32784032
 30
0.0
 11
-133.4645079921
 21
63.32784032
 31
0.0
  0
LINE
  5
3F3
330
1F
100
AcDbEntity
  8
0
  6
Continuous
 62
     7
370
    25
100
AcDbLine
 10
-425.4645079921
 20
51.32784032
 30
0.0
 11
-425.4645079921
 21
63.32784032
 31
0.0
  0
LINE
  5
3F4
330
1F
100
AcDbEntity
  8
0
  6
Continuous
 62
     7
370
    25
100
AcDbLine
 10
-413.4645079921
 20
51.32784032
 30
0.0
 11
-425.4645079921
 21
51.32784032
 31
0.0
  0
LINE
  5
3F5
330
1F
100
AcDbEntity
  8
0
  6
Continuous
 62
     7
370
    25
100
AcDbLine
 10
-413.4645079921
 20
63.32784032
 30
0.0
 11
-413.4645079921
 21
51.32784032
 31
0.0
  0
LINE
  5
3F6
330
1F
100
AcDbEntity
  8
0
  6
Continuous
 62
     7
370
    25
100
AcDbLine
 10
-425.4645079921
 20
63.32784032
 30
0.0
 11
-413.4645079921
 21
63.32784032
 31
0.0
  0
LINE
  5
3F7
330
1F
100
AcDbEntity
  8
0
  6
Continuous
 62
     7
370
    25
100
AcDbLine
 10
-425.4645079921
 20
-539.67215968
 30
0.0
 11
-425.4645079921
 21
-527.67215968
 31
0.0
  0
LINE
  5
3F8
330
1F
100
AcDbEntity
  8
0
  6
Continuous
 62
     7
370
    25
100
AcDbLine
 10
-413.4645079921
 20
-539.67215968
 30
0.0
 11
-425.4645079921
 21
-539.67215968
 31
0.0
  0
LINE
  5
3F9
330
1F
100
AcDbEntity
  8
0
  6
Continuous
 62
     7
370
    25
100
AcDbLine
 10
-413.4645079921
 20
-527.67215968
 30
0.0
 11
-413.4645079921
 21
-539.67215968
 31
0.0
  0
LINE
  5
3FA
330
1F
100
AcDbEntity
  8
0
  6
Continuous
 62
     7
370
    25
100
AcDbLine
 10
-425.4645079921
 20
-527.67215968
 30
0.0
 11
-413.4645079921
 21
-527.67215968
 31
0.0
  0
LINE
  5
3FB
330
1F
100
AcDbEntity
  8
0
  6
Continuous
 62
     7
370
    25
100
AcDbLine
 10
-259.4645079921
 20
-244.17215968
 30
0.0
 11
-154.4645079921
 21
-244.17215968
 31
0.0
  0
LINE
  5
3FC
330
1F
100
AcDbEntity
  8
0
  6
Continuous
 62
     7
370
    25
100
AcDbLine
 10
-259.4645079921
 20
-244.17215968
 30
0.0
 11
-259.4645079921
 21
-232.17215968
 31
0.0
  0
LINE
  5
3FD
330
1F
100
AcDbEntity
  8
0
  6
Continuous
 62
     7
370
    25
100
AcDbLine
 10
-259.4645079921
 20
-232.17215968
 30
0.0
 11
-154.4645079921
 21
-232.17215968
 31
0.0
  0
LINE
  5
3FE
330
1F
100
AcDbEntity
  8
0
  6
Continuous
 62
     7
370
    25
100
AcDbLine
 10
-154.4645079921
 20
-232.17215968
 30
0.0
 11
-154.4645079921
 21
69.32784032
 31
0.0
  0
LINE
  5
3FF
330
1F
100
AcDbEntity
  8
0
  6
Continuous
 62
     7
370
    25
100
AcDbLine
 10
-154.4645079921
 20
69.32784032
 30
0.0
 11
-404.4645079921
 21
69.32784032
 31
0.0
  0
LINE
  5
400
330
1F
100
AcDbEntity
  8
0
  6
Continuous
 62
     7
370
    25
100
AcDbLine
 10
-404.4645079921
 20
-232.17215968
 30
0.0
 11
-404.4645079921
 21
69.32784032
 31
0.0
  0
LINE
  5
401
330
1F
100
AcDbEntity
  8
0
  6
Continuous
 62
     7
370
    25
100
AcDbLine
 10
-404.4645079921
 20
-232.17215968
 30
0.0
 11
-299.4645079921
 21
-232.17215968
 31
0.0
  0
LINE
  5
402
330
1F
100
AcDbEntity
  8
0
  6
Continuous
 62
     7
370
    25
100
AcDbLine
 10
-299.4645079921
 20
-244.17215968
 30
0.0
 11
-299.4645079921
 21
-232.17215968
 31
0.0
  0
LINE
  5
403
330
1F
100
AcDbEntity
  8
0
  6
Continuous
 62
     7
370
    25
100
AcDbLine
 10
-404.4645079921
 20
-244.17215968
 30
0.0
 11
-299.4645079921
 21
-244.17215968
 31
0.0
  0
LINE
  5
404
330
1F
100
AcDbEntity
  8
0
  6
Continuous
 62
     7
370
    25
100
AcDbLine
 10
-404.4645079921
 20
-545.67215968
 30
0.0
 11
-404.4645079921
 21
-244.17215968
 31
0.0
  0
LINE
  5
405
330
1F
100
AcDbEntity
  8
0
  6
Continuous
 62
     7
370
    25
100
AcDbLine
 10
-154.4645079921
 20
-545.67215968
 30
0.0
 11
-404.4645079921
 21
-545.67215968
 31
0.0
  0
LINE
  5
406
330
1F
100
AcDbEntity
  8
0
  6
Continuous
 62
     7
370
    25
100
AcDbLine
 10
-154.4645079921
 20
-545.67215968
 30
0.0
 11
-154.4645079921
 21
-244.17215968
 31
0.0
  0
LINE
  5
407
330
1F
100
AcDbEntity
  8
0
  6
Continuous
 62
     7
370
    25
100
AcDbLine
 10
-124.4645079921
 20
-575.67215968
 30
0.0
 11
-434.4645079921
 21
-575.67215968
 31
0.0
  0
LINE
  5
408
330
1F
100
AcDbEntity
  8
0
  6
Continuous
 62
     7
370
    25
100
AcDbLine
 10
-124.4645079921
 20
-575.67215968
 30
0.0
 11
-124.4645079921
 21
99.32784032
 31
0.0
  0
LINE
  5
409
330
1F
100
AcDbEntity
  8
0
  6
Continuous
 62
     7
370
    25
100
AcDbLine
 10
-124.4645079921
 20
99.32784032
 30
0.0
 11
-434.4645079921
 21
99.32784032
 31
0.0
  0
LINE
  5
40A
330
1F
100
AcDbEntity
  8
0
  6
Continuous
 62
     7
370
    25
100
AcDbLine
 10
-434.4645079921
 20
-575.67215968
 30
0.0
 11
-434.4645079921
 21
99.32784032
 31
0.0
  0
LINE
  5
40B
330
1F
100
AcDbEntity
  8
0
  6
Continuous
 62
     7
370
    25
100
AcDbLine
 10
269.4316469353
 20
-410.6015832745
 30
0.0
 11
235.4316469353
 21
-410.6015832745
 31
0.0
  0
LINE
  5
40C
330
1F
100
AcDbEntity
  8
0
  6
Continuous
 62
     7
370
    25
100
AcDbLine
 10
235.4316469353
 20
-410.6015832745
 30
0.0
 11
235.4316469353
 21
-422.6015832745
 31
0.0
  0
LINE
  5
40D
330
1F
100
AcDbEntity
  8
0
  6
Continuous
 62
     7
370
    25
100
AcDbLine
 10
235.4316469353
 20
-422.6015832745
 30
0.0
 11
269.4316469353
 21
-422.6015832745
 31
0.0
  0
LINE
  5
40E
330
1F
100
AcDbEntity
  8
0
  6
Continuous
 62
     7
370
    25
100
AcDbLine
 10
269.4316469353
 20
-422.6015832745
 30
0.0
 11
269.4316469353
 21
-410.6015832745
 31
0.0
  0
LINE
  5
40F
330
1F
100
AcDbEntity
  8
0
  6
Continuous
 62
     7
370
    25
100
AcDbLine
 10
265.4316469353
 20
-290.6015832745
 30
0.0
 11
325.4316469353
 21
-290.6015832745
 31
0.0
  0
LINE
  5
410
330
1F
100
AcDbEntity
  8
0
  6
Continuous
 62
     7
370
    25
100
AcDbLine
 10
325.4316469353
 20
-290.6015832745
 30
0.0
 11
325.4316469353
 21
-278.6015832745
 31
0.0
  0
LINE
  5
411
330
1F
100
AcDbEntity
  8
0
  6
Continuous
 62
     7
370
    25
100
AcDbLine
 10
325.4316469353
 20
-278.6015832745
 30
0.0
 11
265.4316469353
 21
-278.6015832745
 31
0.0
  0
LINE
  5
412
330
1F
100
AcDbEntity
  8
0
  6
Continuous
 62
     7
370
    25
100
AcDbLine
 10
265.4316469353
 20
-278.6015832745
 30
0.0
 11
265.4316469353
 21
-290.6015832745
 31
0.0
  0
LINE
  5
413
330
1F
100
AcDbEntity
  8
0
  6
Continuous
 62
     7
370
    25
100
AcDbLine
 10
190.4303962053
 20
-562.6015832745
 30
0.0
 11
190.4303962053
 21
-57.3747104345
 31
0.0
  0
LINE
  5
414
330
1F
100
AcDbEntity
  8
0
  6
Continuous
 62
     7
370
    25
100
AcDbLine
 10
178.4303962053
 20
-57.3747104345
 30
0.0
 11
190.4303962053
 21
-57.3747104345
 31
0.0
  0
LINE
  5
415
330
1F
100
AcDbEntity
  8
0
  6
Continuous
 62
     7
370
    25
100
AcDbLine
 10
178.4303962053
 20
-562.6015832745
 30
0.0
 11
178.4303962053
 21
-57.3747104345
 31
0.0
  0
LINE
  5
416
330
1F
100
AcDbEntity
  8
0
  6
Continuous
 62
     7
370
    25
100
AcDbLine
 10
-19.1799654698
 20
532.6178742734
 30
0.0
 11
-19.1799654698
 21
426.4251817499
 31
0.0
  0
LINE
  5
417
330
1F
100
AcDbEntity
  8
0
  6
Continuous
 62
     7
370
    25
100
AcDbLine
 10
-19.1799654698
 20
426.4251817499
 30
0.0
 11
184.4303962053
 21
300.1846860744
 31
0.0
  0
LINE
  5
418
330
1F
100
AcDbEntity
  8
0
  6
Continuous
 62
     7
370
    25
100
AcDbLine
 10
388.0407578805
 20
426.4251817499
 30
0.0
 11
184.4303962053
 21
300.1846860744
 31
0.0
  0
LINE
  5
419
330
1F
100
AcDbEntity
  8
0
  6
Continuous
 62
     7
370
    25
100
AcDbLine
 10
388.0407578805
 20
532.6178742734
 30
0.0
 11
388.0407578805
 21
426.4251817499
 31
0.0
  0
LINE
  5
41A
330
1F
100
AcDbEntity
  8
0
  6
Continuous
 62
     7
370
    25
100
AcDbLine
 10
551.3253004028
 20
532.6178742734
 30
0.0
 11
388.0407578805
 21
532.6178742734
 31
0.0
  0
LINE
  5
41B
330
1F
100
AcDbEntity
  8
0
  6
Continuous
 62
     7
370
    25
100
AcDbLine
 10
551.3253004028
 20
532.6178742734
 30
0.0
 11
551.3253004028
 21
376.4678249327
 31
0.0
  0
LINE
  5
41C
330
1F
100
AcDbEntity
  8
0
  6
Continuous
 62
     7
370
    25
100
AcDbLine
 10
-16.5708545247
 20
73.3984167255
 30
0.0
 11
-16.5708545247
 21
85.3984167255
 31
0.0
  0
LINE
  5
41D
330
1F
100
AcDbEntity
  8
0
  6
Continuous
 62
     7
370
    25
100
AcDbLine
 10
103.4291454753
 20
73.3984167255
 30
0.0
 11
-16.5708545247
 21
73.3984167255
 31
0.0
  0
LINE
  5
41E
330
1F
100
AcDbEntity
  8
0
  6
Continuous
 62
     7
370
    25
100
AcDbLine
 10
103.4291454753
 20
85.3984167255
 30
0.0
 11
103.4291454753
 21
73.3984167255
 31
0.0
  0
LINE
  5
41F
330
1F
100
AcDbEntity
  8
0
  6
Continuous
 62
     7
370
    25
100
AcDbLine
 10
-16.5708545247
 20
85.3984167255
 30
0.0
 11
103.4291454753
 21
85.3984167255
 31
0.0
  0
LINE
  5
420
330
1F
100
AcDbEntity
  8
0
  6
Continuous
 62
     7
370
    25
100
AcDbLine
 10
43.4291454753
 20
-290.6015832745
 30
0.0
 11
43.4291454753
 21
-278.6015832745
 31
0.0
  0
LINE
  5
421
330
1F
100
AcDbEntity
  8
0
  6
Continuous
 62
     7
370
    25
100
AcDbLine
 10
103.4291454753
 20
-290.6015832745
 30
0.0
 11
43.4291454753
 21
-290.6015832745
 31
0.0
  0
LINE
  5
422
330
1F
100
AcDbEntity
  8
0
  6
Continuous
 62
     7
370
    25
100
AcDbLine
 10
103.4291454753
 20
-278.6015832745
 30
0.0
 11
103.4291454753
 21
-290.6015832745
 31
0.0
  0
LINE
  5
423
330
1F
100
AcDbEntity
  8
0
  6
Continuous
 62
     7
370
    25
100
AcDbLine
 10
43.4291454753
 20
-278.6015832745
 30
0.0
 11
103.4291454753
 21
-278.6015832745
 31
0.0
  0
LINE
  5
424
330
1F
100
AcDbEntity
  8
0
  6
Continuous
 62
     7
370
    25
100
AcDbLine
 10
103.4291454753
 20
-146.6015832745
 30
0.0
 11
103.4291454753
 21
-158.6015832745
 31
0.0
  0
LINE
  5
425
330
1F
100
AcDbEntity
  8
0
  6
Continuous
 62
     7
370
    25
100
AcDbLine
 10
-16.5708545247
 20
-146.6015832745
 30
0.0
 11
103.4291454753
 21
-146.6015832745
 31
0.0
  0
LINE
  5
426
330
1F
100
AcDbEntity
  8
0
  6
Continuous
 62
     7
370
    25
100
AcDbLine
 10
-16.5708545247
 20
-158.6015832745
 30
0.0
 11
-16.5708545247
 21
-146.6015832745
 31
0.0
  0
LINE
  5
427
330
1F
100
AcDbEntity
  8
0
  6
Continuous
 62
     7
370
    25
100
AcDbLine
 10
103.4291454753
 20
-158.6015832745
 30
0.0
 11
-16.5708545247
 21
-158.6015832745
 31
0.0
  0
LINE
  5
428
330
1F
100
AcDbEntity
  8
0
  6
Continuous
 62
     7
370
    25
100
AcDbLine
 10
133.4291454753
 20
-410.6015832745
 30
0.0
 11
133.4291454753
 21
-422.6015832745
 31
0.0
  0
LINE
  5
429
330
1F
100
AcDbEntity
  8
0
  6
Continuous
 62
     7
370
    25
100
AcDbLine
 10
99.4291454753
 20
-410.6015832745
 30
0.0
 11
133.4291454753
 21
-410.6015832745
 31
0.0
  0
LINE
  5
42A
330
1F
100
AcDbEntity
  8
0
  6
Continuous
 62
     7
370
    25
100
AcDbLine
 10
99.4291454753
 20
-422.6015832745
 30
0.0
 11
99.4291454753
 21
-410.6015832745
 31
0.0
  0
LINE
  5
42B
330
1F
100
AcDbEntity
  8
0
  6
Continuous
 62
     7
370
    25
100
AcDbLine
 10
133.4291454753
 20
-422.6015832745
 30
0.0
 11
99.4291454753
 21
-422.6015832745
 31
0.0
  0
LINE
  5
42C
330
1F
100
AcDbEntity
  8
0
  6
Continuous
 62
     7
370
    25
100
AcDbLine
 10
265.4316469353
 20
73.3984167255
 30
0.0
 11
385.4316469353
 21
73.3984167255
 31
0.0
  0
LINE
  5
42D
330
1F
100
AcDbEntity
  8
0
  6
Continuous
 62
     7
370
    25
100
AcDbLine
 10
385.4316469353
 20
73.3984167255
 30
0.0
 11
385.4316469353
 21
85.3984167255
 31
0.0
  0
LINE
  5
42E
330
1F
100
AcDbEntity
  8
0
  6
Continuous
 62
     7
370
    25
100
AcDbLine
 10
385.4316469353
 20
85.3984167255
 30
0.0
 11
265.4316469353
 21
85.3984167255
 31
0.0
  0
LINE
  5
42F
330
1F
100
AcDbEntity
  8
0
  6
Continuous
 62
     7
370
    25
100
AcDbLine
 10
265.4316469353
 20
85.3984167255
 30
0.0
 11
265.4316469353
 21
73.3984167255
 31
0.0
  0
LINE
  5
430
330
1F
100
AcDbEntity
  8
0
  6
Continuous
 62
     7
370
    25
100
AcDbLine
 10
385.4316469353
 20
-146.6015832745
 30
0.0
 11
265.4316469353
 21
-146.6015832745
 31
0.0
  0
LINE
  5
431
330
1F
100
AcDbEntity
  8
0
  6
Continuous
 62
     7
370
    25
100
AcDbLine
 10
265.4316469353
 20
-146.6015832745
 30
0.0
 11
265.4316469353
 21
-158.6015832745
 31
0.0
  0
LINE
  5
432
330
1F
100
AcDbEntity
  8
0
  6
Continuous
 62
     7
370
    25
100
AcDbLine
 10
265.4316469353
 20
-158.6015832745
 30
0.0
 11
385.4316469353
 21
-158.6015832745
 31
0.0
  0
LINE
  5
433
330
1F
100
AcDbEntity
  8
0
  6
Continuous
 62
     7
370
    25
100
AcDbLine
 10
385.4316469353
 20
-158.6015832745
 30
0.0
 11
385.4316469353
 21
-146.6015832745
 31
0.0
  0
LINE
  5
434
330
1F
100
AcDbEntity
  8
0
  6
Continuous
 62
     7
370
    25
100
AcDbLine
 10
-182.4645079921
 20
532.6178742734
 30
0.0
 11
-182.4645079921
 21
376.4678249327
 31
0.0
  0
LINE
  5
435
330
1F
100
AcDbEntity
  8
0
  6
Continuous
 62
     7
370
    25
100
AcDbLine
 10
-182.4645079921
 20
532.6178742734
 30
0.0
 11
-19.1799654698
 21
532.6178742734
 31
0.0
  0
LINE
  5
436
330
1F
100
AcDbEntity
  8
0
  6
Continuous
 62
     7
370
    25
100
AcDbLine
 10
-247.2803283738
 20
-485.1564773219
 30
0.0
 11
-172.4442485338
 21
-485.1564773219
 31
0.0
  0
LINE
  5
437
330
1F
100
AcDbEntity
  8
0
  6
Continuous
 62
     7
370
    25
100
AcDbLine
 10
-247.2803283738
 20
-485.1564773219
 30
0.0
 11
-247.2803283738
 21
-497.1564773219
 31
0.0
  0
LINE
  5
438
330
1F
100
AcDbEntity
  8
0
  6
Continuous
 62
     7
370
    25
100
AcDbLine
 10
-307.2803283738
 20
-497.1564773219
 30
0.0
 11
-247.2803283738
 21
-497.1564773219
 31
0.0
  0
LINE
  5
439
330
1F
100
AcDbEntity
  8
0
  6
Continuous
 62
     7
370
    25
100
AcDbLine
 10
-307.2803283738
 20
-485.1564773219
 30
0.0
 11
-307.2803283738
 21
-497.1564773219
 31
0.0
  0
LINE
  5
43A
330
1F
100
AcDbEntity
  8
0
  6
Continuous
 62
     7
370
    25
100
AcDbLine
 10
-382.2803283738
 20
-485.1564773219
 30
0.0
 11
-307.2803283738
 21
-485.1564773219
 31
0.0
  0
LINE
  5
43B
330
1F
100
AcDbEntity
  8
0
  6
Continuous
 62
     7
370
    25
100
AcDbLine
 10
-382.2803283738
 20
-485.1564773219
 30
0.0
 11
-382.2803283738
 21
-410.1564773219
 31
0.0
  0
LINE
  5
43C
330
1F
100
AcDbEntity
  8
0
  6
Continuous
 62
     7
370
    25
100
AcDbLine
 10
-382.2803283738
 20
-410.1564773219
 30
0.0
 11
-394.2803283738
 21
-410.1564773219
 31
0.0
  0
LINE
  5
43D
330
1F
100
AcDbEntity
  8
0
  6
Continuous
 62
     7
370
    25
100
AcDbLine
 10
-394.2803283738
 20
-410.1564773219
 30
0.0
 11
-394.2803283738
 21
-350.1564773219
 31
0.0
  0
LINE
  5
43E
330
1F
100
AcDbEntity
  8
0
  6
Continuous
 62
     7
370
    25
100
AcDbLine
 10
-382.2803283738
 20
-350.1564773219
 30
0.0
 11
-394.2803283738
 21
-350.1564773219
 31
0.0
  0
LINE
  5
43F
330
1F
100
AcDbEntity
  8
0
  6
Continuous
 62
     7
370
    25
100
AcDbLine
 10
-382.2803283738
 20
-350.1564773219
 30
0.0
 11
-382.2803283738
 21
-275.3203974819
 31
0.0
  0
LINE
  5
440
330
1F
100
AcDbEntity
  8
0
  6
Continuous
 62
     7
370
    25
100
AcDbLine
 10
-244.5426139148
 20
-152.4998904754
 30
0.0
 11
-169.7065340748
 21
-152.4998904754
 31
0.0
  0
LINE
  5
441
330
1F
100
AcDbEntity
  8
0
  6
Continuous
 62
     7
370
    25
100
AcDbLine
 10
-244.5426139148
 20
-152.4998904754
 30
0.0
 11
-244.5426139148
 21
-164.4998904754
 31
0.0
  0
LINE
  5
442
330
1F
100
AcDbEntity
  8
0
  6
Continuous
 62
     7
370
    25
100
AcDbLine
 10
-304.5426139148
 20
-164.4998904754
 30
0.0
 11
-244.5426139148
 21
-164.4998904754
 31
0.0
  0
LINE
  5
443
330
1F
100
AcDbEntity
  8
0
  6
Continuous
 62
     7
370
    25
100
AcDbLine
 10
-304.5426139148
 20
-152.4998904754
 30
0.0
 11
-304.5426139148
 21
-164.4998904754
 31
0.0
  0
LINE
  5
444
330
1F
100
AcDbEntity
  8
0
  6
Continuous
 62
     7
370
    25
100
AcDbLine
 10
-379.5426139148
 20
-152.4998904754
 30
0.0
 11
-304.5426139148
 21
-152.4998904754
 31
0.0
  0
LINE
  5
445
330
1F
100
AcDbEntity
  8
0
  6
Continuous
 62
     7
370
    25
100
AcDbLine
 10
-379.5426139148
 20
-152.4998904754
 30
0.0
 11
-379.5426139148
 21
-77.4998904754
 31
0.0
  0
LINE
  5
446
330
1F
100
AcDbEntity
  8
0
  6
Continuous
 62
     7
370
    25
100
AcDbLine
 10
-379.5426139148
 20
-77.4998904754
 30
0.0
 11
-391.5426139148
 21
-77.4998904754
 31
0.0
  0
LINE
  5
447
330
1F
100
AcDbEntity
  8
0
  6
Continuous
 62
     7
370
    25
100
AcDbLine
 10
-391.5426139148
 20
-77.4998904754
 30
0.0
 11
-391.5426139148
 21
-17.4998904754
 31
0.0
  0
LINE
  5
448
330
1F
100
AcDbEntity
  8
0
  6
Continuous
 62
     7
370
    25
100
AcDbLine
 10
-379.5426139148
 20
-17.4998904754
 30
0.0
 11
-391.5426139148
 21
-17.4998904754
 31
0.0
  0
LINE
  5
449
330
1F
100
AcDbEntity
  8
0
  6
Continuous
 62
     7
370
    25
100
AcDbLine
 10
-379.5426139148
 20
-17.4998904754
 30
0.0
 11
-379.5426139148
 21
57.3361893646
 31
0.0
  0
LINE
  5
44A
330
1F
100
AcDbEntity
  8
0
  6
Continuous
 62
     7
370
    25
100
AcDbLine
 10
-343.4645079921
 20
275.16392016
 30
0.0
 11
-290.6284281521
 21
275.16392016
 31
0.0
  0
LINE
  5
44B
330
1F
100
AcDbEntity
  8
0
  6
Continuous
 62
     7
370
    25
100
AcDbLine
 10
-343.4645079921
 20
275.16392016
 30
0.0
 11
-343.4645079921
 21
263.16392016
 31
0.0
  0
LINE
  5
44C
330
1F
100
AcDbEntity
  8
0
  6
Continuous
 62
     7
370
    25
100
AcDbLine
 10
-377.4645079921
 20
263.16392016
 30
0.0
 11
-343.4645079921
 21
263.16392016
 31
0.0
  0
LINE
  5
44D
330
1F
100
AcDbEntity
  8
0
  6
Continuous
 62
     7
370
    25
100
AcDbLine
 10
-377.4645079921
 20
275.16392016
 30
0.0
 11
-377.4645079921
 21
263.16392016
 31
0.0
  0
LINE
  5
44E
330
1F
100
AcDbEntity
  8
0
  6
Continuous
 62
     7
370
    25
100
AcDbLine
 10
-422.4645079921
 20
275.16392016
 30
0.0
 11
-377.4645079921
 21
275.16392016
 31
0.0
  0
LINE
  5
44F
330
1F
100
AcDbEntity
  8
0
  6
Continuous
 62
     7
370
    25
100
AcDbLine
 10
-422.4645079921
 20
275.16392016
 30
0.0
 11
-422.4645079921
 21
320.16392016
 31
0.0
  0
LINE
  5
450
330
1F
100
AcDbEntity
  8
0
  6
Continuous
 62
     7
370
    25
100
AcDbLine
 10
-422.4645079921
 20
320.16392016
 30
0.0
 11
-434.4645079921
 21
320.16392016
 31
0.0
  0
LINE
  5
451
330
1F
100
AcDbEntity
  8
0
  6
Continuous
 62
     7
370
    25
100
AcDbLine
 10
-434.4645079921
 20
320.16392016
 30
0.0
 11
-434.4645079921
 21
354.16392016
 31
0.0
  0
LINE
  5
452
330
1F
100
AcDbEntity
  8
0
  6
Continuous
 62
     7
370
    25
100
AcDbLine
 10
-422.4645079921
 20
354.16392016
 30
0.0
 11
-434.4645079921
 21
354.16392016
 31
0.0
  0
LINE
  5
453
330
1F
100
AcDbEntity
  8
0
  6
Continuous
 62
     7
370
    25
100
AcDbLine
 10
-422.4645079921
 20
354.16392016
 30
0.0
 11
-422.4645079921
 21
407.0
 31
0.0
  0
LINE
  5
454
330
1F
100
AcDbEntity
  8
0
  6
Continuous
 62
     7
370
    25
100
AcDbLine
 10
-343.4645079921
 20
121.32784032
 30
0.0
 11
-290.6284281521
 21
121.32784032
 31
0.0
  0
LINE
  5
455
330
1F
100
AcDbEntity
  8
0
  6
Continuous
 62
     7
370
    25
100
AcDbLine
 10
-343.4645079921
 20
121.32784032
 30
0.0
 11
-343.4645079921
 21
109.32784032
 31
0.0
  0
LINE
  5
456
330
1F
100
AcDbEntity
  8
0
  6
Continuous
 62
     7
370
    25
100
AcDbLine
 10
-377.4645079921
 20
109.32784032
 30
0.0
 11
-343.4645079921
 21
109.32784032
 31
0.0
  0
LINE
  5
457
330
1F
100
AcDbEntity
  8
0
  6
Continuous
 62
     7
370
    25
100
AcDbLine
 10
-377.4645079921
 20
121.32784032
 30
0.0
 11
-377.4645079921
 21
109.32784032
 31
0.0
  0
LINE
  5
458
330
1F
100
AcDbEntity
  8
0
  6
Continuous
 62
     7
370
    25
100
AcDbLine
 10
-422.4645079921
 20
121.32784032
 30
0.0
 11
-377.4645079921
 21
121.32784032
 31
0.0
  0
LINE
  5
459
330
1F
100
AcDbEntity
  8
0
  6
Continuous
 62
     7
370
    25
100
AcDbLine
 10
-422.4645079921
 20
121.32784032
 30
0.0
 11
-422.4645079921
 21
166.32784032
 31
0.0
  0
LINE
  5
45A
330
1F
100
AcDbEntity
  8
0
  6
Continuous
 62
     7
370
    25
100
AcDbLine
 10
-422.4645079921
 20
166.32784032
 30
0.0
 11
-434.4645079921
 21
166.32784032
 31
0.0
  0
LINE
  5
45B
330
1F
100
AcDbEntity
  8
0
  6
Continuous
 62
     7
370
    25
100
AcDbLine
 10
-434.4645079921
 20
166.32784032
 30
0.0
 11
-434.4645079921
 21
200.32784032
 31
0.0
  0
LINE
  5
45C
330
1F
100
AcDbEntity
  8
0
  6
Continuous
 62
     7
370
    25
100
AcDbLine
 10
-422.4645079921
 20
200.32784032
 30
0.0
 11
-434.4645079921
 21
200.32784032
 31
0.0
  0
LINE
  5
45D
330
1F
100
AcDbEntity
  8
0
  6
Continuous
 62
     7
370
    25
100
AcDbLine
 10
-422.4645079921
 20
200.32784032
 30
0.0
 11
-422.4645079921
 21
253.16392016
 31
0.0
  0
LINE
  5
45E
330
1F
100
AcDbEntity
  8
0
  6
Continuous
 62
     7
370
    25
100
AcDbLine
 10
726.8665821839
 20
380.5445846534
 30
0.0
 11
760.8665821839
 21
380.5445846534
 31
0.0
  0
LINE
  5
45F
330
1F
100
AcDbEntity
  8
0
  6
Continuous
 62
     7
370
    25
100
AcDbLine
 10
760.8665821839
 20
380.5445846534
 30
0.0
 11
760.8665821839
 21
392.5445846534
 31
0.0
  0
LINE
  5
460
330
1F
100
AcDbEntity
  8
0
  6
Continuous
 62
     7
370
    25
100
AcDbLine
 10
760.8665821839
 20
392.5445846534
 30
0.0
 11
726.8665821839
 21
392.5445846534
 31
0.0
  0
LINE
  5
461
330
1F
100
AcDbEntity
  8
0
  6
Continuous
 62
     7
370
    25
100
AcDbLine
 10
726.8665821839
 20
392.5445846534
 30
0.0
 11
726.8665821839
 21
380.5445846534
 31
0.0
  0
LINE
  5
462
330
1F
100
AcDbEntity
  8
0
  6
Continuous
 62
     7
370
    25
100
AcDbLine
 10
610.8665821839
 20
116.5445846534
 30
0.0
 11
730.8665821839
 21
116.5445846534
 31
0.0
  0
LINE
  5
463
330
1F
100
AcDbEntity
  8
0
  6
Continuous
 62
     7
370
    25
100
AcDbLine
 10
730.8665821839
 20
116.5445846534
 30
0.0
 11
730.8665821839
 21
128.5445846534
 31
0.0
  0
LINE
  5
464
330
1F
100
AcDbEntity
  8
0
  6
Continuous
 62
     7
370
    25
100
AcDbLine
 10
730.8665821839
 20
128.5445846534
 30
0.0
 11
610.8665821839
 21
128.5445846534
 31
0.0
  0
LINE
  5
465
330
1F
100
AcDbEntity
  8
0
  6
Continuous
 62
     7
370
    25
100
AcDbLine
 10
610.8665821839
 20
128.5445846534
 30
0.0
 11
610.8665821839
 21
116.5445846534
 31
0.0
  0
LINE
  5
466
330
1F
100
AcDbEntity
  8
0
  6
Continuous
 62
     7
370
    25
100
AcDbLine
 10
1178.7614863814
 20
-562.6854153466
 30
0.0
 11
1178.7614863814
 21
-406.5353660059
 31
0.0
  0
LINE
  5
467
330
1F
100
AcDbEntity
  8
0
  6
Continuous
 62
     7
370
    25
100
AcDbLine
 10
1178.7614863814
 20
-562.6854153466
 30
0.0
 11
1015.476943859
 21
-562.6854153466
 31
0.0
  0
LINE
  5
468
330
1F
100
AcDbEntity
  8
0
  6
Continuous
 62
     7
370
    25
100
AcDbLine
 10
1015.476943859
 20
-562.6854153466
 30
0.0
 11
1015.476943859
 21
-456.4927228232
 31
0.0
  0
LINE
  5
469
330
1F
100
AcDbEntity
  8
0
  6
Continuous
 62
     7
370
    25
100
AcDbLine
 10
1015.476943859
 20
-456.4927228232
 30
0.0
 11
817.8665821839
 21
-333.9722881889
 31
0.0
  0
LINE
  5
46A
330
1F
100
AcDbEntity
  8
0
  6
Continuous
 62
     7
370
    25
100
AcDbLine
 10
817.8665821839
 20
27.3145846534
 30
0.0
 11
817.8665821839
 21
-333.9722881889
 31
0.0
  0
LINE
  5
46B
330
1F
100
AcDbEntity
  8
0
  6
Continuous
 62
     7
370
    25
100
AcDbLine
 10
817.8665821839
 20
27.3145846534
 30
0.0
 11
805.8665821839
 21
27.3145846534
 31
0.0
  0
LINE
  5
46C
330
1F
100
AcDbEntity
  8
0
  6
Continuous
 62
     7
370
    25
100
AcDbLine
 10
805.8665821839
 20
27.3145846534
 30
0.0
 11
805.8665821839
 21
-333.9722881889
 31
0.0
  0
LINE
  5
46D
330
1F
100
AcDbEntity
  8
0
  6
Continuous
 62
     7
370
    25
100
AcDbLine
 10
608.2562205087
 20
-456.4927228232
 30
0.0
 11
805.8665821839
 21
-333.9722881889
 31
0.0
  0
LINE
  5
46E
330
1F
100
AcDbEntity
  8
0
  6
Continuous
 62
     7
370
    25
100
AcDbLine
 10
608.2562205087
 20
-562.6854153466
 30
0.0
 11
608.2562205087
 21
-456.4927228232
 31
0.0
  0
LINE
  5
46F
330
1F
100
AcDbEntity
  8
0
  6
Continuous
 62
     7
370
    25
100
AcDbLine
 10
444.9716779864
 20
-562.6854153466
 30
0.0
 11
608.2562205087
 21
-562.6854153466
 31
0.0
  0
LINE
  5
470
330
1F
100
AcDbEntity
  8
0
  6
Continuous
 62
     7
370
    25
100
AcDbLine
 10
444.9716779864
 20
-562.6854153466
 30
0.0
 11
444.9716779864
 21
-406.5353660059
 31
0.0
  0
LINE
  5
471
330
1F
100
AcDbEntity
  8
0
  6
Continuous
 62
     7
370
    25
100
AcDbLine
 10
892.8665821839
 20
-115.4554153466
 30
0.0
 11
892.8665821839
 21
-103.4554153466
 31
0.0
  0
LINE
  5
472
330
1F
100
AcDbEntity
  8
0
  6
Continuous
 62
     7
370
    25
100
AcDbLine
 10
1012.8665821839
 20
-115.4554153466
 30
0.0
 11
892.8665821839
 21
-115.4554153466
 31
0.0
  0
LINE
  5
473
330
1F
100
AcDbEntity
  8
0
  6
Continuous
 62
     7
370
    25
100
AcDbLine
 10
1012.8665821839
 20
-103.4554153466
 30
0.0
 11
1012.8665821839
 21
-115.4554153466
 31
0.0
  0
LINE
  5
474
330
1F
100
AcDbEntity
  8
0
  6
Continuous
 62
     7
370
    25
100
AcDbLine
 10
892.8665821839
 20
-103.4554153466
 30
0.0
 11
1012.8665821839
 21
-103.4554153466
 31
0.0
  0
LINE
  5
475
330
1F
100
AcDbEntity
  8
0
  6
Continuous
 62
     7
370
    25
100
AcDbLine
 10
892.8665821839
 20
116.5445846534
 30
0.0
 11
892.8665821839
 21
128.5445846534
 31
0.0
  0
LINE
  5
476
330
1F
100
AcDbEntity
  8
0
  6
Continuous
 62
     7
370
    25
100
AcDbLine
 10
1012.8665821839
 20
116.5445846534
 30
0.0
 11
892.8665821839
 21
116.5445846534
 31
0.0
  0
LINE
  5
477
330
1F
100
AcDbEntity
  8
0
  6
Continuous
 62
     7
370
    25
100
AcDbLine
 10
1012.8665821839
 20
128.5445846534
 30
0.0
 11
1012.8665821839
 21
116.5445846534
 31
0.0
  0
LINE
  5
478
330
1F
100
AcDbEntity
  8
0
  6
Continuous
 62
     7
370
    25
100
AcDbLine
 10
892.8665821839
 20
128.5445846534
 30
0.0
 11
1012.8665821839
 21
128.5445846534
 31
0.0
  0
LINE
  5
479
330
1F
100
AcDbEntity
  8
0
  6
Continuous
 62
     7
370
    25
100
AcDbLine
 10
952.8665821839
 20
260.5445846534
 30
0.0
 11
952.8665821839
 21
248.5445846534
 31
0.0
  0
LINE
  5
47A
330
1F
100
AcDbEntity
  8
0
  6
Continuous
 62
     7
370
    25
100
AcDbLine
 10
892.8665821839
 20
260.5445846534
 30
0.0
 11
952.8665821839
 21
260.5445846534
 31
0.0
  0
LINE
  5
47B
330
1F
100
AcDbEntity
  8
0
  6
Continuous
 62
     7
370
    25
100
AcDbLine
 10
892.8665821839
 20
248.5445846534
 30
0.0
 11
892.8665821839
 21
260.5445846534
 31
0.0
  0
LINE
  5
47C
330
1F
100
AcDbEntity
  8
0
  6
Continuous
 62
     7
370
    25
100
AcDbLine
 10
952.8665821839
 20
248.5445846534
 30
0.0
 11
892.8665821839
 21
248.5445846534
 31
0.0
  0
LINE
  5
47D
330
1F
100
AcDbEntity
  8
0
  6
Continuous
 62
     7
370
    25
100
AcDbLine
 10
862.8665821839
 20
380.5445846534
 30
0.0
 11
862.8665821839
 21
392.5445846534
 31
0.0
  0
LINE
  5
47E
330
1F
100
AcDbEntity
  8
0
  6
Continuous
 62
     7
370
    25
100
AcDbLine
 10
896.8665821839
 20
380.5445846534
 30
0.0
 11
862.8665821839
 21
380.5445846534
 31
0.0
  0
LINE
  5
47F
330
1F
100
AcDbEntity
  8
0
  6
Continuous
 62
     7
370
    25
100
AcDbLine
 10
896.8665821839
 20
392.5445846534
 30
0.0
 11
896.8665821839
 21
380.5445846534
 31
0.0
  0
LINE
  5
480
330
1F
100
AcDbEntity
  8
0
  6
Continuous
 62
     7
370
    25
100
AcDbLine
 10
862.8665821839
 20
392.5445846534
 30
0.0
 11
896.8665821839
 21
392.5445846534
 31
0.0
  0
LINE
  5
481
330
1F
100
AcDbEntity
  8
0
  6
Continuous
 62
     7
370
    25
100
AcDbLine
 10
610.8665821839
 20
-115.4554153466
 30
0.0
 11
730.8665821839
 21
-115.4554153466
 31
0.0
  0
LINE
  5
482
330
1F
100
AcDbEntity
  8
0
  6
Continuous
 62
     7
370
    25
100
AcDbLine
 10
730.8665821839
 20
-115.4554153466
 30
0.0
 11
730.8665821839
 21
-103.4554153466
 31
0.0
  0
LINE
  5
483
330
1F
100
AcDbEntity
  8
0
  6
Continuous
 62
     7
370
    25
100
AcDbLine
 10
730.8665821839
 20
-103.4554153466
 30
0.0
 11
610.8665821839
 21
-103.4554153466
 31
0.0
  0
LINE
  5
484
330
1F
100
AcDbEntity
  8
0
  6
Continuous
 62
     7
370
    25
100
AcDbLine
 10
610.8665821839
 20
-103.4554153466
 30
0.0
 11
610.8665821839
 21
-115.4554153466
 31
0.0
  0
LINE
  5
485
330
1F
100
AcDbEntity
  8
0
  6
Continuous
 62
     7
370
    25
100
AcDbLine
 10
730.8665821839
 20
260.5445846534
 30
0.0
 11
670.8665821839
 21
260.5445846534
 31
0.0
  0
LINE
  5
486
330
1F
100
AcDbEntity
  8
0
  6
Continuous
 62
     7
370
    25
100
AcDbLine
 10
670.8665821839
 20
260.5445846534
 30
0.0
 11
670.8665821839
 21
248.5445846534
 31
0.0
  0
LINE
  5
487
330
1F
100
AcDbEntity
  8
0
  6
Continuous
 62
     7
370
    25
100
AcDbLine
 10
670.8665821839
 20
248.5445846534
 30
0.0
 11
730.8665821839
 21
248.5445846534
 31
0.0
  0
LINE
  5
488
330
1F
100
AcDbEntity
  8
0
  6
Continuous
 62
     7
370
    25
100
AcDbLine
 10
730.8665821839
 20
248.5445846534
 30
0.0
 11
730.8665821839
 21
260.5445846534
 31
0.0
  0
LINE
  5
489
330
1F
100
AcDbEntity
  8
0
  6
Continuous
 62
     7
370
    25
100
AcDbLine
 10
159.6959742828
 20
454.8636633417
 30
0.0
 11
147.6959742828
 21
454.8636633417
 31
0.0
  0
LINE
  5
48A
330
1F
100
AcDbEntity
  8
0
  6
Continuous
 62
     7
370
    25
100
AcDbLine
 10
159.6959742828
 20
430.8636633417
 30
0.0
 11
159.6959742828
 21
454.8636633417
 31
0.0
  0
LINE
  5
48B
330
1F
100
AcDbEntity
  8
0
  6
Continuous
 62
     7
370
    25
100
AcDbLine
 10
147.6959742828
 20
430.8636633417
 30
0.0
 11
159.6959742828
 21
430.8636633417
 31
0.0
  0
LINE
  5
48C
330
1F
100
AcDbEntity
  8
0
  6
Continuous
 62
     7
370
    25
100
AcDbLine
 10
147.6959742828
 20
454.8636633417
 30
0.0
 11
147.6959742828
 21
430.8636633417
 31
0.0
  0
LINE
  5
48D
330
1F
100
AcDbEntity
  8
0
  6
Continuous
 62
     7
370
    25
100
AcDbLine
 10
145.2482176398
 20
556.0538943605
 30
0.0
 11
133.2482176398
 21
556.0538943605
 31
0.0
  0
LINE
  5
48E
330
1F
100
AcDbEntity
  8
0
  6
Continuous
 62
     7
370
    25
100
AcDbLine
 10
133.2482176398
 20
532.0538943605
 30
0.0
 11
145.2482176398
 21
532.0538943605
 31
0.0
  0
LINE
  5
48F
330
1F
100
AcDbEntity
  8
0
  6
Continuous
 62
     7
370
    25
100
AcDbLine
 10
145.2482176398
 20
532.0538943605
 30
0.0
 11
145.2482176398
 21
556.0538943605
 31
0.0
  0
LINE
  5
490
330
1F
100
AcDbEntity
  8
0
  6
Continuous
 62
     7
370
    25
100
AcDbLine
 10
133.2482176398
 20
556.0538943605
 30
0.0
 11
133.2482176398
 21
532.0538943605
 31
0.0
  0
LINE
  5
491
330
1F
100
AcDbEntity
  8
0
  6
Continuous
 62
     7
370
    25
100
AcDbLine
 10
60.4246736845
 20
556.9822346336
 30
0.0
 11
48.4246736845
 21
556.9822346336
 31
0.0
  0
LINE
  5
492
330
1F
100
AcDbEntity
  8
0
  6
Continuous
 62
     7
370
    25
100
AcDbLine
 10
60.4246736845
 20
532.9822346336
 30
0.0
 11
60.4246736845
 21
556.9822346336
 31
0.0
  0
LINE
  5
493
330
1F
100
AcDbEntity
  8
0
  6
Continuous
 62
     7
370
    25
100
AcDbLine
 10
48.4246736845
 20
532.9822346336
 30
0.0
 11
60.4246736845
 21
532.9822346336
 31
0.0
  0
LINE
  5
494
330
1F
100
AcDbEntity
  8
0
  6
Continuous
 62
     7
370
    25
100
AcDbLine
 10
48.4246736845
 20
556.9822346336
 30
0.0
 11
48.4246736845
 21
532.9822346336
 31
0.0
  0
LINE
  5
495
330
1F
100
AcDbEntity
  8
0
  6
Continuous
 62
     7
370
    25
100
AcDbLine
 10
305.9707792876
 20
531.7397484298
 30
0.0
 11
317.9707792876
 21
531.7397484298
 31
0.0
  0
LINE
  5
496
330
1F
100
AcDbEntity
  8
0
  6
Continuous
 62
     7
370
    25
100
AcDbLine
 10
305.9707792876
 20
555.7397484298
 30
0.0
 11
305.9707792876
 21
531.7397484298
 31
0.0
  0
LINE
  5
497
330
1F
100
AcDbEntity
  8
0
  6
Continuous
 62
     7
370
    25
100
AcDbLine
 10
317.9707792876
 20
531.7397484298
 30
0.0
 11
317.9707792876
 21
555.7397484298
 31
0.0
  0
LINE
  5
498
330
1F
100
AcDbEntity
  8
0
  6
Continuous
 62
     7
370
    25
100
AcDbLine
 10
317.9707792876
 20
555.7397484298
 30
0.0
 11
305.9707792876
 21
555.7397484298
 31
0.0
  0
LINE
  5
499
330
1F
100
AcDbEntity
  8
0
  6
Continuous
 62
     7
370
    25
100
AcDbLine
 10
237.7743689061
 20
425.9414057758
 30
0.0
 11
249.7743689061
 21
425.9414057758
 31
0.0
  0
LINE
  5
49A
330
1F
100
AcDbEntity
  8
0
  6
Continuous
 62
     7
370
    25
100
AcDbLine
 10
237.7743689061
 20
449.9414057758
 30
0.0
 11
237.7743689061
 21
425.9414057758
 31
0.0
  0
LINE
  5
49B
330
1F
100
AcDbEntity
  8
0
  6
Continuous
 62
     7
370
    25
100
AcDbLine
 10
249.7743689061
 20
449.9414057758
 30
0.0
 11
237.7743689061
 21
449.9414057758
 31
0.0
  0
LINE
  5
49C
330
1F
100
AcDbEntity
  8
0
  6
Continuous
 62
     7
370
    25
100
AcDbLine
 10
249.7743689061
 20
425.9414057758
 30
0.0
 11
249.7743689061
 21
449.9414057758
 31
0.0
  0
LINE
  5
49D
330
1F
100
AcDbEntity
  8
0
  6
Continuous
 62
     7
370
    25
100
AcDbLine
 10
86.0845341795
 20
429.9431799927
 30
0.0
 11
98.0845341795
 21
429.9431799927
 31
0.0
  0
LINE
  5
49E
330
1F
100
AcDbEntity
  8
0
  6
Continuous
 62
     7
370
    25
100
AcDbLine
 10
86.0845341795
 20
453.9431799927
 30
0.0
 11
86.0845341795
 21
429.9431799927
 31
0.0
  0
LINE
  5
49F
330
1F
100
AcDbEntity
  8
0
  6
Continuous
 62
     7
370
    25
100
AcDbLine
 10
98.0845341795
 20
453.9431799927
 30
0.0
 11
86.0845341795
 21
453.9431799927
 31
0.0
  0
LINE
  5
4A0
330
1F
100
AcDbEntity
  8
0
  6
Continuous
 62
     7
370
    25
100
AcDbLine
 10
98.0845341795
 20
429.9431799927
 30
0.0
 11
98.0845341795
 21
453.9431799927
 31
0.0
  0
LINE
  5
4A1
330
1F
100
AcDbEntity
  8
0
  6
Continuous
 62
     7
370
    25
100
AcDbLine
 10
309.8063509065
 20
424.708093532
 30
0.0
 11
321.8063509065
 21
424.708093532
 31
0.0
  0
LINE
  5
4A2
330
1F
100
AcDbEntity
  8
0
  6
Continuous
 62
     7
370
    25
100
AcDbLine
 10
321.8063509065
 20
448.708093532
 30
0.0
 11
309.8063509065
 21
448.708093532
 31
0.0
  0
LINE
  5
4A3
330
1F
100
AcDbEntity
  8
0
  6
Continuous
 62
     7
370
    25
100
AcDbLine
 10
321.8063509065
 20
424.708093532
 30
0.0
 11
321.8063509065
 21
448.708093532
 31
0.0
  0
LINE
  5
4A4
330
1F
100
AcDbEntity
  8
0
  6
Continuous
 62
     7
370
    25
100
AcDbLine
 10
309.8063509065
 20
448.708093532
 30
0.0
 11
309.8063509065
 21
424.708093532
 31
0.0
  0
LINE
  5
4A5
330
1F
100
AcDbEntity
  8
0
  6
Continuous
 62
     7
370
    25
100
AcDbLine
 10
226.2753542201
 20
533.0909988844
 30
0.0
 11
238.2753542201
 21
533.0909988844
 31
0.0
  0
LINE
  5
4A6
330
1F
100
AcDbEntity
  8
0
  6
Continuous
 62
     7
370
    25
100
AcDbLine
 10
238.2753542201
 20
557.0909988844
 30
0.0
 11
226.2753542201
 21
557.0909988844
 31
0.0
  0
LINE
  5
4A7
330
1F
100
AcDbEntity
  8
0
  6
Continuous
 62
     7
370
    25
100
AcDbLine
 10
226.2753542201
 20
557.0909988844
 30
0.0
 11
226.2753542201
 21
533.0909988844
 31
0.0
  0
LINE
  5
4A8
330
1F
100
AcDbEntity
  8
0
  6
Continuous
 62
     7
370
    25
100
AcDbLine
 10
238.2753542201
 20
533.0909988844
 30
0.0
 11
238.2753542201
 21
557.0909988844
 31
0.0
  0
LINE
  5
4A9
330
1F
100
AcDbEntity
  8
0
  6
Continuous
 62
     7
370
    25
100
AcDbLine
 10
-72.8733513543
 20
-529.6009363932
 30
0.0
 11
-72.8733513326
 21
-509.1799984149
 31
0.0
  0
LINE
  5
4AA
330
1F
100
AcDbEntity
  8
0
  6
Continuous
 62
     7
370
    25
100
AcDbLine
 10
-77.2574133543
 20
-504.7959363932
 30
0.0
 11
-84.8733513543
 21
-504.7959363932
 31
0.0
  0
LINE
  5
4AB
330
1F
100
AcDbEntity
  8
0
  6
Continuous
 62
     7
370
    25
100
AcDbLine
 10
-84.8733513543
 20
-504.7959363932
 30
0.0
 11
-84.8733513543
 21
-480.4059363932
 31
0.0
  0
LINE
  5
4AC
330
1F
100
AcDbEntity
  8
0
  6
Continuous
 62
     7
370
    25
100
AcDbLine
 10
-84.8733513543
 20
-480.4059363932
 30
0.0
 11
-77.257413376
 21
-480.4059364149
 31
0.0
  0
LINE
  5
4AD
330
1F
100
AcDbEntity
  8
0
  6
Continuous
 62
     7
370
    25
100
AcDbLine
 10
-72.8733513543
 20
-476.0218743932
 30
0.0
 11
-72.8733513543
 21
-455.6009363932
 31
0.0
  0
LINE
  5
4AE
330
1F
100
AcDbEntity
  8
0
  6
Continuous
 62
     7
370
    25
100
AcDbLine
 10
-72.8733513543
 20
-455.6009363932
 30
0.0
 11
-60.0683513543
 21
-455.6009363932
 31
0.0
  0
LINE
  5
4AF
330
1F
100
AcDbEntity
  8
0
  6
Continuous
 62
     7
370
    25
100
AcDbLine
 10
-60.0683513543
 20
-455.6009363932
 30
0.0
 11
-60.068351376
 21
-463.2168743716
 31
0.0
  0
LINE
  5
4B0
330
1F
100
AcDbEntity
  8
0
  6
Continuous
 62
     7
370
    25
100
AcDbLine
 10
-55.6842893543
 20
-467.6009363932
 30
0.0
 11
-40.0624133543
 21
-467.6009363932
 31
0.0
  0
LINE
  5
4B1
330
1F
100
AcDbEntity
  8
0
  6
Continuous
 62
     7
370
    25
100
AcDbLine
 10
-35.6783513651
 20
-463.2168744041
 30
0.0
 11
-35.6783513543
 21
-455.6009363932
 31
0.0
  0
LINE
  5
4B2
330
1F
100
AcDbEntity
  8
0
  6
Continuous
 62
     7
370
    25
100
AcDbLine
 10
-35.6783513543
 20
-455.6009363932
 30
0.0
 11
-22.8733513543
 21
-455.6009363932
 31
0.0
  0
LINE
  5
4B3
330
1F
100
AcDbEntity
  8
0
  6
Continuous
 62
     7
370
    25
100
AcDbLine
 10
-22.8733513543
 20
-455.6009363932
 30
0.0
 11
-22.873351376
 21
-476.0218743716
 31
0.0
  0
LINE
  5
4B4
330
1F
100
AcDbEntity
  8
0
  6
Continuous
 62
     7
370
    25
100
AcDbLine
 10
-18.4892893543
 20
-480.4059363932
 30
0.0
 11
-10.8733513543
 21
-480.4059363932
 31
0.0
  0
LINE
  5
4B5
330
1F
100
AcDbEntity
  8
0
  6
Continuous
 62
     7
370
    25
100
AcDbLine
 10
-10.8733513543
 20
-480.4059363932
 30
0.0
 11
-10.8733513543
 21
-504.7959363932
 31
0.0
  0
LINE
  5
4B6
330
1F
100
AcDbEntity
  8
0
  6
Continuous
 62
     7
370
    25
100
AcDbLine
 10
-10.8733513543
 20
-504.7959363932
 30
0.0
 11
-18.4892893326
 21
-504.7959363716
 31
0.0
  0
LINE
  5
4B7
330
1F
100
AcDbEntity
  8
0
  6
Continuous
 62
     7
370
    25
100
AcDbLine
 10
-22.8733513543
 20
-509.1799983932
 30
0.0
 11
-22.8733513543
 21
-529.6009363932
 31
0.0
  0
LINE
  5
4B8
330
1F
100
AcDbEntity
  8
0
  6
Continuous
 62
     7
370
    25
100
AcDbLine
 10
-22.8733513543
 20
-529.6009363932
 30
0.0
 11
-35.6783513543
 21
-529.6009363932
 31
0.0
  0
LINE
  5
4B9
330
1F
100
AcDbEntity
  8
0
  6
Continuous
 62
     7
370
    25
100
AcDbLine
 10
-35.6783513543
 20
-529.6009363932
 30
0.0
 11
-35.6783513326
 21
-521.9849984149
 31
0.0
  0
LINE
  5
4BA
330
1F
100
AcDbEntity
  8
0
  6
Continuous
 62
     7
370
    25
100
AcDbLine
 10
-40.0624133543
 20
-517.6009363932
 30
0.0
 11
-55.6842893543
 21
-517.6009363932
 31
0.0
  0
LINE
  5
4BB
330
1F
100
AcDbEntity
  8
0
  6
Continuous
 62
     7
370
    25
100
AcDbLine
 10
-60.0683513434
 20
-521.9849983824
 30
0.0
 11
-60.0683513543
 21
-529.6009363932
 31
0.0
  0
LINE
  5
4BC
330
1F
100
AcDbEntity
  8
0
  6
Continuous
 62
     7
370
    25
100
AcDbLine
 10
-60.0683513543
 20
-529.6009363932
 30
0.0
 11
-72.8733513543
 21
-529.6009363932
 31
0.0
  0
LINE
  5
4BD
330
1F
100
AcDbEntity
  8
0
  6
Continuous
 62
     7
370
    25
100
AcDbLine
 10
-836.4645079921
 20
-569.4422255664
 30
0.0
 11
-836.4645079705
 21
-549.021287588
 31
0.0
  0
LINE
  5
4BE
330
1F
100
AcDbEntity
  8
0
  6
Continuous
 62
     7
370
    25
100
AcDbLine
 10
-840.8485699921
 20
-544.6372255664
 30
0.0
 11
-848.4645079921
 21
-544.6372255664
 31
0.0
  0
LINE
  5
4BF
330
1F
100
AcDbEntity
  8
0
  6
Continuous
 62
     7
370
    25
100
AcDbLine
 10
-848.4645079921
 20
-544.6372255664
 30
0.0
 11
-848.4645079921
 21
-520.2472255664
 31
0.0
  0
LINE
  5
4C0
330
1F
100
AcDbEntity
  8
0
  6
Continuous
 62
     7
370
    25
100
AcDbLine
 10
-848.4645079921
 20
-520.2472255664
 30
0.0
 11
-840.8485700138
 21
-520.247225588
 31
0.0
  0
LINE
  5
4C1
330
1F
100
AcDbEntity
  8
0
  6
Continuous
 62
     7
370
    25
100
AcDbLine
 10
-836.4645079921
 20
-495.4422255664
 30
0.0
 11
-823.6595079921
 21
-495.4422255664
 31
0.0
  0
LINE
  5
4C2
330
1F
100
AcDbEntity
  8
0
  6
Continuous
 62
     7
370
    25
100
AcDbLine
 10
-819.2754459921
 20
-507.4422255664
 30
0.0
 11
-803.6535699921
 21
-507.4422255664
 31
0.0
  0
LINE
  5
4C3
330
1F
100
AcDbEntity
  8
0
  6
Continuous
 62
     7
370
    25
100
AcDbLine
 10
-799.269508003
 20
-503.0581635772
 30
0.0
 11
-799.2695079921
 21
-495.4422255664
 31
0.0
  0
LINE
  5
4C4
330
1F
100
AcDbEntity
  8
0
  6
Continuous
 62
     7
370
    25
100
AcDbLine
 10
-799.2695079921
 20
-495.4422255664
 30
0.0
 11
-786.4645079921
 21
-495.4422255664
 31
0.0
  0
LINE
  5
4C5
330
1F
100
AcDbEntity
  8
0
  6
Continuous
 62
     7
370
    25
100
AcDbLine
 10
-786.4645079921
 20
-495.4422255664
 30
0.0
 11
-786.4645080138
 21
-515.8631635447
 31
0.0
  0
LINE
  5
4C6
330
1F
100
AcDbEntity
  8
0
  6
Continuous
 62
     7
370
    25
100
AcDbLine
 10
-782.0804459921
 20
-520.2472255664
 30
0.0
 11
-774.4645079921
 21
-520.2472255664
 31
0.0
  0
LINE
  5
4C7
330
1F
100
AcDbEntity
  8
0
  6
Continuous
 62
     7
370
    25
100
AcDbLine
 10
-774.4645079921
 20
-520.2472255664
 30
0.0
 11
-774.4645079921
 21
-544.6372255664
 31
0.0
  0
LINE
  5
4C8
330
1F
100
AcDbEntity
  8
0
  6
Continuous
 62
     7
370
    25
100
AcDbLine
 10
-774.4645079921
 20
-544.6372255664
 30
0.0
 11
-782.0804459705
 21
-544.6372255447
 31
0.0
  0
LINE
  5
4C9
330
1F
100
AcDbEntity
  8
0
  6
Continuous
 62
     7
370
    25
100
AcDbLine
 10
-786.4645079921
 20
-549.0212875664
 30
0.0
 11
-786.4645079921
 21
-569.4422255664
 31
0.0
  0
LINE
  5
4CA
330
1F
100
AcDbEntity
  8
0
  6
Continuous
 62
     7
370
    25
100
AcDbLine
 10
-786.4645079921
 20
-569.4422255664
 30
0.0
 11
-799.2695079921
 21
-569.4422255664
 31
0.0
  0
LINE
  5
4CB
330
1F
100
AcDbEntity
  8
0
  6
Continuous
 62
     7
370
    25
100
AcDbLine
 10
-799.2695079921
 20
-569.4422255664
 30
0.0
 11
-799.2695079705
 21
-561.826287588
 31
0.0
  0
LINE
  5
4CC
330
1F
100
AcDbEntity
  8
0
  6
Continuous
 62
     7
370
    25
100
AcDbLine
 10
-803.6535699921
 20
-557.4422255664
 30
0.0
 11
-819.2754459921
 21
-557.4422255664
 31
0.0
  0
LINE
  5
4CD
330
1F
100
AcDbEntity
  8
0
  6
Continuous
 62
     7
370
    25
100
AcDbLine
 10
-823.6595079813
 20
-561.8262875555
 30
0.0
 11
-823.6595079921
 21
-569.4422255664
 31
0.0
  0
LINE
  5
4CE
330
1F
100
AcDbEntity
  8
0
  6
Continuous
 62
     7
370
    25
100
AcDbLine
 10
-823.6595079921
 20
-569.4422255664
 30
0.0
 11
-836.4645079921
 21
-569.4422255664
 31
0.0
  0
LINE
  5
4CF
330
1F
100
AcDbEntity
  8
0
  6
Continuous
 62
     7
370
    25
100
AcDbLine
 10
-836.4645079921
 20
-515.8631635664
 30
0.0
 11
-836.4645079921
 21
-495.4422255664
 31
0.0
  0
LINE
  5
4D0
330
1F
100
AcDbEntity
  8
0
  6
Continuous
 62
     7
370
    25
100
AcDbLine
 10
-823.6595079921
 20
-495.4422255664
 30
0.0
 11
-823.6595080138
 21
-503.0581635447
 31
0.0
  0
LINE
  5
4D1
330
1F
100
AcDbEntity
  8
0
  6
Continuous
 62
     7
370
    25
100
AcDbLine
 10
-959.4213981354
 20
264.6618508345
 30
0.0
 11
-874.568584393
 21
349.5146645769
 31
0.0
  0
LINE
  5
4D2
330
1F
100
AcDbEntity
  8
0
  6
Continuous
 62
     7
370
    25
100
AcDbLine
 10
-874.568584393
 20
349.5146645769
 30
0.0
 11
-909.9239234523
 21
384.8700036362
 31
0.0
  0
LINE
  5
4D3
330
1F
100
AcDbEntity
  8
0
  6
Continuous
 62
     7
370
    25
100
AcDbLine
 10
-994.7767371947
 20
300.0171898938
 30
0.0
 11
-909.9239234523
 21
384.8700036362
 31
0.0
  0
LINE
  5
4D4
330
1F
100
AcDbEntity
  8
0
  6
Continuous
 62
     7
370
    25
100
AcDbLine
 10
-959.4213981354
 20
264.6618508345
 30
0.0
 11
-994.7767371947
 21
300.0171898938
 31
0.0
  0
LINE
  5
4D5
330
1F
100
AcDbEntity
  8
0
  6
Continuous
 62
     7
370
    25
100
AcDbLine
 10
-1166.1345079921
 20
-49.1122255664
 30
0.0
 11
-1086.1345079921
 21
-49.1122255664
 31
0.0
  0
LINE
  5
4D6
330
1F
100
AcDbEntity
  8
0
  6
Continuous
 62
     7
370
    25
100
AcDbLine
 10
-1086.1345079921
 20
-49.1122255664
 30
0.0
 11
-1086.1345079921
 21
-9.1122255664
 31
0.0
  0
LINE
  5
4D7
330
1F
100
AcDbEntity
  8
0
  6
Continuous
 62
     7
370
    25
100
AcDbLine
 10
-1166.1345079921
 20
-9.1122255664
 30
0.0
 11
-1086.1345079921
 21
-9.1122255664
 31
0.0
  0
LINE
  5
4D8
330
1F
100
AcDbEntity
  8
0
  6
Continuous
 62
     7
370
    25
100
AcDbLine
 10
-1166.1345079921
 20
-49.1122255664
 30
0.0
 11
-1166.1345079921
 21
-9.1122255664
 31
0.0
  0
LINE
  5
4D9
330
1F
100
AcDbEntity
  8
0
  6
Continuous
 62
     7
370
    25
100
AcDbLine
 10
-1166.1345079921
 20
-147.1122255664
 30
0.0
 11
-1086.1345079921
 21
-147.1122255664
 31
0.0
  0
LINE
  5
4DA
330
1F
100
AcDbEntity
  8
0
  6
Continuous
 62
     7
370
    25
100
AcDbLine
 10
-1086.1345079921
 20
-147.1122255664
 30
0.0
 11
-1086.1345079921
 21
-67.1122255664
 31
0.0
  0
LINE
  5
4DB
330
1F
100
AcDbEntity
  8
0
  6
Continuous
 62
     7
370
    25
100
AcDbLine
 10
-1166.1345079921
 20
-67.1122255664
 30
0.0
 11
-1086.1345079921
 21
-67.1122255664
 31
0.0
  0
LINE
  5
4DC
330
1F
100
AcDbEntity
  8
0
  6
Continuous
 62
     7
370
    25
100
AcDbLine
 10
-1166.1345079921
 20
-147.1122255664
 30
0.0
 11
-1166.1345079921
 21
-67.1122255664
 31
0.0
  0
LINE
  5
4DD
330
1F
100
AcDbEntity
  8
0
  6
Continuous
 62
     7
370
    25
100
AcDbLine
 10
-560.7945079921
 20
-147.1122255664
 30
0.0
 11
-560.7945079921
 21
-67.1122255664
 31
0.0
  0
LINE
  5
4DE
330
1F
100
AcDbEntity
  8
0
  6
Continuous
 62
     7
370
    25
100
AcDbLine
 10
-560.7945079921
 20
-67.1122255664
 30
0.0
 11
-600.7945079921
 21
-67.1122255664
 31
0.0
  0
LINE
  5
4DF
330
1F
100
AcDbEntity
  8
0
  6
Continuous
 62
     7
370
    25
100
AcDbLine
 10
-600.7945079921
 20
-147.1122255664
 30
0.0
 11
-600.7945079921
 21
-67.1122255664
 31
0.0
  0
LINE
  5
4E0
330
1F
100
AcDbEntity
  8
0
  6
Continuous
 62
     7
370
    25
100
AcDbLine
 10
-560.7945079921
 20
-147.1122255664
 30
0.0
 11
-600.7945079921
 21
-147.1122255664
 31
0.0
  0
LINE
  5
4E1
330
1F
100
AcDbEntity
  8
0
  6
Continuous
 62
     7
370
    25
100
AcDbLine
 10
-462.7945079921
 20
-147.1122255664
 30
0.0
 11
-462.7945079921
 21
-67.1122255664
 31
0.0
  0
LINE
  5
4E2
330
1F
100
AcDbEntity
  8
0
  6
Continuous
 62
     7
370
    25
100
AcDbLine
 10
-462.7945079921
 20
-67.1122255664
 30
0.0
 11
-542.7945079921
 21
-67.1122255664
 31
0.0
  0
LINE
  5
4E3
330
1F
100
AcDbEntity
  8
0
  6
Continuous
 62
     7
370
    25
100
AcDbLine
 10
-542.7945079921
 20
-147.1122255664
 30
0.0
 11
-542.7945079921
 21
-67.1122255664
 31
0.0
  0
LINE
  5
4E4
330
1F
100
AcDbEntity
  8
0
  6
Continuous
 62
     7
370
    25
100
AcDbLine
 10
-462.7945079921
 20
-147.1122255664
 30
0.0
 11
-542.7945079921
 21
-147.1122255664
 31
0.0
  0
LINE
  5
4E5
330
1F
100
AcDbEntity
  8
0
  6
Continuous
 62
     7
370
    25
100
AcDbLine
 10
-462.7945079921
 20
458.2277744336
 30
0.0
 11
-542.7945079921
 21
458.2277744336
 31
0.0
  0
LINE
  5
4E6
330
1F
100
AcDbEntity
  8
0
  6
Continuous
 62
     7
370
    25
100
AcDbLine
 10
-542.7945079921
 20
458.2277744336
 30
0.0
 11
-542.7945079921
 21
418.2277744336
 31
0.0
  0
LINE
  5
4E7
330
1F
100
AcDbEntity
  8
0
  6
Continuous
 62
     7
370
    25
100
AcDbLine
 10
-462.7945079921
 20
418.2277744336
 30
0.0
 11
-542.7945079921
 21
418.2277744336
 31
0.0
  0
LINE
  5
4E8
330
1F
100
AcDbEntity
  8
0
  6
Continuous
 62
     7
370
    25
100
AcDbLine
 10
-462.7945079921
 20
458.2277744336
 30
0.0
 11
-462.7945079921
 21
418.2277744336
 31
0.0
  0
LINE
  5
4E9
330
1F
100
AcDbEntity
  8
0
  6
Continuous
 62
     7
370
    25
100
AcDbLine
 10
-462.7945079921
 20
556.2277744336
 30
0.0
 11
-542.7945079921
 21
556.2277744336
 31
0.0
  0
LINE
  5
4EA
330
1F
100
AcDbEntity
  8
0
  6
Continuous
 62
     7
370
    25
100
AcDbLine
 10
-542.7945079921
 20
556.2277744336
 30
0.0
 11
-542.7945079921
 21
476.2277744336
 31
0.0
  0
LINE
  5
4EB
330
1F
100
AcDbEntity
  8
0
  6
Continuous
 62
     7
370
    25
100
AcDbLine
 10
-462.7945079921
 20
476.2277744336
 30
0.0
 11
-542.7945079921
 21
476.2277744336
 31
0.0
  0
LINE
  5
4EC
330
1F
100
AcDbEntity
  8
0
  6
Continuous
 62
     7
370
    25
100
AcDbLine
 10
-462.7945079921
 20
556.2277744336
 30
0.0
 11
-462.7945079921
 21
476.2277744336
 31
0.0
  0
LINE
  5
4ED
330
1F
100
AcDbEntity
  8
0
  6
Continuous
 62
     7
370
    25
100
AcDbLine
 10
-1068.1345079921
 20
556.2277744336
 30
0.0
 11
-1068.1345079921
 21
476.2277744336
 31
0.0
  0
LINE
  5
4EE
330
1F
100
AcDbEntity
  8
0
  6
Continuous
 62
     7
370
    25
100
AcDbLine
 10
-1068.1345079921
 20
476.2277744336
 30
0.0
 11
-1028.1345079921
 21
476.2277744336
 31
0.0
  0
LINE
  5
4EF
330
1F
100
AcDbEntity
  8
0
  6
Continuous
 62
     7
370
    25
100
AcDbLine
 10
-1028.1345079921
 20
556.2277744336
 30
0.0
 11
-1028.1345079921
 21
476.2277744336
 31
0.0
  0
LINE
  5
4F0
330
1F
100
AcDbEntity
  8
0
  6
Continuous
 62
     7
370
    25
100
AcDbLine
 10
-1068.1345079921
 20
556.2277744336
 30
0.0
 11
-1028.1345079921
 21
556.2277744336
 31
0.0
  0
LINE
  5
4F1
330
1F
100
AcDbEntity
  8
0
  6
Continuous
 62
     7
370
    25
100
AcDbLine
 10
-1166.1345079921
 20
556.2277744336
 30
0.0
 11
-1166.1345079921
 21
476.2277744336
 31
0.0
  0
LINE
  5
4F2
330
1F
100
AcDbEntity
  8
0
  6
Continuous
 62
     7
370
    25
100
AcDbLine
 10
-1166.1345079921
 20
476.2277744336
 30
0.0
 11
-1086.1345079921
 21
476.2277744336
 31
0.0
  0
LINE
  5
4F3
330
1F
100
AcDbEntity
  8
0
  6
Continuous
 62
     7
370
    25
100
AcDbLine
 10
-1086.1345079921
 20
556.2277744336
 30
0.0
 11
-1086.1345079921
 21
476.2277744336
 31
0.0
  0
LINE
  5
4F4
330
1F
100
AcDbEntity
  8
0
  6
Continuous
 62
     7
370
    25
100
AcDbLine
 10
-1166.1345079921
 20
556.2277744336
 30
0.0
 11
-1086.1345079921
 21
556.2277744336
 31
0.0
  0
LINE
  5
4F5
330
1F
100
AcDbEntity
  8
0
  6
Continuous
 62
     7
370
    25
100
AcDbLine
 10
-1184.4645079921
 20
-165.4422255664
 30
0.0
 11
-444.4645079921
 21
-165.4422255664
 31
0.0
  0
LINE
  5
4F6
330
1F
100
AcDbEntity
  8
0
  6
Continuous
 62
     7
370
    25
100
AcDbLine
 10
-1184.4645079921
 20
574.5577744336
 30
0.0
 11
-1184.4645079921
 21
-165.4422255664
 31
0.0
  0
LINE
  5
4F7
330
1F
100
AcDbEntity
  8
0
  6
Continuous
 62
     7
370
    25
100
AcDbLine
 10
-1184.4645079921
 20
574.5577744336
 30
0.0
 11
-444.4645079921
 21
574.5577744336
 31
0.0
  0
LINE
  5
4F8
330
1F
100
AcDbEntity
  8
0
  6
Continuous
 62
     7
370
    25
100
AcDbLine
 10
-444.4645079921
 20
574.5577744336
 30
0.0
 11
-444.4645079921
 21
-165.4422255664
 31
0.0
  0
LINE
  5
4F9
330
1F
100
AcDbEntity
  8
0
  6
Continuous
 62
     7
370
    25
100
AcDbLine
 10
-970.1345079921
 20
556.2277744336
 30
0.0
 11
-970.1345079921
 21
476.2277744336
 31
0.0
  0
LINE
  5
4FA
330
1F
100
AcDbEntity
  8
0
  6
Continuous
 62
     7
370
    25
100
AcDbLine
 10
-1010.1345079921
 20
556.2277744336
 30
0.0
 11
-970.1345079921
 21
556.2277744336
 31
0.0
  0
LINE
  5
4FB
330
1F
100
AcDbEntity
  8
0
  6
Continuous
 62
     7
370
    25
100
AcDbLine
 10
-1010.1345079921
 20
556.2277744336
 30
0.0
 11
-1010.1345079921
 21
476.2277744336
 31
0.0
  0
LINE
  5
4FC
330
1F
100
AcDbEntity
  8
0
  6
Continuous
 62
     7
370
    25
100
AcDbLine
 10
-1010.1345079921
 20
476.2277744336
 30
0.0
 11
-970.1345079921
 21
476.2277744336
 31
0.0
  0
LINE
  5
4FD
330
1F
100
AcDbEntity
  8
0
  6
Continuous
 62
     7
370
    25
100
AcDbLine
 10
-912.1345079921
 20
556.2277744336
 30
0.0
 11
-912.1345079921
 21
476.2277744336
 31
0.0
  0
LINE
  5
4FE
330
1F
100
AcDbEntity
  8
0
  6
Continuous
 62
     7
370
    25
100
AcDbLine
 10
-952.1345079921
 20
556.2277744336
 30
0.0
 11
-912.1345079921
 21
556.2277744336
 31
0.0
  0
LINE
  5
4FF
330
1F
100
AcDbEntity
  8
0
  6
Continuous
 62
     7
370
    25
100
AcDbLine
 10
-952.1345079921
 20
556.2277744336
 30
0.0
 11
-952.1345079921
 21
476.2277744336
 31
0.0
  0
LINE
  5
500
330
1F
100
AcDbEntity
  8
0
  6
Continuous
 62
     7
370
    25
100
AcDbLine
 10
-952.1345079921
 20
476.2277744336
 30
0.0
 11
-912.1345079921
 21
476.2277744336
 31
0.0
  0
LINE
  5
501
330
1F
100
AcDbEntity
  8
0
  6
Continuous
 62
     7
370
    25
100
AcDbLine
 10
-854.1345079921
 20
556.2277744336
 30
0.0
 11
-854.1345079921
 21
476.2277744336
 31
0.0
  0
LINE
  5
502
330
1F
100
AcDbEntity
  8
0
  6
Continuous
 62
     7
370
    25
100
AcDbLine
 10
-894.1345079921
 20
556.2277744336
 30
0.0
 11
-854.1345079921
 21
556.2277744336
 31
0.0
  0
LINE
  5
503
330
1F
100
AcDbEntity
  8
0
  6
Continuous
 62
     7
370
    25
100
AcDbLine
 10
-894.1345079921
 20
556.2277744336
 30
0.0
 11
-894.1345079921
 21
476.2277744336
 31
0.0
  0
LINE
  5
504
330
1F
100
AcDbEntity
  8
0
  6
Continuous
 62
     7
370
    25
100
AcDbLine
 10
-894.1345079921
 20
476.2277744336
 30
0.0
 11
-854.1345079921
 21
476.2277744336
 31
0.0
  0
LINE
  5
505
330
1F
100
AcDbEntity
  8
0
  6
Continuous
 62
     7
370
    25
100
AcDbLine
 10
-796.1345079921
 20
556.2277744336
 30
0.0
 11
-796.1345079921
 21
476.2277744336
 31
0.0
  0
LINE
  5
506
330
1F
100
AcDbEntity
  8
0
  6
Continuous
 62
     7
370
    25
100
AcDbLine
 10
-836.1345079921
 20
556.2277744336
 30
0.0
 11
-796.1345079921
 21
556.2277744336
 31
0.0
  0
LINE
  5
507
330
1F
100
AcDbEntity
  8
0
  6
Continuous
 62
     7
370
    25
100
AcDbLine
 10
-836.1345079921
 20
556.2277744336
 30
0.0
 11
-836.1345079921
 21
476.2277744336
 31
0.0
  0
LINE
  5
508
330
1F
100
AcDbEntity
  8
0
  6
Continuous
 62
     7
370
    25
100
AcDbLine
 10
-836.1345079921
 20
476.2277744336
 30
0.0
 11
-796.1345079921
 21
476.2277744336
 31
0.0
  0
LINE
  5
509
330
1F
100
AcDbEntity
  8
0
  6
Continuous
 62
     7
370
    25
100
AcDbLine
 10
-738.1345079921
 20
556.2277744336
 30
0.0
 11
-738.1345079921
 21
476.2277744336
 31
0.0
  0
LINE
  5
50A
330
1F
100
AcDbEntity
  8
0
  6
Continuous
 62
     7
370
    25
100
AcDbLine
 10
-778.1345079921
 20
556.2277744336
 30
0.0
 11
-738.1345079921
 21
556.2277744336
 31
0.0
  0
LINE
  5
50B
330
1F
100
AcDbEntity
  8
0
  6
Continuous
 62
     7
370
    25
100
AcDbLine
 10
-778.1345079921
 20
556.2277744336
 30
0.0
 11
-778.1345079921
 21
476.2277744336
 31
0.0
  0
LINE
  5
50C
330
1F
100
AcDbEntity
  8
0
  6
Continuous
 62
     7
370
    25
100
AcDbLine
 10
-778.1345079921
 20
476.2277744336
 30
0.0
 11
-738.1345079921
 21
476.2277744336
 31
0.0
  0
LINE
  5
50D
330
1F
100
AcDbEntity
  8
0
  6
Continuous
 62
     7
370
    25
100
AcDbLine
 10
-680.1345079921
 20
556.2277744336
 30
0.0
 11
-680.1345079921
 21
476.2277744336
 31
0.0
  0
LINE
  5
50E
330
1F
100
AcDbEntity
  8
0
  6
Continuous
 62
     7
370
    25
100
AcDbLine
 10
-720.1345079921
 20
556.2277744336
 30
0.0
 11
-680.1345079921
 21
556.2277744336
 31
0.0
  0
LINE
  5
50F
330
1F
100
AcDbEntity
  8
0
  6
Continuous
 62
     7
370
    25
100
AcDbLine
 10
-720.1345079921
 20
556.2277744336
 30
0.0
 11
-720.1345079921
 21
476.2277744336
 31
0.0
  0
LINE
  5
510
330
1F
100
AcDbEntity
  8
0
  6
Continuous
 62
     7
370
    25
100
AcDbLine
 10
-720.1345079921
 20
476.2277744336
 30
0.0
 11
-680.1345079921
 21
476.2277744336
 31
0.0
  0
LINE
  5
511
330
1F
100
AcDbEntity
  8
0
  6
Continuous
 62
     7
370
    25
100
AcDbLine
 10
-622.1345079921
 20
556.2277744336
 30
0.0
 11
-622.1345079921
 21
476.2277744336
 31
0.0
  0
LINE
  5
512
330
1F
100
AcDbEntity
  8
0
  6
Continuous
 62
     7
370
    25
100
AcDbLine
 10
-662.1345079921
 20
556.2277744336
 30
0.0
 11
-622.1345079921
 21
556.2277744336
 31
0.0
  0
LINE
  5
513
330
1F
100
AcDbEntity
  8
0
  6
Continuous
 62
     7
370
    25
100
AcDbLine
 10
-662.1345079921
 20
556.2277744336
 30
0.0
 11
-662.1345079921
 21
476.2277744336
 31
0.0
  0
LINE
  5
514
330
1F
100
AcDbEntity
  8
0
  6
Continuous
 62
     7
370
    25
100
AcDbLine
 10
-662.1345079921
 20
476.2277744336
 30
0.0
 11
-622.1345079921
 21
476.2277744336
 31
0.0
  0
LINE
  5
515
330
1F
100
AcDbEntity
  8
0
  6
Continuous
 62
     7
370
    25
100
AcDbLine
 10
-564.1345079921
 20
556.2277744336
 30
0.0
 11
-564.1345079921
 21
476.2277744336
 31
0.0
  0
LINE
  5
516
330
1F
100
AcDbEntity
  8
0
  6
Continuous
 62
     7
370
    25
100
AcDbLine
 10
-604.1345079921
 20
556.2277744336
 30
0.0
 11
-564.1345079921
 21
556.2277744336
 31
0.0
  0
LINE
  5
517
330
1F
100
AcDbEntity
  8
0
  6
Continuous
 62
     7
370
    25
100
AcDbLine
 10
-604.1345079921
 20
556.2277744336
 30
0.0
 11
-604.1345079921
 21
476.2277744336
 31
0.0
  0
LINE
  5
518
330
1F
100
AcDbEntity
  8
0
  6
Continuous
 62
     7
370
    25
100
AcDbLine
 10
-604.1345079921
 20
476.2277744336
 30
0.0
 11
-564.1345079921
 21
476.2277744336
 31
0.0
  0
LINE
  5
519
330
1F
100
AcDbEntity
  8
0
  6
Continuous
 62
     7
370
    25
100
AcDbLine
 10
-462.7945079921
 20
360.2277744336
 30
0.0
 11
-542.7945079921
 21
360.2277744336
 31
0.0
  0
LINE
  5
51A
330
1F
100
AcDbEntity
  8
0
  6
Continuous
 62
     7
370
    25
100
AcDbLine
 10
-462.7945079921
 20
400.2277744336
 30
0.0
 11
-462.7945079921
 21
360.2277744336
 31
0.0
  0
LINE
  5
51B
330
1F
100
AcDbEntity
  8
0
  6
Continuous
 62
     7
370
    25
100
AcDbLine
 10
-462.7945079921
 20
400.2277744336
 30
0.0
 11
-542.7945079921
 21
400.2277744336
 31
0.0
  0
LINE
  5
51C
330
1F
100
AcDbEntity
  8
0
  6
Continuous
 62
     7
370
    25
100
AcDbLine
 10
-542.7945079921
 20
400.2277744336
 30
0.0
 11
-542.7945079921
 21
360.2277744336
 31
0.0
  0
LINE
  5
51D
330
1F
100
AcDbEntity
  8
0
  6
Continuous
 62
     7
370
    25
100
AcDbLine
 10
-462.7945079921
 20
302.2277744336
 30
0.0
 11
-542.7945079921
 21
302.2277744336
 31
0.0
  0
LINE
  5
51E
330
1F
100
AcDbEntity
  8
0
  6
Continuous
 62
     7
370
    25
100
AcDbLine
 10
-462.7945079921
 20
342.2277744336
 30
0.0
 11
-462.7945079921
 21
302.2277744336
 31
0.0
  0
LINE
  5
51F
330
1F
100
AcDbEntity
  8
0
  6
Continuous
 62
     7
370
    25
100
AcDbLine
 10
-462.7945079921
 20
342.2277744336
 30
0.0
 11
-542.7945079921
 21
342.2277744336
 31
0.0
  0
LINE
  5
520
330
1F
100
AcDbEntity
  8
0
  6
Continuous
 62
     7
370
    25
100
AcDbLine
 10
-542.7945079921
 20
342.2277744336
 30
0.0
 11
-542.7945079921
 21
302.2277744336
 31
0.0
  0
LINE
  5
521
330
1F
100
AcDbEntity
  8
0
  6
Continuous
 62
     7
370
    25
100
AcDbLine
 10
-462.7945079921
 20
244.2277744336
 30
0.0
 11
-542.7945079921
 21
244.2277744336
 31
0.0
  0
LINE
  5
522
330
1F
100
AcDbEntity
  8
0
  6
Continuous
 62
     7
370
    25
100
AcDbLine
 10
-462.7945079921
 20
284.2277744336
 30
0.0
 11
-462.7945079921
 21
244.2277744336
 31
0.0
  0
LINE
  5
523
330
1F
100
AcDbEntity
  8
0
  6
Continuous
 62
     7
370
    25
100
AcDbLine
 10
-462.7945079921
 20
284.2277744336
 30
0.0
 11
-542.7945079921
 21
284.2277744336
 31
0.0
  0
LINE
  5
524
330
1F
100
AcDbEntity
  8
0
  6
Continuous
 62
     7
370
    25
100
AcDbLine
 10
-542.7945079921
 20
284.2277744336
 30
0.0
 11
-542.7945079921
 21
244.2277744336
 31
0.0
  0
LINE
  5
525
330
1F
100
AcDbEntity
  8
0
  6
Continuous
 62
     7
370
    25
100
AcDbLine
 10
-462.7945079921
 20
186.2277744336
 30
0.0
 11
-542.7945079921
 21
186.2277744336
 31
0.0
  0
LINE
  5
526
330
1F
100
AcDbEntity
  8
0
  6
Continuous
 62
     7
370
    25
100
AcDbLine
 10
-462.7945079921
 20
226.2277744336
 30
0.0
 11
-462.7945079921
 21
186.2277744336
 31
0.0
  0
LINE
  5
527
330
1F
100
AcDbEntity
  8
0
  6
Continuous
 62
     7
370
    25
100
AcDbLine
 10
-462.7945079921
 20
226.2277744336
 30
0.0
 11
-542.7945079921
 21
226.2277744336
 31
0.0
  0
LINE
  5
528
330
1F
100
AcDbEntity
  8
0
  6
Continuous
 62
     7
370
    25
100
AcDbLine
 10
-542.7945079921
 20
226.2277744336
 30
0.0
 11
-542.7945079921
 21
186.2277744336
 31
0.0
  0
LINE
  5
529
330
1F
100
AcDbEntity
  8
0
  6
Continuous
 62
     7
370
    25
100
AcDbLine
 10
-462.7945079921
 20
128.2277744336
 30
0.0
 11
-542.7945079921
 21
128.2277744336
 31
0.0
  0
LINE
  5
52A
330
1F
100
AcDbEntity
  8
0
  6
Continuous
 62
     7
370
    25
100
AcDbLine
 10
-462.7945079921
 20
168.2277744336
 30
0.0
 11
-462.7945079921
 21
128.2277744336
 31
0.0
  0
LINE
  5
52B
330
1F
100
AcDbEntity
  8
0
  6
Continuous
 62
     7
370
    25
100
AcDbLine
 10
-462.7945079921
 20
168.2277744336
 30
0.0
 11
-542.7945079921
 21
168.2277744336
 31
0.0
  0
LINE
  5
52C
330
1F
100
AcDbEntity
  8
0
  6
Continuous
 62
     7
370
    25
100
AcDbLine
 10
-542.7945079921
 20
168.2277744336
 30
0.0
 11
-542.7945079921
 21
128.2277744336
 31
0.0
  0
LINE
  5
52D
330
1F
100
AcDbEntity
  8
0
  6
Continuous
 62
     7
370
    25
100
AcDbLine
 10
-462.7945079921
 20
70.2277744336
 30
0.0
 11
-542.7945079921
 21
70.2277744336
 31
0.0
  0
LINE
  5
52E
330
1F
100
AcDbEntity
  8
0
  6
Continuous
 62
     7
370
    25
100
AcDbLine
 10
-462.7945079921
 20
110.2277744336
 30
0.0
 11
-462.7945079921
 21
70.2277744336
 31
0.0
  0
LINE
  5
52F
330
1F
100
AcDbEntity
  8
0
  6
Continuous
 62
     7
370
    25
100
AcDbLine
 10
-462.7945079921
 20
110.2277744336
 30
0.0
 11
-542.7945079921
 21
110.2277744336
 31
0.0
  0
LINE
  5
530
330
1F
100
AcDbEntity
  8
0
  6
Continuous
 62
     7
370
    25
100
AcDbLine
 10
-542.7945079921
 20
110.2277744336
 30
0.0
 11
-542.7945079921
 21
70.2277744336
 31
0.0
  0
LINE
  5
531
330
1F
100
AcDbEntity
  8
0
  6
Continuous
 62
     7
370
    25
100
AcDbLine
 10
-462.7945079921
 20
12.2277744336
 30
0.0
 11
-542.7945079921
 21
12.2277744336
 31
0.0
  0
LINE
  5
532
330
1F
100
AcDbEntity
  8
0
  6
Continuous
 62
     7
370
    25
100
AcDbLine
 10
-462.7945079921
 20
52.2277744336
 30
0.0
 11
-462.7945079921
 21
12.2277744336
 31
0.0
  0
LINE
  5
533
330
1F
100
AcDbEntity
  8
0
  6
Continuous
 62
     7
370
    25
100
AcDbLine
 10
-462.7945079921
 20
52.2277744336
 30
0.0
 11
-542.7945079921
 21
52.2277744336
 31
0.0
  0
LINE
  5
534
330
1F
100
AcDbEntity
  8
0
  6
Continuous
 62
     7
370
    25
100
AcDbLine
 10
-542.7945079921
 20
52.2277744336
 30
0.0
 11
-542.7945079921
 21
12.2277744336
 31
0.0
  0
LINE
  5
535
330
1F
100
AcDbEntity
  8
0
  6
Continuous
 62
     7
370
    25
100
AcDbLine
 10
-462.7945079921
 20
-45.7722255664
 30
0.0
 11
-542.7945079921
 21
-45.7722255664
 31
0.0
  0
LINE
  5
536
330
1F
100
AcDbEntity
  8
0
  6
Continuous
 62
     7
370
    25
100
AcDbLine
 10
-462.7945079921
 20
-5.7722255664
 30
0.0
 11
-462.7945079921
 21
-45.7722255664
 31
0.0
  0
LINE
  5
537
330
1F
100
AcDbEntity
  8
0
  6
Continuous
 62
     7
370
    25
100
AcDbLine
 10
-462.7945079921
 20
-5.7722255664
 30
0.0
 11
-542.7945079921
 21
-5.7722255664
 31
0.0
  0
LINE
  5
538
330
1F
100
AcDbEntity
  8
0
  6
Continuous
 62
     7
370
    25
100
AcDbLine
 10
-542.7945079921
 20
-5.7722255664
 30
0.0
 11
-542.7945079921
 21
-45.7722255664
 31
0.0
  0
LINE
  5
539
330
1F
100
AcDbEntity
  8
0
  6
Continuous
 62
     7
370
    25
100
AcDbLine
 10
-658.7945079921
 20
-147.1122255664
 30
0.0
 11
-658.7945079921
 21
-67.1122255664
 31
0.0
  0
LINE
  5
53A
330
1F
100
AcDbEntity
  8
0
  6
Continuous
 62
     7
370
    25
100
AcDbLine
 10
-618.7945079921
 20
-147.1122255664
 30
0.0
 11
-658.7945079921
 21
-147.1122255664
 31
0.0
  0
LINE
  5
53B
330
1F
100
AcDbEntity
  8
0
  6
Continuous
 62
     7
370
    25
100
AcDbLine
 10
-618.7945079921
 20
-147.1122255664
 30
0.0
 11
-618.7945079921
 21
-67.1122255664
 31
0.0
  0
LINE
  5
53C
330
1F
100
AcDbEntity
  8
0
  6
Continuous
 62
     7
370
    25
100
AcDbLine
 10
-618.7945079921
 20
-67.1122255664
 30
0.0
 11
-658.7945079921
 21
-67.1122255664
 31
0.0
  0
LINE
  5
53D
330
1F
100
AcDbEntity
  8
0
  6
Continuous
 62
     7
370
    25
100
AcDbLine
 10
-716.7945079921
 20
-147.1122255664
 30
0.0
 11
-716.7945079921
 21
-67.1122255664
 31
0.0
  0
LINE
  5
53E
330
1F
100
AcDbEntity
  8
0
  6
Continuous
 62
     7
370
    25
100
AcDbLine
 10
-676.7945079921
 20
-147.1122255664
 30
0.0
 11
-716.7945079921
 21
-147.1122255664
 31
0.0
  0
LINE
  5
53F
330
1F
100
AcDbEntity
  8
0
  6
Continuous
 62
     7
370
    25
100
AcDbLine
 10
-676.7945079921
 20
-147.1122255664
 30
0.0
 11
-676.7945079921
 21
-67.1122255664
 31
0.0
  0
LINE
  5
540
330
1F
100
AcDbEntity
  8
0
  6
Continuous
 62
     7
370
    25
100
AcDbLine
 10
-676.7945079921
 20
-67.1122255664
 30
0.0
 11
-716.7945079921
 21
-67.1122255664
 31
0.0
  0
LINE
  5
541
330
1F
100
AcDbEntity
  8
0
  6
Continuous
 62
     7
370
    25
100
AcDbLine
 10
-774.7945079921
 20
-147.1122255664
 30
0.0
 11
-774.7945079921
 21
-67.1122255664
 31
0.0
  0
LINE
  5
542
330
1F
100
AcDbEntity
  8
0
  6
Continuous
 62
     7
370
    25
100
AcDbLine
 10
-734.7945079921
 20
-147.1122255664
 30
0.0
 11
-774.7945079921
 21
-147.1122255664
 31
0.0
  0
LINE
  5
543
330
1F
100
AcDbEntity
  8
0
  6
Continuous
 62
     7
370
    25
100
AcDbLine
 10
-734.7945079921
 20
-147.1122255664
 30
0.0
 11
-734.7945079921
 21
-67.1122255664
 31
0.0
  0
LINE
  5
544
330
1F
100
AcDbEntity
  8
0
  6
Continuous
 62
     7
370
    25
100
AcDbLine
 10
-734.7945079921
 20
-67.1122255664
 30
0.0
 11
-774.7945079921
 21
-67.1122255664
 31
0.0
  0
LINE
  5
545
330
1F
100
AcDbEntity
  8
0
  6
Continuous
 62
     7
370
    25
100
AcDbLine
 10
-832.7945079921
 20
-147.1122255664
 30
0.0
 11
-832.7945079921
 21
-67.1122255664
 31
0.0
  0
LINE
  5
546
330
1F
100
AcDbEntity
  8
0
  6
Continuous
 62
     7
370
    25
100
AcDbLine
 10
-792.7945079921
 20
-147.1122255664
 30
0.0
 11
-832.7945079921
 21
-147.1122255664
 31
0.0
  0
LINE
  5
547
330
1F
100
AcDbEntity
  8
0
  6
Continuous
 62
     7
370
    25
100
AcDbLine
 10
-792.7945079921
 20
-147.1122255664
 30
0.0
 11
-792.7945079921
 21
-67.1122255664
 31
0.0
  0
LINE
  5
548
330
1F
100
AcDbEntity
  8
0
  6
Continuous
 62
     7
370
    25
100
AcDbLine
 10
-792.7945079921
 20
-67.1122255664
 30
0.0
 11
-832.7945079921
 21
-67.1122255664
 31
0.0
  0
LINE
  5
549
330
1F
100
AcDbEntity
  8
0
  6
Continuous
 62
     7
370
    25
100
AcDbLine
 10
-890.7945079921
 20
-147.1122255664
 30
0.0
 11
-890.7945079921
 21
-67.1122255664
 31
0.0
  0
LINE
  5
54A
330
1F
100
AcDbEntity
  8
0
  6
Continuous
 62
     7
370
    25
100
AcDbLine
 10
-850.7945079921
 20
-147.1122255664
 30
0.0
 11
-890.7945079921
 21
-147.1122255664
 31
0.0
  0
LINE
  5
54B
330
1F
100
AcDbEntity
  8
0
  6
Continuous
 62
     7
370
    25
100
AcDbLine
 10
-850.7945079921
 20
-147.1122255664
 30
0.0
 11
-850.7945079921
 21
-67.1122255664
 31
0.0
  0
LINE
  5
54C
330
1F
100
AcDbEntity
  8
0
  6
Continuous
 62
     7
370
    25
100
AcDbLine
 10
-850.7945079921
 20
-67.1122255664
 30
0.0
 11
-890.7945079921
 21
-67.1122255664
 31
0.0
  0
LINE
  5
54D
330
1F
100
AcDbEntity
  8
0
  6
Continuous
 62
     7
370
    25
100
AcDbLine
 10
-948.7945079921
 20
-147.1122255664
 30
0.0
 11
-948.7945079921
 21
-67.1122255664
 31
0.0
  0
LINE
  5
54E
330
1F
100
AcDbEntity
  8
0
  6
Continuous
 62
     7
370
    25
100
AcDbLine
 10
-908.7945079921
 20
-147.1122255664
 30
0.0
 11
-948.7945079921
 21
-147.1122255664
 31
0.0
  0
LINE
  5
54F
330
1F
100
AcDbEntity
  8
0
  6
Continuous
 62
     7
370
    25
100
AcDbLine
 10
-908.7945079921
 20
-147.1122255664
 30
0.0
 11
-908.7945079921
 21
-67.1122255664
 31
0.0
  0
LINE
  5
550
330
1F
100
AcDbEntity
  8
0
  6
Continuous
 62
     7
370
    25
100
AcDbLine
 10
-908.7945079921
 20
-67.1122255664
 30
0.0
 11
-948.7945079921
 21
-67.1122255664
 31
0.0
  0
LINE
  5
551
330
1F
100
AcDbEntity
  8
0
  6
Continuous
 62
     7
370
    25
100
AcDbLine
 10
-1006.7945079921
 20
-147.1122255664
 30
0.0
 11
-1006.7945079921
 21
-67.1122255664
 31
0.0
  0
LINE
  5
552
330
1F
100
AcDbEntity
  8
0
  6
Continuous
 62
     7
370
    25
100
AcDbLine
 10
-966.7945079921
 20
-147.1122255664
 30
0.0
 11
-1006.7945079921
 21
-147.1122255664
 31
0.0
  0
LINE
  5
553
330
1F
100
AcDbEntity
  8
0
  6
Continuous
 62
     7
370
    25
100
AcDbLine
 10
-966.7945079921
 20
-147.1122255664
 30
0.0
 11
-966.7945079921
 21
-67.1122255664
 31
0.0
  0
LINE
  5
554
330
1F
100
AcDbEntity
  8
0
  6
Continuous
 62
     7
370
    25
100
AcDbLine
 10
-966.7945079921
 20
-67.1122255664
 30
0.0
 11
-1006.7945079921
 21
-67.1122255664
 31
0.0
  0
LINE
  5
555
330
1F
100
AcDbEntity
  8
0
  6
Continuous
 62
     7
370
    25
100
AcDbLine
 10
-1064.7945079921
 20
-147.1122255664
 30
0.0
 11
-1064.7945079921
 21
-67.1122255664
 31
0.0
  0
LINE
  5
556
330
1F
100
AcDbEntity
  8
0
  6
Continuous
 62
     7
370
    25
100
AcDbLine
 10
-1024.7945079921
 20
-147.1122255664
 30
0.0
 11
-1064.7945079921
 21
-147.1122255664
 31
0.0
  0
LINE
  5
557
330
1F
100
AcDbEntity
  8
0
  6
Continuous
 62
     7
370
    25
100
AcDbLine
 10
-1024.7945079921
 20
-147.1122255664
 30
0.0
 11
-1024.7945079921
 21
-67.1122255664
 31
0.0
  0
LINE
  5
558
330
1F
100
AcDbEntity
  8
0
  6
Continuous
 62
     7
370
    25
100
AcDbLine
 10
-1024.7945079921
 20
-67.1122255664
 30
0.0
 11
-1064.7945079921
 21
-67.1122255664
 31
0.0
  0
LINE
  5
559
330
1F
100
AcDbEntity
  8
0
  6
Continuous
 62
     7
370
    25
100
AcDbLine
 10
-1166.1345079921
 20
48.8877744336
 30
0.0
 11
-1086.1345079921
 21
48.8877744336
 31
0.0
  0
LINE
  5
55A
330
1F
100
AcDbEntity
  8
0
  6
Continuous
 62
     7
370
    25
100
AcDbLine
 10
-1166.1345079921
 20
8.8877744336
 30
0.0
 11
-1166.1345079921
 21
48.8877744336
 31
0.0
  0
LINE
  5
55B
330
1F
100
AcDbEntity
  8
0
  6
Continuous
 62
     7
370
    25
100
AcDbLine
 10
-1166.1345079921
 20
8.8877744336
 30
0.0
 11
-1086.1345079921
 21
8.8877744336
 31
0.0
  0
LINE
  5
55C
330
1F
100
AcDbEntity
  8
0
  6
Continuous
 62
     7
370
    25
100
AcDbLine
 10
-1086.1345079921
 20
8.8877744336
 30
0.0
 11
-1086.1345079921
 21
48.8877744336
 31
0.0
  0
LINE
  5
55D
330
1F
100
AcDbEntity
  8
0
  6
Continuous
 62
     7
370
    25
100
AcDbLine
 10
-1166.1345079921
 20
106.8877744336
 30
0.0
 11
-1086.1345079921
 21
106.8877744336
 31
0.0
  0
LINE
  5
55E
330
1F
100
AcDbEntity
  8
0
  6
Continuous
 62
     7
370
    25
100
AcDbLine
 10
-1166.1345079921
 20
66.8877744336
 30
0.0
 11
-1166.1345079921
 21
106.8877744336
 31
0.0
  0
LINE
  5
55F
330
1F
100
AcDbEntity
  8
0
  6
Continuous
 62
     7
370
    25
100
AcDbLine
 10
-1166.1345079921
 20
66.8877744336
 30
0.0
 11
-1086.1345079921
 21
66.8877744336
 31
0.0
  0
LINE
  5
560
330
1F
100
AcDbEntity
  8
0
  6
Continuous
 62
     7
370
    25
100
AcDbLine
 10
-1086.1345079921
 20
66.8877744336
 30
0.0
 11
-1086.1345079921
 21
106.8877744336
 31
0.0
  0
LINE
  5
561
330
1F
100
AcDbEntity
  8
0
  6
Continuous
 62
     7
370
    25
100
AcDbLine
 10
-1166.1345079921
 20
164.8877744336
 30
0.0
 11
-1086.1345079921
 21
164.8877744336
 31
0.0
  0
LINE
  5
562
330
1F
100
AcDbEntity
  8
0
  6
Continuous
 62
     7
370
    25
100
AcDbLine
 10
-1166.1345079921
 20
124.8877744336
 30
0.0
 11
-1166.1345079921
 21
164.8877744336
 31
0.0
  0
LINE
  5
563
330
1F
100
AcDbEntity
  8
0
  6
Continuous
 62
     7
370
    25
100
AcDbLine
 10
-1166.1345079921
 20
124.8877744336
 30
0.0
 11
-1086.1345079921
 21
124.8877744336
 31
0.0
  0
LINE
  5
564
330
1F
100
AcDbEntity
  8
0
  6
Continuous
 62
     7
370
    25
100
AcDbLine
 10
-1086.1345079921
 20
124.8877744336
 30
0.0
 11
-1086.1345079921
 21
164.8877744336
 31
0.0
  0
LINE
  5
565
330
1F
100
AcDbEntity
  8
0
  6
Continuous
 62
     7
370
    25
100
AcDbLine
 10
-1166.1345079921
 20
222.8877744336
 30
0.0
 11
-1086.1345079921
 21
222.8877744336
 31
0.0
  0
LINE
  5
566
330
1F
100
AcDbEntity
  8
0
  6
Continuous
 62
     7
370
    25
100
AcDbLine
 10
-1166.1345079921
 20
182.8877744336
 30
0.0
 11
-1166.1345079921
 21
222.8877744336
 31
0.0
  0
LINE
  5
567
330
1F
100
AcDbEntity
  8
0
  6
Continuous
 62
     7
370
    25
100
AcDbLine
 10
-1166.1345079921
 20
182.8877744336
 30
0.0
 11
-1086.1345079921
 21
182.8877744336
 31
0.0
  0
LINE
  5
568
330
1F
100
AcDbEntity
  8
0
  6
Continuous
 62
     7
370
    25
100
AcDbLine
 10
-1086.1345079921
 20
182.8877744336
 30
0.0
 11
-1086.1345079921
 21
222.8877744336
 31
0.0
  0
LINE
  5
569
330
1F
100
AcDbEntity
  8
0
  6
Continuous
 62
     7
370
    25
100
AcDbLine
 10
-1166.1345079921
 20
280.8877744336
 30
0.0
 11
-1086.1345079921
 21
280.8877744336
 31
0.0
  0
LINE
  5
56A
330
1F
100
AcDbEntity
  8
0
  6
Continuous
 62
     7
370
    25
100
AcDbLine
 10
-1166.1345079921
 20
240.8877744336
 30
0.0
 11
-1166.1345079921
 21
280.8877744336
 31
0.0
  0
LINE
  5
56B
330
1F
100
AcDbEntity
  8
0
  6
Continuous
 62
     7
370
    25
100
AcDbLine
 10
-1166.1345079921
 20
240.8877744336
 30
0.0
 11
-1086.1345079921
 21
240.8877744336
 31
0.0
  0
LINE
  5
56C
330
1F
100
AcDbEntity
  8
0
  6
Continuous
 62
     7
370
    25
100
AcDbLine
 10
-1086.1345079921
 20
240.8877744336
 30
0.0
 11
-1086.1345079921
 21
280.8877744336
 31
0.0
  0
LINE
  5
56D
330
1F
100
AcDbEntity
  8
0
  6
Continuous
 62
     7
370
    25
100
AcDbLine
 10
-1166.1345079921
 20
338.8877744336
 30
0.0
 11
-1086.1345079921
 21
338.8877744336
 31
0.0
  0
LINE
  5
56E
330
1F
100
AcDbEntity
  8
0
  6
Continuous
 62
     7
370
    25
100
AcDbLine
 10
-1166.1345079921
 20
298.8877744336
 30
0.0
 11
-1166.1345079921
 21
338.8877744336
 31
0.0
  0
LINE
  5
56F
330
1F
100
AcDbEntity
  8
0
  6
Continuous
 62
     7
370
    25
100
AcDbLine
 10
-1166.1345079921
 20
298.8877744336
 30
0.0
 11
-1086.1345079921
 21
298.8877744336
 31
0.0
  0
LINE
  5
570
330
1F
100
AcDbEntity
  8
0
  6
Continuous
 62
     7
370
    25
100
AcDbLine
 10
-1086.1345079921
 20
298.8877744336
 30
0.0
 11
-1086.1345079921
 21
338.8877744336
 31
0.0
  0
LINE
  5
571
330
1F
100
AcDbEntity
  8
0
  6
Continuous
 62
     7
370
    25
100
AcDbLine
 10
-1166.1345079921
 20
396.8877744336
 30
0.0
 11
-1086.1345079921
 21
396.8877744336
 31
0.0
  0
LINE
  5
572
330
1F
100
AcDbEntity
  8
0
  6
Continuous
 62
     7
370
    25
100
AcDbLine
 10
-1166.1345079921
 20
356.8877744336
 30
0.0
 11
-1166.1345079921
 21
396.8877744336
 31
0.0
  0
LINE
  5
573
330
1F
100
AcDbEntity
  8
0
  6
Continuous
 62
     7
370
    25
100
AcDbLine
 10
-1166.1345079921
 20
356.8877744336
 30
0.0
 11
-1086.1345079921
 21
356.8877744336
 31
0.0
  0
LINE
  5
574
330
1F
100
AcDbEntity
  8
0
  6
Continuous
 62
     7
370
    25
100
AcDbLine
 10
-1086.1345079921
 20
356.8877744336
 30
0.0
 11
-1086.1345079921
 21
396.8877744336
 31
0.0
  0
LINE
  5
575
330
1F
100
AcDbEntity
  8
0
  6
Continuous
 62
     7
370
    25
100
AcDbLine
 10
-1166.1345079921
 20
454.8877744336
 30
0.0
 11
-1086.1345079921
 21
454.8877744336
 31
0.0
  0
LINE
  5
576
330
1F
100
AcDbEntity
  8
0
  6
Continuous
 62
     7
370
    25
100
AcDbLine
 10
-1166.1345079921
 20
414.8877744336
 30
0.0
 11
-1166.1345079921
 21
454.8877744336
 31
0.0
  0
LINE
  5
577
330
1F
100
AcDbEntity
  8
0
  6
Continuous
 62
     7
370
    25
100
AcDbLine
 10
-1166.1345079921
 20
414.8877744336
 30
0.0
 11
-1086.1345079921
 21
414.8877744336
 31
0.0
  0
LINE
  5
578
330
1F
100
AcDbEntity
  8
0
  6
Continuous
 62
     7
370
    25
100
AcDbLine
 10
-1086.1345079921
 20
414.8877744336
 30
0.0
 11
-1086.1345079921
 21
454.8877744336
 31
0.0
  0
LINE
  5
579
330
1F
100
AcDbEntity
  8
0
  6
Continuous
 62
     7
370
    25
100
AcDbLine
 10
-669.5076178489
 20
144.4536980328
 30
0.0
 11
-634.1522787896
 21
109.0983589735
 31
0.0
  0
LINE
  5
57A
330
1F
100
AcDbEntity
  8
0
  6
Continuous
 62
     7
370
    25
100
AcDbLine
 10
-754.3604315913
 20
59.6008842904
 30
0.0
 11
-669.5076178489
 21
144.4536980328
 31
0.0
  0
LINE
  5
57B
330
1F
100
AcDbEntity
  8
0
  6
Continuous
 62
     7
370
    25
100
AcDbLine
 10
-754.3604315913
 20
59.6008842904
 30
0.0
 11
-719.005092532
 21
24.2455452311
 31
0.0
  0
LINE
  5
57C
330
1F
100
AcDbEntity
  8
0
  6
Continuous
 62
     7
370
    25
100
AcDbLine
 10
-719.005092532
 20
24.2455452311
 30
0.0
 11
-634.1522787896
 21
109.0983589735
 31
0.0
  0
LINE
  5
57D
330
1F
100
AcDbEntity
  8
0
  6
Continuous
 62
     7
370
    25
100
AcDbLine
 10
680.4314138568
 20
-520.4544132983
 30
0.0
 11
680.4314138784
 21
-512.03347532
 31
0.0
  0
LINE
  5
57E
330
1F
100
AcDbEntity
  8
0
  6
Continuous
 62
     7
370
    25
100
AcDbLine
 10
676.0473518568
 20
-507.6494132983
 30
0.0
 11
668.4314138568
 21
-507.6494132983
 31
0.0
  0
LINE
  5
57F
330
1F
100
AcDbEntity
  8
0
  6
Continuous
 62
     7
370
    25
100
AcDbLine
 10
668.4314138568
 20
-507.6494132983
 30
0.0
 11
668.4314138568
 21
-483.2594132983
 31
0.0
  0
LINE
  5
580
330
1F
100
AcDbEntity
  8
0
  6
Continuous
 62
     7
370
    25
100
AcDbLine
 10
668.4314138568
 20
-483.2594132983
 30
0.0
 11
676.0473518351
 21
-483.25941332
 31
0.0
  0
LINE
  5
581
330
1F
100
AcDbEntity
  8
0
  6
Continuous
 62
     7
370
    25
100
AcDbLine
 10
680.4314138568
 20
-478.8753512983
 30
0.0
 11
680.4314138568
 21
-470.4544132983
 31
0.0
  0
LINE
  5
582
330
1F
100
AcDbEntity
  8
0
  6
Continuous
 62
     7
370
    25
100
AcDbLine
 10
680.4314138568
 20
-470.4544132983
 30
0.0
 11
688.8523518351
 21
-470.45441332
 31
0.0
  0
LINE
  5
583
330
1F
100
AcDbEntity
  8
0
  6
Continuous
 62
     7
370
    25
100
AcDbLine
 10
693.2364138568
 20
-458.4544132983
 30
0.0
 11
717.6264138568
 21
-458.4544132983
 31
0.0
  0
LINE
  5
584
330
1F
100
AcDbEntity
  8
0
  6
Continuous
 62
     7
370
    25
100
AcDbLine
 10
717.6264138568
 20
-458.4544132983
 30
0.0
 11
717.6264138351
 21
-466.0703512766
 31
0.0
  0
LINE
  5
585
330
1F
100
AcDbEntity
  8
0
  6
Continuous
 62
     7
370
    25
100
AcDbLine
 10
722.0104758568
 20
-470.4544132983
 30
0.0
 11
730.4314138568
 21
-470.4544132983
 31
0.0
  0
LINE
  5
586
330
1F
100
AcDbEntity
  8
0
  6
Continuous
 62
     7
370
    25
100
AcDbLine
 10
730.4314138568
 20
-470.4544132983
 30
0.0
 11
730.4314138351
 21
-478.8753512766
 31
0.0
  0
LINE
  5
587
330
1F
100
AcDbEntity
  8
0
  6
Continuous
 62
     7
370
    25
100
AcDbLine
 10
734.8154758568
 20
-483.2594132983
 30
0.0
 11
742.4314138568
 21
-483.2594132983
 31
0.0
  0
LINE
  5
588
330
1F
100
AcDbEntity
  8
0
  6
Continuous
 62
     7
370
    25
100
AcDbLine
 10
742.4314138568
 20
-483.2594132983
 30
0.0
 11
742.4314138568
 21
-507.6494132983
 31
0.0
  0
LINE
  5
589
330
1F
100
AcDbEntity
  8
0
  6
Continuous
 62
     7
370
    25
100
AcDbLine
 10
742.4314138568
 20
-507.6494132983
 30
0.0
 11
734.8154758784
 21
-507.6494132766
 31
0.0
  0
LINE
  5
58A
330
1F
100
AcDbEntity
  8
0
  6
Continuous
 62
     7
370
    25
100
AcDbLine
 10
730.4314138568
 20
-512.0334752983
 30
0.0
 11
730.4314138568
 21
-520.4544132983
 31
0.0
  0
LINE
  5
58B
330
1F
100
AcDbEntity
  8
0
  6
Continuous
 62
     7
370
    25
100
AcDbLine
 10
730.4314138568
 20
-520.4544132983
 30
0.0
 11
722.0104758784
 21
-520.4544132766
 31
0.0
  0
LINE
  5
58C
330
1F
100
AcDbEntity
  8
0
  6
Continuous
 62
     7
370
    25
100
AcDbLine
 10
717.6264138568
 20
-524.8384752983
 30
0.0
 11
717.6264138568
 21
-532.4544132983
 31
0.0
  0
LINE
  5
58D
330
1F
100
AcDbEntity
  8
0
  6
Continuous
 62
     7
370
    25
100
AcDbLine
 10
717.6264138568
 20
-532.4544132983
 30
0.0
 11
693.2364138568
 21
-532.4544132983
 31
0.0
  0
LINE
  5
58E
330
1F
100
AcDbEntity
  8
0
  6
Continuous
 62
     7
370
    25
100
AcDbLine
 10
693.2364138568
 20
-532.4544132983
 30
0.0
 11
693.2364138784
 21
-524.83847532
 31
0.0
  0
LINE
  5
58F
330
1F
100
AcDbEntity
  8
0
  6
Continuous
 62
     7
370
    25
100
AcDbLine
 10
688.8523518568
 20
-520.4544132983
 30
0.0
 11
680.4314138568
 21
-520.4544132983
 31
0.0
  0
LINE
  5
590
330
1F
100
AcDbEntity
  8
0
  6
Continuous
 62
     7
370
    25
100
AcDbLine
 10
693.2364138568
 20
-466.0703512983
 30
0.0
 11
693.2364138568
 21
-458.4544132983
 31
0.0
  0
LINE
  5
591
330
1F
100
AcDbEntity
  8
0
  6
Continuous
 62
     7
370
    25
100
AcDbLine
 10
-1004.4645079921
 20
-557.4422255664
 30
0.0
 11
-1004.4645079705
 21
-549.021287588
 31
0.0
  0
LINE
  5
592
330
1F
100
AcDbEntity
  8
0
  6
Continuous
 62
     7
370
    25
100
AcDbLine
 10
-1008.8485699921
 20
-544.6372255664
 30
0.0
 11
-1016.4645079921
 21
-544.6372255664
 31
0.0
  0
LINE
  5
593
330
1F
100
AcDbEntity
  8
0
  6
Continuous
 62
     7
370
    25
100
AcDbLine
 10
-1016.4645079921
 20
-544.6372255664
 30
0.0
 11
-1016.4645079921
 21
-520.2472255664
 31
0.0
  0
LINE
  5
594
330
1F
100
AcDbEntity
  8
0
  6
Continuous
 62
     7
370
    25
100
AcDbLine
 10
-1016.4645079921
 20
-520.2472255664
 30
0.0
 11
-1008.8485700138
 21
-520.247225588
 31
0.0
  0
LINE
  5
595
330
1F
100
AcDbEntity
  8
0
  6
Continuous
 62
     7
370
    25
100
AcDbLine
 10
-1004.4645079921
 20
-515.8631635664
 30
0.0
 11
-1004.4645079921
 21
-507.4422255664
 31
0.0
  0
LINE
  5
596
330
1F
100
AcDbEntity
  8
0
  6
Continuous
 62
     7
370
    25
100
AcDbLine
 10
-1004.4645079921
 20
-507.4422255664
 30
0.0
 11
-996.0435700138
 21
-507.442225588
 31
0.0
  0
LINE
  5
597
330
1F
100
AcDbEntity
  8
0
  6
Continuous
 62
     7
370
    25
100
AcDbLine
 10
-991.6595079921
 20
-503.0581635664
 30
0.0
 11
-991.6595079921
 21
-495.4422255664
 31
0.0
  0
LINE
  5
598
330
1F
100
AcDbEntity
  8
0
  6
Continuous
 62
     7
370
    25
100
AcDbLine
 10
-967.2695079921
 20
-495.4422255664
 30
0.0
 11
-967.2695080138
 21
-503.0581635447
 31
0.0
  0
LINE
  5
599
330
1F
100
AcDbEntity
  8
0
  6
Continuous
 62
     7
370
    25
100
AcDbLine
 10
-962.8854459921
 20
-507.4422255664
 30
0.0
 11
-954.4645079921
 21
-507.4422255664
 31
0.0
  0
LINE
  5
59A
330
1F
100
AcDbEntity
  8
0
  6
Continuous
 62
     7
370
    25
100
AcDbLine
 10
-954.4645079921
 20
-507.4422255664
 30
0.0
 11
-954.4645080138
 21
-515.8631635447
 31
0.0
  0
LINE
  5
59B
330
1F
100
AcDbEntity
  8
0
  6
Continuous
 62
     7
370
    25
100
AcDbLine
 10
-950.0804459921
 20
-520.2472255664
 30
0.0
 11
-942.4645079921
 21
-520.2472255664
 31
0.0
  0
LINE
  5
59C
330
1F
100
AcDbEntity
  8
0
  6
Continuous
 62
     7
370
    25
100
AcDbLine
 10
-942.4645079921
 20
-520.2472255664
 30
0.0
 11
-942.4645079921
 21
-544.6372255664
 31
0.0
  0
LINE
  5
59D
330
1F
100
AcDbEntity
  8
0
  6
Continuous
 62
     7
370
    25
100
AcDbLine
 10
-942.4645079921
 20
-544.6372255664
 30
0.0
 11
-950.0804459705
 21
-544.6372255447
 31
0.0
  0
LINE
  5
59E
330
1F
100
AcDbEntity
  8
0
  6
Continuous
 62
     7
370
    25
100
AcDbLine
 10
-954.4645079921
 20
-549.0212875664
 30
0.0
 11
-954.4645079921
 21
-557.4422255664
 31
0.0
  0
LINE
  5
59F
330
1F
100
AcDbEntity
  8
0
  6
Continuous
 62
     7
370
    25
100
AcDbLine
 10
-954.4645079921
 20
-557.4422255664
 30
0.0
 11
-962.8854459705
 21
-557.4422255447
 31
0.0
  0
LINE
  5
5A0
330
1F
100
AcDbEntity
  8
0
  6
Continuous
 62
     7
370
    25
100
AcDbLine
 10
-967.2695079921
 20
-561.8262875664
 30
0.0
 11
-967.2695079921
 21
-569.4422255664
 31
0.0
  0
LINE
  5
5A1
330
1F
100
AcDbEntity
  8
0
  6
Continuous
 62
     7
370
    25
100
AcDbLine
 10
-967.2695079921
 20
-569.4422255664
 30
0.0
 11
-991.6595079921
 21
-569.4422255664
 31
0.0
  0
LINE
  5
5A2
330
1F
100
AcDbEntity
  8
0
  6
Continuous
 62
     7
370
    25
100
AcDbLine
 10
-991.6595079921
 20
-569.4422255664
 30
0.0
 11
-991.6595079705
 21
-561.826287588
 31
0.0
  0
LINE
  5
5A3
330
1F
100
AcDbEntity
  8
0
  6
Continuous
 62
     7
370
    25
100
AcDbLine
 10
-996.0435699921
 20
-557.4422255664
 30
0.0
 11
-1004.4645079921
 21
-557.4422255664
 31
0.0
  0
LINE
  5
5A4
330
1F
100
AcDbEntity
  8
0
  6
Continuous
 62
     7
370
    25
100
AcDbLine
 10
-991.6595079921
 20
-495.4422255664
 30
0.0
 11
-967.2695079921
 21
-495.4422255664
 31
0.0
  0
LINE
  5
5A5
330
1F
100
AcDbEntity
  8
0
  6
Continuous
 62
     7
370
    25
100
AcDbLine
 10
1098.9791666763
 20
341.9095680767
 30
0.0
 11
1098.979166698
 21
350.330506055
 31
0.0
  0
LINE
  5
5A6
330
1F
100
AcDbEntity
  8
0
  6
Continuous
 62
     7
370
    25
100
AcDbLine
 10
1094.5951046763
 20
354.7145680767
 30
0.0
 11
1086.9791666763
 21
354.7145680767
 31
0.0
  0
LINE
  5
5A7
330
1F
100
AcDbEntity
  8
0
  6
Continuous
 62
     7
370
    25
100
AcDbLine
 10
1086.9791666763
 20
354.7145680767
 30
0.0
 11
1086.9791666763
 21
379.1045680767
 31
0.0
  0
LINE
  5
5A8
330
1F
100
AcDbEntity
  8
0
  6
Continuous
 62
     7
370
    25
100
AcDbLine
 10
1086.9791666763
 20
379.1045680767
 30
0.0
 11
1094.5951046546
 21
379.104568055
 31
0.0
  0
LINE
  5
5A9
330
1F
100
AcDbEntity
  8
0
  6
Continuous
 62
     7
370
    25
100
AcDbLine
 10
1098.9791666763
 20
383.4886300767
 30
0.0
 11
1098.9791666763
 21
391.9095680767
 31
0.0
  0
LINE
  5
5AA
330
1F
100
AcDbEntity
  8
0
  6
Continuous
 62
     7
370
    25
100
AcDbLine
 10
1098.9791666763
 20
391.9095680767
 30
0.0
 11
1107.4001046546
 21
391.909568055
 31
0.0
  0
LINE
  5
5AB
330
1F
100
AcDbEntity
  8
0
  6
Continuous
 62
     7
370
    25
100
AcDbLine
 10
1111.7841666763
 20
396.2936300767
 30
0.0
 11
1111.7841666763
 21
403.9095680767
 31
0.0
  0
LINE
  5
5AC
330
1F
100
AcDbEntity
  8
0
  6
Continuous
 62
     7
370
    25
100
AcDbLine
 10
1111.7841666763
 20
403.9095680767
 30
0.0
 11
1136.1741666763
 21
403.9095680767
 31
0.0
  0
LINE
  5
5AD
330
1F
100
AcDbEntity
  8
0
  6
Continuous
 62
     7
370
    25
100
AcDbLine
 10
1140.5582286763
 20
391.9095680767
 30
0.0
 11
1148.9791666763
 21
391.9095680767
 31
0.0
  0
LINE
  5
5AE
330
1F
100
AcDbEntity
  8
0
  6
Continuous
 62
     7
370
    25
100
AcDbLine
 10
1148.9791666763
 20
391.9095680767
 30
0.0
 11
1148.9791666546
 21
383.4886300983
 31
0.0
  0
LINE
  5
5AF
330
1F
100
AcDbEntity
  8
0
  6
Continuous
 62
     7
370
    25
100
AcDbLine
 10
1153.3632286763
 20
379.1045680767
 30
0.0
 11
1160.9791666763
 21
379.1045680767
 31
0.0
  0
LINE
  5
5B0
330
1F
100
AcDbEntity
  8
0
  6
Continuous
 62
     7
370
    25
100
AcDbLine
 10
1160.9791666763
 20
379.1045680767
 30
0.0
 11
1160.9791666763
 21
354.7145680767
 31
0.0
  0
LINE
  5
5B1
330
1F
100
AcDbEntity
  8
0
  6
Continuous
 62
     7
370
    25
100
AcDbLine
 10
1160.9791666763
 20
354.7145680767
 30
0.0
 11
1153.363228698
 21
354.7145680983
 31
0.0
  0
LINE
  5
5B2
330
1F
100
AcDbEntity
  8
0
  6
Continuous
 62
     7
370
    25
100
AcDbLine
 10
1148.9791666763
 20
350.3305060767
 30
0.0
 11
1148.9791666763
 21
341.9095680767
 31
0.0
  0
LINE
  5
5B3
330
1F
100
AcDbEntity
  8
0
  6
Continuous
 62
     7
370
    25
100
AcDbLine
 10
1148.9791666763
 20
341.9095680767
 30
0.0
 11
1140.558228698
 21
341.9095680983
 31
0.0
  0
LINE
  5
5B4
330
1F
100
AcDbEntity
  8
0
  6
Continuous
 62
     7
370
    25
100
AcDbLine
 10
1136.1741666763
 20
337.5255060767
 30
0.0
 11
1136.1741666763
 21
329.9095680767
 31
0.0
  0
LINE
  5
5B5
330
1F
100
AcDbEntity
  8
0
  6
Continuous
 62
     7
370
    25
100
AcDbLine
 10
1136.1741666763
 20
329.9095680767
 30
0.0
 11
1111.7841666763
 21
329.9095680767
 31
0.0
  0
LINE
  5
5B6
330
1F
100
AcDbEntity
  8
0
  6
Continuous
 62
     7
370
    25
100
AcDbLine
 10
1111.7841666763
 20
329.9095680767
 30
0.0
 11
1111.784166698
 21
337.525506055
 31
0.0
  0
LINE
  5
5B7
330
1F
100
AcDbEntity
  8
0
  6
Continuous
 62
     7
370
    25
100
AcDbLine
 10
1107.4001046763
 20
341.9095680767
 30
0.0
 11
1098.9791666763
 21
341.9095680767
 31
0.0
  0
LINE
  5
5B8
330
1F
100
AcDbEntity
  8
0
  6
Continuous
 62
     7
370
    25
100
AcDbLine
 10
1136.1741666763
 20
403.9095680767
 30
0.0
 11
1136.1741666546
 21
396.2936300983
 31
0.0
  0
LINE
  5
5B9
330
1F
100
AcDbEntity
  8
0
  6
Continuous
 62
     7
370
    25
100
AcDbLine
 10
-752.4645079921
 20
-569.4422255664
 30
0.0
 11
-752.4645079705
 21
-549.021287588
 31
0.0
  0
LINE
  5
5BA
330
1F
100
AcDbEntity
  8
0
  6
Continuous
 62
     7
370
    25
100
AcDbLine
 10
-756.8485699921
 20
-544.6372255664
 30
0.0
 11
-764.4645079921
 21
-544.6372255664
 31
0.0
  0
LINE
  5
5BB
330
1F
100
AcDbEntity
  8
0
  6
Continuous
 62
     7
370
    25
100
AcDbLine
 10
-764.4645079921
 20
-544.6372255664
 30
0.0
 11
-764.4645079921
 21
-520.2472255664
 31
0.0
  0
LINE
  5
5BC
330
1F
100
AcDbEntity
  8
0
  6
Continuous
 62
     7
370
    25
100
AcDbLine
 10
-764.4645079921
 20
-520.2472255664
 30
0.0
 11
-756.8485700138
 21
-520.247225588
 31
0.0
  0
LINE
  5
5BD
330
1F
100
AcDbEntity
  8
0
  6
Continuous
 62
     7
370
    25
100
AcDbLine
 10
-752.4645079921
 20
-515.8631635664
 30
0.0
 11
-752.4645079921
 21
-495.4422255664
 31
0.0
  0
LINE
  5
5BE
330
1F
100
AcDbEntity
  8
0
  6
Continuous
 62
     7
370
    25
100
AcDbLine
 10
-752.4645079921
 20
-495.4422255664
 30
0.0
 11
-739.6595079921
 21
-495.4422255664
 31
0.0
  0
LINE
  5
5BF
330
1F
100
AcDbEntity
  8
0
  6
Continuous
 62
     7
370
    25
100
AcDbLine
 10
-735.2754459921
 20
-507.4422255664
 30
0.0
 11
-719.6535699921
 21
-507.4422255664
 31
0.0
  0
LINE
  5
5C0
330
1F
100
AcDbEntity
  8
0
  6
Continuous
 62
     7
370
    25
100
AcDbLine
 10
-715.269508003
 20
-503.0581635772
 30
0.0
 11
-715.2695079921
 21
-495.4422255664
 31
0.0
  0
LINE
  5
5C1
330
1F
100
AcDbEntity
  8
0
  6
Continuous
 62
     7
370
    25
100
AcDbLine
 10
-715.2695079921
 20
-495.4422255664
 30
0.0
 11
-702.4645079921
 21
-495.4422255664
 31
0.0
  0
LINE
  5
5C2
330
1F
100
AcDbEntity
  8
0
  6
Continuous
 62
     7
370
    25
100
AcDbLine
 10
-702.4645079921
 20
-495.4422255664
 30
0.0
 11
-702.4645080138
 21
-515.8631635447
 31
0.0
  0
LINE
  5
5C3
330
1F
100
AcDbEntity
  8
0
  6
Continuous
 62
     7
370
    25
100
AcDbLine
 10
-698.0804459921
 20
-520.2472255664
 30
0.0
 11
-690.4645079921
 21
-520.2472255664
 31
0.0
  0
LINE
  5
5C4
330
1F
100
AcDbEntity
  8
0
  6
Continuous
 62
     7
370
    25
100
AcDbLine
 10
-690.4645079921
 20
-520.2472255664
 30
0.0
 11
-690.4645079921
 21
-544.6372255664
 31
0.0
  0
LINE
  5
5C5
330
1F
100
AcDbEntity
  8
0
  6
Continuous
 62
     7
370
    25
100
AcDbLine
 10
-690.4645079921
 20
-544.6372255664
 30
0.0
 11
-698.0804459705
 21
-544.6372255447
 31
0.0
  0
LINE
  5
5C6
330
1F
100
AcDbEntity
  8
0
  6
Continuous
 62
     7
370
    25
100
AcDbLine
 10
-702.4645079921
 20
-549.0212875664
 30
0.0
 11
-702.4645079921
 21
-569.4422255664
 31
0.0
  0
LINE
  5
5C7
330
1F
100
AcDbEntity
  8
0
  6
Continuous
 62
     7
370
    25
100
AcDbLine
 10
-702.4645079921
 20
-569.4422255664
 30
0.0
 11
-715.2695079921
 21
-569.4422255664
 31
0.0
  0
LINE
  5
5C8
330
1F
100
AcDbEntity
  8
0
  6
Continuous
 62
     7
370
    25
100
AcDbLine
 10
-715.2695079921
 20
-569.4422255664
 30
0.0
 11
-715.2695079705
 21
-561.826287588
 31
0.0
  0
LINE
  5
5C9
330
1F
100
AcDbEntity
  8
0
  6
Continuous
 62
     7
370
    25
100
AcDbLine
 10
-719.6535699921
 20
-557.4422255664
 30
0.0
 11
-735.2754459921
 21
-557.4422255664
 31
0.0
  0
LINE
  5
5CA
330
1F
100
AcDbEntity
  8
0
  6
Continuous
 62
     7
370
    25
100
AcDbLine
 10
-739.6595079813
 20
-561.8262875555
 30
0.0
 11
-739.6595079921
 21
-569.4422255664
 31
0.0
  0
LINE
  5
5CB
330
1F
100
AcDbEntity
  8
0
  6
Continuous
 62
     7
370
    25
100
AcDbLine
 10
-739.6595079921
 20
-569.4422255664
 30
0.0
 11
-752.4645079921
 21
-569.4422255664
 31
0.0
  0
LINE
  5
5CC
330
1F
100
AcDbEntity
  8
0
  6
Continuous
 62
     7
370
    25
100
AcDbLine
 10
-739.6595079921
 20
-495.4422255664
 30
0.0
 11
-739.6595080138
 21
-503.0581635447
 31
0.0
  0
LINE
  5
5CD
330
1F
100
AcDbEntity
  8
0
  6
Continuous
 62
     7
370
    25
100
AcDbLine
 10
613.3671309944
 20
466.701690804
 30
0.0
 11
613.367131016
 21
487.1226287823
 31
0.0
  0
LINE
  5
5CE
330
1F
100
AcDbEntity
  8
0
  6
Continuous
 62
     7
370
    25
100
AcDbLine
 10
608.9830689944
 20
491.506690804
 30
0.0
 11
601.3671309944
 21
491.506690804
 31
0.0
  0
LINE
  5
5CF
330
1F
100
AcDbEntity
  8
0
  6
Continuous
 62
     7
370
    25
100
AcDbLine
 10
601.3671309944
 20
491.506690804
 30
0.0
 11
601.3671309944
 21
515.896690804
 31
0.0
  0
LINE
  5
5D0
330
1F
100
AcDbEntity
  8
0
  6
Continuous
 62
     7
370
    25
100
AcDbLine
 10
601.3671309944
 20
515.896690804
 30
0.0
 11
608.9830689727
 21
515.8966907823
 31
0.0
  0
LINE
  5
5D1
330
1F
100
AcDbEntity
  8
0
  6
Continuous
 62
     7
370
    25
100
AcDbLine
 10
630.5561929944
 20
528.701690804
 30
0.0
 11
646.1780689944
 21
528.701690804
 31
0.0
  0
LINE
  5
5D2
330
1F
100
AcDbEntity
  8
0
  6
Continuous
 62
     7
370
    25
100
AcDbLine
 10
650.5621309835
 20
533.0857527931
 30
0.0
 11
650.5621309944
 21
540.701690804
 31
0.0
  0
LINE
  5
5D3
330
1F
100
AcDbEntity
  8
0
  6
Continuous
 62
     7
370
    25
100
AcDbLine
 10
667.7511929944
 20
515.896690804
 30
0.0
 11
675.3671309944
 21
515.896690804
 31
0.0
  0
LINE
  5
5D4
330
1F
100
AcDbEntity
  8
0
  6
Continuous
 62
     7
370
    25
100
AcDbLine
 10
675.3671309944
 20
515.896690804
 30
0.0
 11
675.3671309944
 21
491.506690804
 31
0.0
  0
LINE
  5
5D5
330
1F
100
AcDbEntity
  8
0
  6
Continuous
 62
     7
370
    25
100
AcDbLine
 10
675.3671309944
 20
491.506690804
 30
0.0
 11
667.751193016
 21
491.5066908256
 31
0.0
  0
LINE
  5
5D6
330
1F
100
AcDbEntity
  8
0
  6
Continuous
 62
     7
370
    25
100
AcDbLine
 10
663.3671309944
 20
487.122628804
 30
0.0
 11
663.3671309944
 21
466.701690804
 31
0.0
  0
LINE
  5
5D7
330
1F
100
AcDbEntity
  8
0
  6
Continuous
 62
     7
370
    25
100
AcDbLine
 10
663.3671309944
 20
466.701690804
 30
0.0
 11
650.5621309944
 21
466.701690804
 31
0.0
  0
LINE
  5
5D8
330
1F
100
AcDbEntity
  8
0
  6
Continuous
 62
     7
370
    25
100
AcDbLine
 10
650.5621309944
 20
466.701690804
 30
0.0
 11
650.562131016
 21
474.3176287823
 31
0.0
  0
LINE
  5
5D9
330
1F
100
AcDbEntity
  8
0
  6
Continuous
 62
     7
370
    25
100
AcDbLine
 10
646.1780689944
 20
478.701690804
 30
0.0
 11
630.5561929944
 21
478.701690804
 31
0.0
  0
LINE
  5
5DA
330
1F
100
AcDbEntity
  8
0
  6
Continuous
 62
     7
370
    25
100
AcDbLine
 10
626.1721310052
 20
474.3176288148
 30
0.0
 11
626.1721309944
 21
466.701690804
 31
0.0
  0
LINE
  5
5DB
330
1F
100
AcDbEntity
  8
0
  6
Continuous
 62
     7
370
    25
100
AcDbLine
 10
626.1721309944
 20
466.701690804
 30
0.0
 11
613.3671309944
 21
466.701690804
 31
0.0
  0
LINE
  5
5DC
330
1F
100
AcDbEntity
  8
0
  6
Continuous
 62
     7
370
    25
100
AcDbLine
 10
613.3671309944
 20
540.701690804
 30
0.0
 11
626.1721309944
 21
540.701690804
 31
0.0
  0
LINE
  5
5DD
330
1F
100
AcDbEntity
  8
0
  6
Continuous
 62
     7
370
    25
100
AcDbLine
 10
626.1721309944
 20
540.701690804
 30
0.0
 11
626.1721309727
 21
533.0857528256
 31
0.0
  0
LINE
  5
5DE
330
1F
100
AcDbEntity
  8
0
  6
Continuous
 62
     7
370
    25
100
AcDbLine
 10
613.3671309944
 20
520.280752804
 30
0.0
 11
613.3671309944
 21
540.701690804
 31
0.0
  0
LINE
  5
5DF
330
1F
100
AcDbEntity
  8
0
  6
Continuous
 62
     7
370
    25
100
AcDbLine
 10
650.5621309944
 20
540.701690804
 30
0.0
 11
663.3671309944
 21
540.701690804
 31
0.0
  0
LINE
  5
5E0
330
1F
100
AcDbEntity
  8
0
  6
Continuous
 62
     7
370
    25
100
AcDbLine
 10
663.3671309944
 20
540.701690804
 30
0.0
 11
663.3671309727
 21
520.2807528256
 31
0.0
  0
LINE
  5
5E1
330
1F
100
AcDbEntity
  8
0
  6
Continuous
 62
     7
370
    25
100
AcDbLine
 10
947.9235301917
 20
481.3019406377
 30
0.0
 11
947.9235302134
 21
501.722878616
 31
0.0
  0
LINE
  5
5E2
330
1F
100
AcDbEntity
  8
0
  6
Continuous
 62
     7
370
    25
100
AcDbLine
 10
943.5394681917
 20
506.1069406377
 30
0.0
 11
935.9235301917
 21
506.1069406377
 31
0.0
  0
LINE
  5
5E3
330
1F
100
AcDbEntity
  8
0
  6
Continuous
 62
     7
370
    25
100
AcDbLine
 10
935.9235301917
 20
506.1069406377
 30
0.0
 11
935.9235301917
 21
530.4969406377
 31
0.0
  0
LINE
  5
5E4
330
1F
100
AcDbEntity
  8
0
  6
Continuous
 62
     7
370
    25
100
AcDbLine
 10
935.9235301917
 20
530.4969406377
 30
0.0
 11
943.53946817
 21
530.496940616
 31
0.0
  0
LINE
  5
5E5
330
1F
100
AcDbEntity
  8
0
  6
Continuous
 62
     7
370
    25
100
AcDbLine
 10
965.1125921917
 20
543.3019406377
 30
0.0
 11
980.7344681917
 21
543.3019406377
 31
0.0
  0
LINE
  5
5E6
330
1F
100
AcDbEntity
  8
0
  6
Continuous
 62
     7
370
    25
100
AcDbLine
 10
985.1185301809
 20
547.6860026268
 30
0.0
 11
985.1185301917
 21
555.3019406377
 31
0.0
  0
LINE
  5
5E7
330
1F
100
AcDbEntity
  8
0
  6
Continuous
 62
     7
370
    25
100
AcDbLine
 10
1002.3075921917
 20
530.4969406377
 30
0.0
 11
1009.9235301917
 21
530.4969406377
 31
0.0
  0
LINE
  5
5E8
330
1F
100
AcDbEntity
  8
0
  6
Continuous
 62
     7
370
    25
100
AcDbLine
 10
1009.9235301917
 20
530.4969406377
 30
0.0
 11
1009.9235301917
 21
506.1069406377
 31
0.0
  0
LINE
  5
5E9
330
1F
100
AcDbEntity
  8
0
  6
Continuous
 62
     7
370
    25
100
AcDbLine
 10
1009.9235301917
 20
506.1069406377
 30
0.0
 11
1002.3075922134
 21
506.1069406594
 31
0.0
  0
LINE
  5
5EA
330
1F
100
AcDbEntity
  8
0
  6
Continuous
 62
     7
370
    25
100
AcDbLine
 10
997.9235301917
 20
501.7228786377
 30
0.0
 11
997.9235301917
 21
481.3019406377
 31
0.0
  0
LINE
  5
5EB
330
1F
100
AcDbEntity
  8
0
  6
Continuous
 62
     7
370
    25
100
AcDbLine
 10
997.9235301917
 20
481.3019406377
 30
0.0
 11
985.1185301917
 21
481.3019406377
 31
0.0
  0
LINE
  5
5EC
330
1F
100
AcDbEntity
  8
0
  6
Continuous
 62
     7
370
    25
100
AcDbLine
 10
985.1185301917
 20
481.3019406377
 30
0.0
 11
985.1185302134
 21
488.917878616
 31
0.0
  0
LINE
  5
5ED
330
1F
100
AcDbEntity
  8
0
  6
Continuous
 62
     7
370
    25
100
AcDbLine
 10
980.7344681917
 20
493.3019406377
 30
0.0
 11
965.1125921917
 21
493.3019406377
 31
0.0
  0
LINE
  5
5EE
330
1F
100
AcDbEntity
  8
0
  6
Continuous
 62
     7
370
    25
100
AcDbLine
 10
960.7285302025
 20
488.9178786485
 30
0.0
 11
960.7285301917
 21
481.3019406377
 31
0.0
  0
LINE
  5
5EF
330
1F
100
AcDbEntity
  8
0
  6
Continuous
 62
     7
370
    25
100
AcDbLine
 10
960.7285301917
 20
481.3019406377
 30
0.0
 11
947.9235301917
 21
481.3019406377
 31
0.0
  0
LINE
  5
5F0
330
1F
100
AcDbEntity
  8
0
  6
Continuous
 62
     7
370
    25
100
AcDbLine
 10
947.9235301917
 20
555.3019406377
 30
0.0
 11
960.7285301917
 21
555.3019406377
 31
0.0
  0
LINE
  5
5F1
330
1F
100
AcDbEntity
  8
0
  6
Continuous
 62
     7
370
    25
100
AcDbLine
 10
985.1185301917
 20
555.3019406377
 30
0.0
 11
997.9235301917
 21
555.3019406377
 31
0.0
  0
LINE
  5
5F2
330
1F
100
AcDbEntity
  8
0
  6
Continuous
 62
     7
370
    25
100
AcDbLine
 10
997.9235301917
 20
555.3019406377
 30
0.0
 11
997.92353017
 21
534.8810026594
 31
0.0
  0
LINE
  5
5F3
330
1F
100
AcDbEntity
  8
0
  6
Continuous
 62
     7
370
    25
100
AcDbLine
 10
960.7285301917
 20
555.3019406377
 30
0.0
 11
960.72853017
 21
547.6860026594
 31
0.0
  0
LINE
  5
5F4
330
1F
100
AcDbEntity
  8
0
  6
Continuous
 62
     7
370
    25
100
AcDbLine
 10
947.9235301917
 20
534.8810026377
 30
0.0
 11
947.9235301917
 21
555.3019406377
 31
0.0
  0
LINE
  5
5F5
330
1F
100
AcDbEntity
  8
0
  6
Continuous
 62
     7
370
    25
100
AcDbLine
 10
-932.4645079921
 20
-569.4422255664
 30
0.0
 11
-932.4645079921
 21
-544.6372255664
 31
0.0
  0
LINE
  5
5F6
330
1F
100
AcDbEntity
  8
0
  6
Continuous
 62
     7
370
    25
100
AcDbLine
 10
-932.4645079921
 20
-544.6372255664
 30
0.0
 11
-924.8485700138
 21
-544.637225588
 31
0.0
  0
LINE
  5
5F7
330
1F
100
AcDbEntity
  8
0
  6
Continuous
 62
     7
370
    25
100
AcDbLine
 10
-920.4645079921
 20
-540.2531635664
 30
0.0
 11
-920.4645079921
 21
-524.6312875664
 31
0.0
  0
LINE
  5
5F8
330
1F
100
AcDbEntity
  8
0
  6
Continuous
 62
     7
370
    25
100
AcDbLine
 10
-924.8485699813
 20
-520.2472255772
 30
0.0
 11
-932.4645079921
 21
-520.2472255664
 31
0.0
  0
LINE
  5
5F9
330
1F
100
AcDbEntity
  8
0
  6
Continuous
 62
     7
370
    25
100
AcDbLine
 10
-932.4645079921
 20
-520.2472255664
 30
0.0
 11
-932.4645079921
 21
-495.4422255664
 31
0.0
  0
LINE
  5
5FA
330
1F
100
AcDbEntity
  8
0
  6
Continuous
 62
     7
370
    25
100
AcDbLine
 10
-932.4645079921
 20
-495.4422255664
 30
0.0
 11
-907.6595079921
 21
-495.4422255664
 31
0.0
  0
LINE
  5
5FB
330
1F
100
AcDbEntity
  8
0
  6
Continuous
 62
     7
370
    25
100
AcDbLine
 10
-903.2754459921
 20
-507.4422255664
 30
0.0
 11
-887.6535699921
 21
-507.4422255664
 31
0.0
  0
LINE
  5
5FC
330
1F
100
AcDbEntity
  8
0
  6
Continuous
 62
     7
370
    25
100
AcDbLine
 10
-883.2695079921
 20
-495.4422255664
 30
0.0
 11
-858.4645079921
 21
-495.4422255664
 31
0.0
  0
LINE
  5
5FD
330
1F
100
AcDbEntity
  8
0
  6
Continuous
 62
     7
370
    25
100
AcDbLine
 10
-858.4645079921
 20
-520.2472255664
 30
0.0
 11
-866.0804459705
 21
-520.2472255447
 31
0.0
  0
LINE
  5
5FE
330
1F
100
AcDbEntity
  8
0
  6
Continuous
 62
     7
370
    25
100
AcDbLine
 10
-870.4645079921
 20
-524.6312875664
 30
0.0
 11
-870.4645079921
 21
-540.2531635664
 31
0.0
  0
LINE
  5
5FF
330
1F
100
AcDbEntity
  8
0
  6
Continuous
 62
     7
370
    25
100
AcDbLine
 10
-866.080446003
 20
-544.6372255555
 30
0.0
 11
-858.4645079921
 21
-544.6372255664
 31
0.0
  0
LINE
  5
600
330
1F
100
AcDbEntity
  8
0
  6
Continuous
 62
     7
370
    25
100
AcDbLine
 10
-858.4645079921
 20
-544.6372255664
 30
0.0
 11
-858.4645079921
 21
-569.4422255664
 31
0.0
  0
LINE
  5
601
330
1F
100
AcDbEntity
  8
0
  6
Continuous
 62
     7
370
    25
100
AcDbLine
 10
-858.4645079921
 20
-569.4422255664
 30
0.0
 11
-883.2695079921
 21
-569.4422255664
 31
0.0
  0
LINE
  5
602
330
1F
100
AcDbEntity
  8
0
  6
Continuous
 62
     7
370
    25
100
AcDbLine
 10
-883.2695079921
 20
-569.4422255664
 30
0.0
 11
-883.2695079705
 21
-561.826287588
 31
0.0
  0
LINE
  5
603
330
1F
100
AcDbEntity
  8
0
  6
Continuous
 62
     7
370
    25
100
AcDbLine
 10
-887.6535699921
 20
-557.4422255664
 30
0.0
 11
-903.2754459921
 21
-557.4422255664
 31
0.0
  0
LINE
  5
604
330
1F
100
AcDbEntity
  8
0
  6
Continuous
 62
     7
370
    25
100
AcDbLine
 10
-907.6595079813
 20
-561.8262875555
 30
0.0
 11
-907.6595079921
 21
-569.4422255664
 31
0.0
  0
LINE
  5
605
330
1F
100
AcDbEntity
  8
0
  6
Continuous
 62
     7
370
    25
100
AcDbLine
 10
-907.6595079921
 20
-569.4422255664
 30
0.0
 11
-932.4645079921
 21
-569.4422255664
 31
0.0
  0
LINE
  5
606
330
1F
100
AcDbEntity
  8
0
  6
Continuous
 62
     7
370
    25
100
AcDbLine
 10
-907.6595079921
 20
-495.4422255664
 30
0.0
 11
-907.6595080138
 21
-503.0581635447
 31
0.0
  0
LINE
  5
607
330
1F
100
AcDbEntity
  8
0
  6
Continuous
 62
     7
370
    25
100
AcDbLine
 10
-883.269508003
 20
-503.0581635772
 30
0.0
 11
-883.2695079921
 21
-495.4422255664
 31
0.0
  0
LINE
  5
608
330
1F
100
AcDbEntity
  8
0
  6
Continuous
 62
     7
370
    25
100
AcDbLine
 10
-858.4645079921
 20
-495.4422255664
 30
0.0
 11
-858.4645079921
 21
-520.2472255664
 31
0.0
  0
LINE
  5
609
330
1F
100
AcDbEntity
  8
0
  6
Continuous
 62
     7
370
    25
100
AcDbLine
 10
782.7939853333
 20
-526.639367291
 30
0.0
 11
782.7939853333
 21
-501.834367291
 31
0.0
  0
LINE
  5
60A
330
1F
100
AcDbEntity
  8
0
  6
Continuous
 62
     7
370
    25
100
AcDbLine
 10
782.7939853333
 20
-501.834367291
 30
0.0
 11
790.4099233116
 21
-501.8343673127
 31
0.0
  0
LINE
  5
60B
330
1F
100
AcDbEntity
  8
0
  6
Continuous
 62
     7
370
    25
100
AcDbLine
 10
794.7939853333
 20
-497.450305291
 30
0.0
 11
794.7939853333
 21
-481.828429291
 31
0.0
  0
LINE
  5
60C
330
1F
100
AcDbEntity
  8
0
  6
Continuous
 62
     7
370
    25
100
AcDbLine
 10
790.4099233441
 20
-477.4443673019
 30
0.0
 11
782.7939853333
 21
-477.444367291
 31
0.0
  0
LINE
  5
60D
330
1F
100
AcDbEntity
  8
0
  6
Continuous
 62
     7
370
    25
100
AcDbLine
 10
782.7939853333
 20
-477.444367291
 30
0.0
 11
782.7939853333
 21
-452.639367291
 31
0.0
  0
LINE
  5
60E
330
1F
100
AcDbEntity
  8
0
  6
Continuous
 62
     7
370
    25
100
AcDbLine
 10
782.7939853333
 20
-452.639367291
 30
0.0
 11
807.5989853333
 21
-452.639367291
 31
0.0
  0
LINE
  5
60F
330
1F
100
AcDbEntity
  8
0
  6
Continuous
 62
     7
370
    25
100
AcDbLine
 10
807.5989853333
 20
-452.639367291
 30
0.0
 11
807.5989853116
 21
-460.2553052693
 31
0.0
  0
LINE
  5
610
330
1F
100
AcDbEntity
  8
0
  6
Continuous
 62
     7
370
    25
100
AcDbLine
 10
811.9830473333
 20
-464.639367291
 30
0.0
 11
827.6049233333
 21
-464.639367291
 31
0.0
  0
LINE
  5
611
330
1F
100
AcDbEntity
  8
0
  6
Continuous
 62
     7
370
    25
100
AcDbLine
 10
831.9889853225
 20
-460.2553053019
 30
0.0
 11
831.9889853333
 21
-452.639367291
 31
0.0
  0
LINE
  5
612
330
1F
100
AcDbEntity
  8
0
  6
Continuous
 62
     7
370
    25
100
AcDbLine
 10
831.9889853333
 20
-452.639367291
 30
0.0
 11
856.7939853333
 21
-452.639367291
 31
0.0
  0
LINE
  5
613
330
1F
100
AcDbEntity
  8
0
  6
Continuous
 62
     7
370
    25
100
AcDbLine
 10
856.7939853333
 20
-452.639367291
 30
0.0
 11
856.7939853333
 21
-477.444367291
 31
0.0
  0
LINE
  5
614
330
1F
100
AcDbEntity
  8
0
  6
Continuous
 62
     7
370
    25
100
AcDbLine
 10
856.7939853333
 20
-477.444367291
 30
0.0
 11
849.178047355
 21
-477.4443672693
 31
0.0
  0
LINE
  5
615
330
1F
100
AcDbEntity
  8
0
  6
Continuous
 62
     7
370
    25
100
AcDbLine
 10
844.7939853333
 20
-481.828429291
 30
0.0
 11
844.7939853333
 21
-497.450305291
 31
0.0
  0
LINE
  5
616
330
1F
100
AcDbEntity
  8
0
  6
Continuous
 62
     7
370
    25
100
AcDbLine
 10
849.1780473225
 20
-501.8343672802
 30
0.0
 11
856.7939853333
 21
-501.834367291
 31
0.0
  0
LINE
  5
617
330
1F
100
AcDbEntity
  8
0
  6
Continuous
 62
     7
370
    25
100
AcDbLine
 10
856.7939853333
 20
-501.834367291
 30
0.0
 11
856.7939853333
 21
-526.639367291
 31
0.0
  0
LINE
  5
618
330
1F
100
AcDbEntity
  8
0
  6
Continuous
 62
     7
370
    25
100
AcDbLine
 10
856.7939853333
 20
-526.639367291
 30
0.0
 11
831.9889853333
 21
-526.639367291
 31
0.0
  0
LINE
  5
619
330
1F
100
AcDbEntity
  8
0
  6
Continuous
 62
     7
370
    25
100
AcDbLine
 10
831.9889853333
 20
-526.639367291
 30
0.0
 11
831.988985355
 21
-519.0234293127
 31
0.0
  0
LINE
  5
61A
330
1F
100
AcDbEntity
  8
0
  6
Continuous
 62
     7
370
    25
100
AcDbLine
 10
827.6049233333
 20
-514.639367291
 30
0.0
 11
811.9830473333
 21
-514.639367291
 31
0.0
  0
LINE
  5
61B
330
1F
100
AcDbEntity
  8
0
  6
Continuous
 62
     7
370
    25
100
AcDbLine
 10
807.5989853441
 20
-519.0234292802
 30
0.0
 11
807.5989853333
 21
-526.639367291
 31
0.0
  0
LINE
  5
61C
330
1F
100
AcDbEntity
  8
0
  6
Continuous
 62
     7
370
    25
100
AcDbLine
 10
807.5989853333
 20
-526.639367291
 30
0.0
 11
782.7939853333
 21
-526.639367291
 31
0.0
  0
LINE
  5
61D
330
1F
100
AcDbEntity
  8
0
  6
Continuous
 62
     7
370
    25
100
AcDbLine
 10
1126.00480412
 20
534.1356404901
 30
0.0
 11
1133.6207421308
 21
534.1356405009
 31
0.0
  0
LINE
  5
61E
330
1F
100
AcDbEntity
  8
0
  6
Continuous
 62
     7
370
    25
100
AcDbLine
 10
1121.6207421308
 20
514.1297025009
 30
0.0
 11
1121.6207421308
 21
529.7515785009
 31
0.0
  0
LINE
  5
61F
330
1F
100
AcDbEntity
  8
0
  6
Continuous
 62
     7
370
    25
100
AcDbLine
 10
1133.6207421308
 20
509.7456405009
 30
0.0
 11
1126.0048041525
 21
509.7456404793
 31
0.0
  0
LINE
  5
620
330
1F
100
AcDbEntity
  8
0
  6
Continuous
 62
     7
370
    25
100
AcDbLine
 10
1133.6207421308
 20
484.9406405009
 30
0.0
 11
1133.6207421308
 21
509.7456405009
 31
0.0
  0
LINE
  5
621
330
1F
100
AcDbEntity
  8
0
  6
Continuous
 62
     7
370
    25
100
AcDbLine
 10
1108.8157421308
 20
484.9406405009
 30
0.0
 11
1133.6207421308
 21
484.9406405009
 31
0.0
  0
LINE
  5
622
330
1F
100
AcDbEntity
  8
0
  6
Continuous
 62
     7
370
    25
100
AcDbLine
 10
1108.81574212
 20
492.5565785118
 30
0.0
 11
1108.8157421308
 21
484.9406405009
 31
0.0
  0
LINE
  5
623
330
1F
100
AcDbEntity
  8
0
  6
Continuous
 62
     7
370
    25
100
AcDbLine
 10
1088.8098041308
 20
496.9406405009
 30
0.0
 11
1104.4316801308
 21
496.9406405009
 31
0.0
  0
LINE
  5
624
330
1F
100
AcDbEntity
  8
0
  6
Continuous
 62
     7
370
    25
100
AcDbLine
 10
1084.4257421308
 20
484.9406405009
 30
0.0
 11
1084.4257421092
 21
492.5565784793
 31
0.0
  0
LINE
  5
625
330
1F
100
AcDbEntity
  8
0
  6
Continuous
 62
     7
370
    25
100
AcDbLine
 10
1059.6207421308
 20
484.9406405009
 30
0.0
 11
1084.4257421308
 21
484.9406405009
 31
0.0
  0
LINE
  5
626
330
1F
100
AcDbEntity
  8
0
  6
Continuous
 62
     7
370
    25
100
AcDbLine
 10
1059.6207421308
 20
509.7456405009
 30
0.0
 11
1059.6207421308
 21
484.9406405009
 31
0.0
  0
LINE
  5
627
330
1F
100
AcDbEntity
  8
0
  6
Continuous
 62
     7
370
    25
100
AcDbLine
 10
1067.2366801417
 20
509.7456405118
 30
0.0
 11
1059.6207421308
 21
509.7456405009
 31
0.0
  0
LINE
  5
628
330
1F
100
AcDbEntity
  8
0
  6
Continuous
 62
     7
370
    25
100
AcDbLine
 10
1071.6207421308
 20
529.7515785009
 30
0.0
 11
1071.6207421308
 21
514.1297025009
 31
0.0
  0
LINE
  5
629
330
1F
100
AcDbEntity
  8
0
  6
Continuous
 62
     7
370
    25
100
AcDbLine
 10
1059.6207421308
 20
534.1356405009
 30
0.0
 11
1067.2366801092
 21
534.1356405226
 31
0.0
  0
LINE
  5
62A
330
1F
100
AcDbEntity
  8
0
  6
Continuous
 62
     7
370
    25
100
AcDbLine
 10
1059.6207421308
 20
558.9406405009
 30
0.0
 11
1059.6207421308
 21
534.1356405009
 31
0.0
  0
LINE
  5
62B
330
1F
100
AcDbEntity
  8
0
  6
Continuous
 62
     7
370
    25
100
AcDbLine
 10
1084.4257421308
 20
558.9406405009
 30
0.0
 11
1059.6207421308
 21
558.9406405009
 31
0.0
  0
LINE
  5
62C
330
1F
100
AcDbEntity
  8
0
  6
Continuous
 62
     7
370
    25
100
AcDbLine
 10
1084.4257421417
 20
551.3247024901
 30
0.0
 11
1084.4257421308
 21
558.9406405009
 31
0.0
  0
LINE
  5
62D
330
1F
100
AcDbEntity
  8
0
  6
Continuous
 62
     7
370
    25
100
AcDbLine
 10
1104.4316801308
 20
546.9406405009
 30
0.0
 11
1088.8098041308
 21
546.9406405009
 31
0.0
  0
LINE
  5
62E
330
1F
100
AcDbEntity
  8
0
  6
Continuous
 62
     7
370
    25
100
AcDbLine
 10
1108.8157421308
 20
558.9406405009
 30
0.0
 11
1108.8157421525
 21
551.3247025226
 31
0.0
  0
LINE
  5
62F
330
1F
100
AcDbEntity
  8
0
  6
Continuous
 62
     7
370
    25
100
AcDbLine
 10
1133.6207421308
 20
558.9406405009
 30
0.0
 11
1108.8157421308
 21
558.9406405009
 31
0.0
  0
LINE
  5
630
330
1F
100
AcDbEntity
  8
0
  6
Continuous
 62
     7
370
    25
100
AcDbLine
 10
1133.6207421308
 20
534.1356405009
 30
0.0
 11
1133.6207421308
 21
558.9406405009
 31
0.0
  0
LINE
  5
631
330
1F
100
AcDbEntity
  8
0
  6
Continuous
 62
     7
370
    25
100
AcDbLine
 10
-1118.080446003
 20
-520.2472255772
 30
0.0
 11
-1110.4645079921
 21
-520.2472255664
 31
0.0
  0
LINE
  5
632
330
1F
100
AcDbEntity
  8
0
  6
Continuous
 62
     7
370
    25
100
AcDbLine
 10
-1122.4645079921
 20
-540.2531635664
 30
0.0
 11
-1122.4645079921
 21
-524.6312875664
 31
0.0
  0
LINE
  5
633
330
1F
100
AcDbEntity
  8
0
  6
Continuous
 62
     7
370
    25
100
AcDbLine
 10
-1110.4645079921
 20
-544.6372255664
 30
0.0
 11
-1118.0804459705
 21
-544.637225588
 31
0.0
  0
LINE
  5
634
330
1F
100
AcDbEntity
  8
0
  6
Continuous
 62
     7
370
    25
100
AcDbLine
 10
-1110.4645079921
 20
-569.4422255664
 30
0.0
 11
-1110.4645079921
 21
-544.6372255664
 31
0.0
  0
LINE
  5
635
330
1F
100
AcDbEntity
  8
0
  6
Continuous
 62
     7
370
    25
100
AcDbLine
 10
-1135.2695079921
 20
-569.4422255664
 30
0.0
 11
-1110.4645079921
 21
-569.4422255664
 31
0.0
  0
LINE
  5
636
330
1F
100
AcDbEntity
  8
0
  6
Continuous
 62
     7
370
    25
100
AcDbLine
 10
-1135.269508003
 20
-561.8262875555
 30
0.0
 11
-1135.2695079921
 21
-569.4422255664
 31
0.0
  0
LINE
  5
637
330
1F
100
AcDbEntity
  8
0
  6
Continuous
 62
     7
370
    25
100
AcDbLine
 10
-1155.2754459921
 20
-557.4422255664
 30
0.0
 11
-1139.6535699921
 21
-557.4422255664
 31
0.0
  0
LINE
  5
638
330
1F
100
AcDbEntity
  8
0
  6
Continuous
 62
     7
370
    25
100
AcDbLine
 10
-1159.6595079921
 20
-569.4422255664
 30
0.0
 11
-1159.6595080138
 21
-561.826287588
 31
0.0
  0
LINE
  5
639
330
1F
100
AcDbEntity
  8
0
  6
Continuous
 62
     7
370
    25
100
AcDbLine
 10
-1184.4645079921
 20
-569.4422255664
 30
0.0
 11
-1159.6595079921
 21
-569.4422255664
 31
0.0
  0
LINE
  5
63A
330
1F
100
AcDbEntity
  8
0
  6
Continuous
 62
     7
370
    25
100
AcDbLine
 10
-1184.4645079921
 20
-544.6372255664
 30
0.0
 11
-1184.4645079921
 21
-569.4422255664
 31
0.0
  0
LINE
  5
63B
330
1F
100
AcDbEntity
  8
0
  6
Continuous
 62
     7
370
    25
100
AcDbLine
 10
-1176.8485699813
 20
-544.6372255555
 30
0.0
 11
-1184.4645079921
 21
-544.6372255664
 31
0.0
  0
LINE
  5
63C
330
1F
100
AcDbEntity
  8
0
  6
Continuous
 62
     7
370
    25
100
AcDbLine
 10
-1172.4645079921
 20
-524.6312875664
 30
0.0
 11
-1172.4645079921
 21
-540.2531635664
 31
0.0
  0
LINE
  5
63D
330
1F
100
AcDbEntity
  8
0
  6
Continuous
 62
     7
370
    25
100
AcDbLine
 10
-1184.4645079921
 20
-520.2472255664
 30
0.0
 11
-1176.8485700138
 21
-520.2472255447
 31
0.0
  0
LINE
  5
63E
330
1F
100
AcDbEntity
  8
0
  6
Continuous
 62
     7
370
    25
100
AcDbLine
 10
-1184.4645079921
 20
-495.4422255664
 30
0.0
 11
-1184.4645079921
 21
-520.2472255664
 31
0.0
  0
LINE
  5
63F
330
1F
100
AcDbEntity
  8
0
  6
Continuous
 62
     7
370
    25
100
AcDbLine
 10
-1159.6595079921
 20
-495.4422255664
 30
0.0
 11
-1184.4645079921
 21
-495.4422255664
 31
0.0
  0
LINE
  5
640
330
1F
100
AcDbEntity
  8
0
  6
Continuous
 62
     7
370
    25
100
AcDbLine
 10
-1159.6595079813
 20
-503.0581635772
 30
0.0
 11
-1159.6595079921
 21
-495.4422255664
 31
0.0
  0
LINE
  5
641
330
1F
100
AcDbEntity
  8
0
  6
Continuous
 62
     7
370
    25
100
AcDbLine
 10
-1139.6535699921
 20
-507.4422255664
 30
0.0
 11
-1155.2754459921
 21
-507.4422255664
 31
0.0
  0
LINE
  5
642
330
1F
100
AcDbEntity
  8
0
  6
Continuous
 62
     7
370
    25
100
AcDbLine
 10
-1135.2695079921
 20
-495.4422255664
 30
0.0
 11
-1135.2695079705
 21
-503.0581635447
 31
0.0
  0
LINE
  5
643
330
1F
100
AcDbEntity
  8
0
  6
Continuous
 62
     7
370
    25
100
AcDbLine
 10
-1110.4645079921
 20
-495.4422255664
 30
0.0
 11
-1135.2695079921
 21
-495.4422255664
 31
0.0
  0
LINE
  5
644
330
1F
100
AcDbEntity
  8
0
  6
Continuous
 62
     7
370
    25
100
AcDbLine
 10
-1110.4645079921
 20
-520.2472255664
 30
0.0
 11
-1110.4645079921
 21
-495.4422255664
 31
0.0
  0
LINE
  5
645
330
1F
100
AcDbEntity
  8
0
  6
Continuous
 62
     7
370
    25
100
AcDbLine
 10
-185.7101472678
 20
226.1188970287
 30
0.0
 11
-178.0942092569
 21
226.1188970396
 31
0.0
  0
LINE
  5
646
330
1F
100
AcDbEntity
  8
0
  6
Continuous
 62
     7
370
    25
100
AcDbLine
 10
-190.0942092569
 20
206.1129590396
 30
0.0
 11
-190.0942092569
 21
221.7348350396
 31
0.0
  0
LINE
  5
647
330
1F
100
AcDbEntity
  8
0
  6
Continuous
 62
     7
370
    25
100
AcDbLine
 10
-178.0942092569
 20
201.7288970396
 30
0.0
 11
-185.7101472352
 21
201.7288970179
 31
0.0
  0
LINE
  5
648
330
1F
100
AcDbEntity
  8
0
  6
Continuous
 62
     7
370
    25
100
AcDbLine
 10
-178.0942092569
 20
176.9238970396
 30
0.0
 11
-178.0942092569
 21
201.7288970396
 31
0.0
  0
LINE
  5
649
330
1F
100
AcDbEntity
  8
0
  6
Continuous
 62
     7
370
    25
100
AcDbLine
 10
-202.8992092569
 20
176.9238970396
 30
0.0
 11
-178.0942092569
 21
176.9238970396
 31
0.0
  0
LINE
  5
64A
330
1F
100
AcDbEntity
  8
0
  6
Continuous
 62
     7
370
    25
100
AcDbLine
 10
-202.8992092678
 20
184.5398350504
 30
0.0
 11
-202.8992092569
 21
176.9238970396
 31
0.0
  0
LINE
  5
64B
330
1F
100
AcDbEntity
  8
0
  6
Continuous
 62
     7
370
    25
100
AcDbLine
 10
-222.9051472569
 20
188.9238970396
 30
0.0
 11
-207.2832712569
 21
188.9238970396
 31
0.0
  0
LINE
  5
64C
330
1F
100
AcDbEntity
  8
0
  6
Continuous
 62
     7
370
    25
100
AcDbLine
 10
-227.2892092569
 20
176.9238970396
 30
0.0
 11
-227.2892092786
 21
184.5398350179
 31
0.0
  0
LINE
  5
64D
330
1F
100
AcDbEntity
  8
0
  6
Continuous
 62
     7
370
    25
100
AcDbLine
 10
-252.0942092569
 20
176.9238970396
 30
0.0
 11
-227.2892092569
 21
176.9238970396
 31
0.0
  0
LINE
  5
64E
330
1F
100
AcDbEntity
  8
0
  6
Continuous
 62
     7
370
    25
100
AcDbLine
 10
-252.0942092569
 20
201.7288970396
 30
0.0
 11
-252.0942092569
 21
176.9238970396
 31
0.0
  0
LINE
  5
64F
330
1F
100
AcDbEntity
  8
0
  6
Continuous
 62
     7
370
    25
100
AcDbLine
 10
-244.4782712461
 20
201.7288970504
 30
0.0
 11
-252.0942092569
 21
201.7288970396
 31
0.0
  0
LINE
  5
650
330
1F
100
AcDbEntity
  8
0
  6
Continuous
 62
     7
370
    25
100
AcDbLine
 10
-240.0942092569
 20
221.7348350396
 30
0.0
 11
-240.0942092569
 21
206.1129590396
 31
0.0
  0
LINE
  5
651
330
1F
100
AcDbEntity
  8
0
  6
Continuous
 62
     7
370
    25
100
AcDbLine
 10
-252.0942092569
 20
226.1188970396
 30
0.0
 11
-244.4782712786
 21
226.1188970612
 31
0.0
  0
LINE
  5
652
330
1F
100
AcDbEntity
  8
0
  6
Continuous
 62
     7
370
    25
100
AcDbLine
 10
-252.0942092569
 20
250.9238970396
 30
0.0
 11
-252.0942092569
 21
226.1188970396
 31
0.0
  0
LINE
  5
653
330
1F
100
AcDbEntity
  8
0
  6
Continuous
 62
     7
370
    25
100
AcDbLine
 10
-227.2892092569
 20
250.9238970396
 30
0.0
 11
-252.0942092569
 21
250.9238970396
 31
0.0
  0
LINE
  5
654
330
1F
100
AcDbEntity
  8
0
  6
Continuous
 62
     7
370
    25
100
AcDbLine
 10
-227.2892092461
 20
243.3079590287
 30
0.0
 11
-227.2892092569
 21
250.9238970396
 31
0.0
  0
LINE
  5
655
330
1F
100
AcDbEntity
  8
0
  6
Continuous
 62
     7
370
    25
100
AcDbLine
 10
-207.2832712569
 20
238.9238970396
 30
0.0
 11
-222.9051472569
 21
238.9238970396
 31
0.0
  0
LINE
  5
656
330
1F
100
AcDbEntity
  8
0
  6
Continuous
 62
     7
370
    25
100
AcDbLine
 10
-202.8992092569
 20
250.9238970396
 30
0.0
 11
-202.8992092352
 21
243.3079590612
 31
0.0
  0
LINE
  5
657
330
1F
100
AcDbEntity
  8
0
  6
Continuous
 62
     7
370
    25
100
AcDbLine
 10
-178.0942092569
 20
250.9238970396
 30
0.0
 11
-202.8992092569
 21
250.9238970396
 31
0.0
  0
LINE
  5
658
330
1F
100
AcDbEntity
  8
0
  6
Continuous
 62
     7
370
    25
100
AcDbLine
 10
-178.0942092569
 20
226.1188970396
 30
0.0
 11
-178.0942092569
 21
250.9238970396
 31
0.0
  0
LINE
  5
659
330
1F
100
AcDbEntity
  8
0
  6
Continuous
 62
     7
370
    25
100
AcDbLine
 10
994.1052059187
 20
389.7868110312
 30
0.0
 11
994.1052059404
 21
398.2077490095
 31
0.0
  0
LINE
  5
65A
330
1F
100
AcDbEntity
  8
0
  6
Continuous
 62
     7
370
    25
100
AcDbLine
 10
989.7211439187
 20
402.5918110312
 30
0.0
 11
982.1052059187
 21
402.5918110312
 31
0.0
  0
LINE
  5
65B
330
1F
100
AcDbEntity
  8
0
  6
Continuous
 62
     7
370
    25
100
AcDbLine
 10
982.1052059187
 20
402.5918110312
 30
0.0
 11
982.1052059187
 21
426.9818110312
 31
0.0
  0
LINE
  5
65C
330
1F
100
AcDbEntity
  8
0
  6
Continuous
 62
     7
370
    25
100
AcDbLine
 10
982.1052059187
 20
426.9818110312
 30
0.0
 11
989.721143897
 21
426.9818110095
 31
0.0
  0
LINE
  5
65D
330
1F
100
AcDbEntity
  8
0
  6
Continuous
 62
     7
370
    25
100
AcDbLine
 10
994.1052059187
 20
431.3658730312
 30
0.0
 11
994.1052059187
 21
439.7868110312
 31
0.0
  0
LINE
  5
65E
330
1F
100
AcDbEntity
  8
0
  6
Continuous
 62
     7
370
    25
100
AcDbLine
 10
994.1052059187
 20
439.7868110312
 30
0.0
 11
1002.526143897
 21
439.7868110095
 31
0.0
  0
LINE
  5
65F
330
1F
100
AcDbEntity
  8
0
  6
Continuous
 62
     7
370
    25
100
AcDbLine
 10
1006.9102059187
 20
451.7868110312
 30
0.0
 11
1031.3002059187
 21
451.7868110312
 31
0.0
  0
LINE
  5
660
330
1F
100
AcDbEntity
  8
0
  6
Continuous
 62
     7
370
    25
100
AcDbLine
 10
1035.6842679187
 20
439.7868110312
 30
0.0
 11
1044.1052059187
 21
439.7868110312
 31
0.0
  0
LINE
  5
661
330
1F
100
AcDbEntity
  8
0
  6
Continuous
 62
     7
370
    25
100
AcDbLine
 10
1044.1052059187
 20
439.7868110312
 30
0.0
 11
1044.105205897
 21
431.3658730529
 31
0.0
  0
LINE
  5
662
330
1F
100
AcDbEntity
  8
0
  6
Continuous
 62
     7
370
    25
100
AcDbLine
 10
1048.4892679187
 20
426.9818110312
 30
0.0
 11
1056.1052059187
 21
426.9818110312
 31
0.0
  0
LINE
  5
663
330
1F
100
AcDbEntity
  8
0
  6
Continuous
 62
     7
370
    25
100
AcDbLine
 10
1056.1052059187
 20
426.9818110312
 30
0.0
 11
1056.1052059187
 21
402.5918110312
 31
0.0
  0
LINE
  5
664
330
1F
100
AcDbEntity
  8
0
  6
Continuous
 62
     7
370
    25
100
AcDbLine
 10
1056.1052059187
 20
402.5918110312
 30
0.0
 11
1048.4892679404
 21
402.5918110529
 31
0.0
  0
LINE
  5
665
330
1F
100
AcDbEntity
  8
0
  6
Continuous
 62
     7
370
    25
100
AcDbLine
 10
1044.1052059187
 20
398.2077490312
 30
0.0
 11
1044.1052059187
 21
389.7868110312
 31
0.0
  0
LINE
  5
666
330
1F
100
AcDbEntity
  8
0
  6
Continuous
 62
     7
370
    25
100
AcDbLine
 10
1044.1052059187
 20
389.7868110312
 30
0.0
 11
1035.6842679404
 21
389.7868110529
 31
0.0
  0
LINE
  5
667
330
1F
100
AcDbEntity
  8
0
  6
Continuous
 62
     7
370
    25
100
AcDbLine
 10
1031.3002059187
 20
385.4027490312
 30
0.0
 11
1031.3002059187
 21
377.7868110312
 31
0.0
  0
LINE
  5
668
330
1F
100
AcDbEntity
  8
0
  6
Continuous
 62
     7
370
    25
100
AcDbLine
 10
1031.3002059187
 20
377.7868110312
 30
0.0
 11
1006.9102059187
 21
377.7868110312
 31
0.0
  0
LINE
  5
669
330
1F
100
AcDbEntity
  8
0
  6
Continuous
 62
     7
370
    25
100
AcDbLine
 10
1006.9102059187
 20
377.7868110312
 30
0.0
 11
1006.9102059404
 21
385.4027490095
 31
0.0
  0
LINE
  5
66A
330
1F
100
AcDbEntity
  8
0
  6
Continuous
 62
     7
370
    25
100
AcDbLine
 10
1002.5261439187
 20
389.7868110312
 30
0.0
 11
994.1052059187
 21
389.7868110312
 31
0.0
  0
LINE
  5
66B
330
1F
100
AcDbEntity
  8
0
  6
Continuous
 62
     7
370
    25
100
AcDbLine
 10
1006.9102059187
 20
444.1708730312
 30
0.0
 11
1006.9102059187
 21
451.7868110312
 31
0.0
  0
LINE
  5
66C
330
1F
100
AcDbEntity
  8
0
  6
Continuous
 62
     7
370
    25
100
AcDbLine
 10
1031.3002059187
 20
451.7868110312
 30
0.0
 11
1031.300205897
 21
444.1708730529
 31
0.0
  0
LINE
  5
66D
330
1F
100
AcDbEntity
  8
0
  6
Continuous
 62
     7
370
    25
100
AcDbLine
 10
-1088.4645079921
 20
-557.4422255664
 30
0.0
 11
-1088.4645079705
 21
-549.021287588
 31
0.0
  0
LINE
  5
66E
330
1F
100
AcDbEntity
  8
0
  6
Continuous
 62
     7
370
    25
100
AcDbLine
 10
-1092.8485699921
 20
-544.6372255664
 30
0.0
 11
-1100.4645079921
 21
-544.6372255664
 31
0.0
  0
LINE
  5
66F
330
1F
100
AcDbEntity
  8
0
  6
Continuous
 62
     7
370
    25
100
AcDbLine
 10
-1100.4645079921
 20
-544.6372255664
 30
0.0
 11
-1100.4645079921
 21
-520.2472255664
 31
0.0
  0
LINE
  5
670
330
1F
100
AcDbEntity
  8
0
  6
Continuous
 62
     7
370
    25
100
AcDbLine
 10
-1100.4645079921
 20
-520.2472255664
 30
0.0
 11
-1092.8485700138
 21
-520.247225588
 31
0.0
  0
LINE
  5
671
330
1F
100
AcDbEntity
  8
0
  6
Continuous
 62
     7
370
    25
100
AcDbLine
 10
-1088.4645079921
 20
-515.8631635664
 30
0.0
 11
-1088.4645079921
 21
-507.4422255664
 31
0.0
  0
LINE
  5
672
330
1F
100
AcDbEntity
  8
0
  6
Continuous
 62
     7
370
    25
100
AcDbLine
 10
-1088.4645079921
 20
-507.4422255664
 30
0.0
 11
-1080.0435700138
 21
-507.442225588
 31
0.0
  0
LINE
  5
673
330
1F
100
AcDbEntity
  8
0
  6
Continuous
 62
     7
370
    25
100
AcDbLine
 10
-1075.6595079921
 20
-503.0581635664
 30
0.0
 11
-1075.6595079921
 21
-495.4422255664
 31
0.0
  0
LINE
  5
674
330
1F
100
AcDbEntity
  8
0
  6
Continuous
 62
     7
370
    25
100
AcDbLine
 10
-1075.6595079921
 20
-495.4422255664
 30
0.0
 11
-1051.2695079921
 21
-495.4422255664
 31
0.0
  0
LINE
  5
675
330
1F
100
AcDbEntity
  8
0
  6
Continuous
 62
     7
370
    25
100
AcDbLine
 10
-1051.2695079921
 20
-495.4422255664
 30
0.0
 11
-1051.2695080138
 21
-503.0581635447
 31
0.0
  0
LINE
  5
676
330
1F
100
AcDbEntity
  8
0
  6
Continuous
 62
     7
370
    25
100
AcDbLine
 10
-1046.8854459921
 20
-507.4422255664
 30
0.0
 11
-1038.4645079921
 21
-507.4422255664
 31
0.0
  0
LINE
  5
677
330
1F
100
AcDbEntity
  8
0
  6
Continuous
 62
     7
370
    25
100
AcDbLine
 10
-1038.4645079921
 20
-507.4422255664
 30
0.0
 11
-1038.4645080138
 21
-515.8631635447
 31
0.0
  0
LINE
  5
678
330
1F
100
AcDbEntity
  8
0
  6
Continuous
 62
     7
370
    25
100
AcDbLine
 10
-1034.0804459921
 20
-520.2472255664
 30
0.0
 11
-1026.4645079921
 21
-520.2472255664
 31
0.0
  0
LINE
  5
679
330
1F
100
AcDbEntity
  8
0
  6
Continuous
 62
     7
370
    25
100
AcDbLine
 10
-1026.4645079921
 20
-520.2472255664
 30
0.0
 11
-1026.4645079921
 21
-544.6372255664
 31
0.0
  0
LINE
  5
67A
330
1F
100
AcDbEntity
  8
0
  6
Continuous
 62
     7
370
    25
100
AcDbLine
 10
-1026.4645079921
 20
-544.6372255664
 30
0.0
 11
-1034.0804459705
 21
-544.6372255447
 31
0.0
  0
LINE
  5
67B
330
1F
100
AcDbEntity
  8
0
  6
Continuous
 62
     7
370
    25
100
AcDbLine
 10
-1038.4645079921
 20
-549.0212875664
 30
0.0
 11
-1038.4645079921
 21
-557.4422255664
 31
0.0
  0
LINE
  5
67C
330
1F
100
AcDbEntity
  8
0
  6
Continuous
 62
     7
370
    25
100
AcDbLine
 10
-1038.4645079921
 20
-557.4422255664
 30
0.0
 11
-1046.8854459705
 21
-557.4422255447
 31
0.0
  0
LINE
  5
67D
330
1F
100
AcDbEntity
  8
0
  6
Continuous
 62
     7
370
    25
100
AcDbLine
 10
-1051.2695079921
 20
-561.8262875664
 30
0.0
 11
-1051.2695079921
 21
-569.4422255664
 31
0.0
  0
LINE
  5
67E
330
1F
100
AcDbEntity
  8
0
  6
Continuous
 62
     7
370
    25
100
AcDbLine
 10
-1051.2695079921
 20
-569.4422255664
 30
0.0
 11
-1075.6595079921
 21
-569.4422255664
 31
0.0
  0
LINE
  5
67F
330
1F
100
AcDbEntity
  8
0
  6
Continuous
 62
     7
370
    25
100
AcDbLine
 10
-1075.6595079921
 20
-569.4422255664
 30
0.0
 11
-1075.6595079705
 21
-561.826287588
 31
0.0
  0
LINE
  5
680
330
1F
100
AcDbEntity
  8
0
  6
Continuous
 62
     7
370
    25
100
AcDbLine
 10
-1080.0435699921
 20
-557.4422255664
 30
0.0
 11
-1088.4645079921
 21
-557.4422255664
 31
0.0
  0
LINE
  5
681
330
1F
100
AcDbEntity
  8
0
  6
Continuous
 62
     7
370
    25
100
AcDbLine
 10
-354.0745674673
 20
425.0260676183
 30
0.0
 11
-354.0745674457
 21
433.4470055966
 31
0.0
  0
LINE
  5
682
330
1F
100
AcDbEntity
  8
0
  6
Continuous
 62
     7
370
    25
100
AcDbLine
 10
-358.4586294673
 20
437.8310676183
 30
0.0
 11
-366.0745674673
 21
437.8310676183
 31
0.0
  0
LINE
  5
683
330
1F
100
AcDbEntity
  8
0
  6
Continuous
 62
     7
370
    25
100
AcDbLine
 10
-366.0745674673
 20
437.8310676183
 30
0.0
 11
-366.0745674673
 21
462.2210676183
 31
0.0
  0
LINE
  5
684
330
1F
100
AcDbEntity
  8
0
  6
Continuous
 62
     7
370
    25
100
AcDbLine
 10
-366.0745674673
 20
462.2210676183
 30
0.0
 11
-358.458629489
 21
462.2210675966
 31
0.0
  0
LINE
  5
685
330
1F
100
AcDbEntity
  8
0
  6
Continuous
 62
     7
370
    25
100
AcDbLine
 10
-354.0745674673
 20
466.6051296183
 30
0.0
 11
-354.0745674673
 21
475.0260676183
 31
0.0
  0
LINE
  5
686
330
1F
100
AcDbEntity
  8
0
  6
Continuous
 62
     7
370
    25
100
AcDbLine
 10
-354.0745674673
 20
475.0260676183
 30
0.0
 11
-345.653629489
 21
475.0260675966
 31
0.0
  0
LINE
  5
687
330
1F
100
AcDbEntity
  8
0
  6
Continuous
 62
     7
370
    25
100
AcDbLine
 10
-316.8795674673
 20
487.0260676183
 30
0.0
 11
-316.879567489
 21
479.41012964
 31
0.0
  0
LINE
  5
688
330
1F
100
AcDbEntity
  8
0
  6
Continuous
 62
     7
370
    25
100
AcDbLine
 10
-312.4955054673
 20
475.0260676183
 30
0.0
 11
-304.0745674673
 21
475.0260676183
 31
0.0
  0
LINE
  5
689
330
1F
100
AcDbEntity
  8
0
  6
Continuous
 62
     7
370
    25
100
AcDbLine
 10
-304.0745674673
 20
475.0260676183
 30
0.0
 11
-304.074567489
 21
466.60512964
 31
0.0
  0
LINE
  5
68A
330
1F
100
AcDbEntity
  8
0
  6
Continuous
 62
     7
370
    25
100
AcDbLine
 10
-299.6905054673
 20
462.2210676183
 30
0.0
 11
-292.0745674673
 21
462.2210676183
 31
0.0
  0
LINE
  5
68B
330
1F
100
AcDbEntity
  8
0
  6
Continuous
 62
     7
370
    25
100
AcDbLine
 10
-292.0745674673
 20
462.2210676183
 30
0.0
 11
-292.0745674673
 21
437.8310676183
 31
0.0
  0
LINE
  5
68C
330
1F
100
AcDbEntity
  8
0
  6
Continuous
 62
     7
370
    25
100
AcDbLine
 10
-292.0745674673
 20
437.8310676183
 30
0.0
 11
-299.6905054457
 21
437.83106764
 31
0.0
  0
LINE
  5
68D
330
1F
100
AcDbEntity
  8
0
  6
Continuous
 62
     7
370
    25
100
AcDbLine
 10
-304.0745674673
 20
433.4470056183
 30
0.0
 11
-304.0745674673
 21
425.0260676183
 31
0.0
  0
LINE
  5
68E
330
1F
100
AcDbEntity
  8
0
  6
Continuous
 62
     7
370
    25
100
AcDbLine
 10
-304.0745674673
 20
425.0260676183
 30
0.0
 11
-312.4955054457
 21
425.02606764
 31
0.0
  0
LINE
  5
68F
330
1F
100
AcDbEntity
  8
0
  6
Continuous
 62
     7
370
    25
100
AcDbLine
 10
-316.8795674673
 20
420.6420056183
 30
0.0
 11
-316.8795674673
 21
413.0260676183
 31
0.0
  0
LINE
  5
690
330
1F
100
AcDbEntity
  8
0
  6
Continuous
 62
     7
370
    25
100
AcDbLine
 10
-316.8795674673
 20
413.0260676183
 30
0.0
 11
-341.2695674673
 21
413.0260676183
 31
0.0
  0
LINE
  5
691
330
1F
100
AcDbEntity
  8
0
  6
Continuous
 62
     7
370
    25
100
AcDbLine
 10
-341.2695674673
 20
413.0260676183
 30
0.0
 11
-341.2695674457
 21
420.6420055966
 31
0.0
  0
LINE
  5
692
330
1F
100
AcDbEntity
  8
0
  6
Continuous
 62
     7
370
    25
100
AcDbLine
 10
-345.6536294673
 20
425.0260676183
 30
0.0
 11
-354.0745674673
 21
425.0260676183
 31
0.0
  0
LINE
  5
693
330
1F
100
AcDbEntity
  8
0
  6
Continuous
 62
     7
370
    25
100
AcDbLine
 10
-341.2695674673
 20
479.4101296183
 30
0.0
 11
-341.2695674673
 21
487.0260676183
 31
0.0
  0
LINE
  5
694
330
1F
100
AcDbEntity
  8
0
  6
Continuous
 62
     7
370
    25
100
AcDbLine
 10
-341.2695674673
 20
487.0260676183
 30
0.0
 11
-316.8795674673
 21
487.0260676183
 31
0.0
  0
ARC
  5
695
330
1F
100
AcDbEntity
  8
0
  6
Continuous
 62
     7
370
    25
100
AcDbCircle
 10
-282.4914464682
 20
24.801267153
 30
0.0
 40
754.1201349706025
100
AcDbArc
 50
308.8377667642
 51
13.7699084921
  0
ARC
  5
696
330
1F
100
AcDbEntity
  8
0
  6
Continuous
 62
     7
370
    25
100
AcDbCircle
 10
651.3522388789
 20
24.801267153
 30
0.0
 40
754.1201349706033
100
AcDbArc
 50
166.2300915079
 51
231.1622332358
  0
ARC
  5
697
330
1F
100
AcDbEntity
  8
0
  6
Continuous
 62
     7
370
    25
100
AcDbCircle
 10
325.9714946499
 20
559.9013302787
 30
0.0
 40
540.5136627931755
100
AcDbArc
 50
199.8384262613
 51
221.1396144265
  0
ARC
  5
698
330
1F
100
AcDbEntity
  8
0
  6
Continuous
 62
     7
370
    25
100
AcDbCircle
 10
42.8892977608
 20
559.9013302786
 30
0.0
 40
540.5136627931672
100
AcDbArc
 50
318.8603855735
 51
340.1615737387
  0
ARC
  5
699
330
1F
100
AcDbEntity
  8
0
  6
Continuous
 62
     7
370
    25
100
AcDbCircle
 10
-382.2803283738
 20
-485.1564773219
 30
0.0
 40
209.8360798400001
100
AcDbArc
 50
0.0
 51
90.0
  0
ARC
  5
69A
330
1F
100
AcDbEntity
  8
0
  6
Continuous
 62
     7
370
    25
100
AcDbCircle
 10
-379.5426139148
 20
-152.4998904754
 30
0.0
 40
209.8360798400001
100
AcDbArc
 50
0.0
 51
90.0
  0
ARC
  5
69B
330
1F
100
AcDbEntity
  8
0
  6
Continuous
 62
     7
370
    25
100
AcDbCircle
 10
-422.4645079921
 20
275.16392016
 30
0.0
 40
131.8360798400003
100
AcDbArc
 50
0.0
 51
90.0
  0
ARC
  5
69C
330
1F
100
AcDbEntity
  8
0
  6
Continuous
 62
     7
370
    25
100
AcDbCircle
 10
-422.4645079921
 20
121.32784032
 30
0.0
 40
131.8360798400003
100
AcDbArc
 50
0.0
 51
90.0
  0
ARC
  5
69D
330
1F
100
AcDbEntity
  8
0
  6
Continuous
 62
     7
370
    25
100
AcDbCircle
 10
1278.7884248574
 20
-54.8688082263
 30
0.0
 40
754.1201349706116
100
AcDbArc
 50
128.2548984674
 51
193.7699084921
  0
ARC
  5
69E
330
1F
100
AcDbEntity
  8
0
  6
Continuous
 62
     7
370
    25
100
AcDbCircle
 10
344.9447395104
 20
-54.8688082263
 30
0.0
 40
754.1201349706116
100
AcDbArc
 50
346.2300915079
 51
51.7451015326
  0
ARC
  5
69F
330
1F
100
AcDbEntity
  8
0
  6
Continuous
 62
     7
370
    25
100
AcDbCircle
 10
670.3254837393
 20
-589.9688713519
 30
0.0
 40
540.5136627931794
100
AcDbArc
 50
19.8384262613
 51
41.1396144265
  0
ARC
  5
6A0
330
1F
100
AcDbEntity
  8
0
  6
Continuous
 62
     7
370
    25
100
AcDbCircle
 10
953.4076806284
 20
-589.9688713519
 30
0.0
 40
540.5136627931639
100
AcDbArc
 50
138.8603855735
 51
160.1615737387
  0
ARC
  5
6A1
330
1F
100
AcDbEntity
  8
0
  6
Continuous
 62
     7
370
    25
100
AcDbCircle
 10
-75.0651643538
 20
-506.9877494144
 30
0.0
 40
3.100000000000036
100
AcDbArc
 50
314.9943021386
 51
135.0056978614
  0
ARC
  5
6A2
330
1F
100
AcDbEntity
  8
0
  6
Continuous
 62
     7
370
    25
100
AcDbCircle
 10
-75.0651643754
 20
-478.2141233938
 30
0.0
 40
3.100000000000036
100
AcDbArc
 50
224.9943021386
 51
45.0056978614
  0
ARC
  5
6A3
330
1F
100
AcDbEntity
  8
0
  6
Continuous
 62
     7
370
    25
100
AcDbCircle
 10
-57.8761023754
 20
-465.4086873927
 30
0.0
 40
3.100000000000015
100
AcDbArc
 50
135.0056978614
 51
314.9943021386
  0
ARC
  5
6A4
330
1F
100
AcDbEntity
  8
0
  6
Continuous
 62
     7
370
    25
100
AcDbCircle
 10
-37.8701643778
 20
-465.4091233806
 30
0.0
 40
3.099999977005619
100
AcDbArc
 50
224.9943023418
 51
45.0056976582
  0
ARC
  5
6A5
330
1F
100
AcDbEntity
  8
0
  6
Continuous
 62
     7
370
    25
100
AcDbCircle
 10
-20.6811023754
 20
-478.2136873927
 30
0.0
 40
3.100000000000033
100
AcDbArc
 50
135.0056978614
 51
314.9943021386
  0
ARC
  5
6A6
330
1F
100
AcDbEntity
  8
0
  6
Continuous
 62
     7
370
    25
100
AcDbCircle
 10
-20.6811023538
 20
-506.9881853721
 30
0.0
 40
3.100000000000048
100
AcDbArc
 50
45.0056978609
 51
224.9943021391
  0
ARC
  5
6A7
330
1F
100
AcDbEntity
  8
0
  6
Continuous
 62
     7
370
    25
100
AcDbCircle
 10
-37.8701643538
 20
-519.7927494144
 30
0.0
 40
3.100000000000153
100
AcDbArc
 50
314.9943021391
 51
135.0056978609
  0
ARC
  5
6A8
330
1F
100
AcDbEntity
  8
0
  6
Continuous
 62
     7
370
    25
100
AcDbCircle
 10
-57.8761023514
 20
-519.7931853853
 30
0.0
 40
3.099999977007921
100
AcDbArc
 50
45.0056980646
 51
224.9943019354
  0
ARC
  5
6A9
330
1F
100
AcDbEntity
  8
0
  6
Continuous
 62
     7
370
    25
100
AcDbCircle
 10
-838.6563209916
 20
-546.8290385875
 30
0.0
 40
3.100000000000116
100
AcDbArc
 50
314.9943021386
 51
135.0056978614
  0
ARC
  5
6AA
330
1F
100
AcDbEntity
  8
0
  6
Continuous
 62
     7
370
    25
100
AcDbCircle
 10
-838.6563210133
 20
-518.0554125669
 30
0.0
 40
3.100000000000116
100
AcDbArc
 50
224.9943021386
 51
45.0056978614
  0
ARC
  5
6AB
330
1F
100
AcDbEntity
  8
0
  6
Continuous
 62
     7
370
    25
100
AcDbCircle
 10
-821.4672590133
 20
-505.2499765658
 30
0.0
 40
3.099999999999995
100
AcDbArc
 50
135.0056978614
 51
314.9943021386
  0
ARC
  5
6AC
330
1F
100
AcDbEntity
  8
0
  6
Continuous
 62
     7
370
    25
100
AcDbCircle
 10
-801.4613210156
 20
-505.2504125537
 30
0.0
 40
3.099999977005594
100
AcDbArc
 50
224.9943023418
 51
45.0056976582
  0
ARC
  5
6AD
330
1F
100
AcDbEntity
  8
0
  6
Continuous
 62
     7
370
    25
100
AcDbCircle
 10
-784.2722590133
 20
-518.0549765658
 30
0.0
 40
3.100000000000036
100
AcDbArc
 50
135.0056978614
 51
314.9943021386
  0
ARC
  5
6AE
330
1F
100
AcDbEntity
  8
0
  6
Continuous
 62
     7
370
    25
100
AcDbCircle
 10
-784.2722589916
 20
-546.8294745452
 30
0.0
 40
3.100000000000033
100
AcDbArc
 50
45.0056978609
 51
224.9943021391
  0
ARC
  5
6AF
330
1F
100
AcDbEntity
  8
0
  6
Continuous
 62
     7
370
    25
100
AcDbCircle
 10
-801.4613209916
 20
-559.6340385875
 30
0.0
 40
3.100000000000033
100
AcDbArc
 50
314.9943021391
 51
135.0056978609
  0
ARC
  5
6B0
330
1F
100
AcDbEntity
  8
0
  6
Continuous
 62
     7
370
    25
100
AcDbCircle
 10
-821.4672589893
 20
-559.6344745584
 30
0.0
 40
3.099999977007861
100
AcDbArc
 50
45.0056980646
 51
224.9943019354
  0
ARC
  5
6B1
330
1F
100
AcDbEntity
  8
0
  6
Continuous
 62
     7
370
    25
100
AcDbCircle
 10
678.2396008573
 20
-509.8412263195
 30
0.0
 40
3.099999999999874
100
AcDbArc
 50
314.9943021386
 51
135.0056978614
  0
ARC
  5
6B2
330
1F
100
AcDbEntity
  8
0
  6
Continuous
 62
     7
370
    25
100
AcDbCircle
 10
678.2396008356
 20
-481.0676002988
 30
0.0
 40
3.100000000000076
100
AcDbArc
 50
224.9943021386
 51
45.0056978614
  0
ARC
  5
6B3
330
1F
100
AcDbEntity
  8
0
  6
Continuous
 62
     7
370
    25
100
AcDbCircle
 10
691.0446008356
 20
-468.2626002988
 30
0.0
 40
3.100000000000116
100
AcDbArc
 50
224.9943021386
 51
45.0056978614
  0
ARC
  5
6B4
330
1F
100
AcDbEntity
  8
0
  6
Continuous
 62
     7
370
    25
100
AcDbCircle
 10
719.8186628356
 20
-468.2621642978
 30
0.0
 40
3.100000000000156
100
AcDbArc
 50
135.0056978614
 51
314.9943021386
  0
ARC
  5
6B5
330
1F
100
AcDbEntity
  8
0
  6
Continuous
 62
     7
370
    25
100
AcDbCircle
 10
732.6236628356
 20
-481.0671642978
 30
0.0
 40
3.100000000000076
100
AcDbArc
 50
135.0056978614
 51
314.9943021386
  0
ARC
  5
6B6
330
1F
100
AcDbEntity
  8
0
  6
Continuous
 62
     7
370
    25
100
AcDbCircle
 10
732.6236628573
 20
-509.8416622771
 30
0.0
 40
3.100000000000033
100
AcDbArc
 50
45.0056978609
 51
224.9943021391
  0
ARC
  5
6B7
330
1F
100
AcDbEntity
  8
0
  6
Continuous
 62
     7
370
    25
100
AcDbCircle
 10
719.8186628573
 20
-522.6466622772
 30
0.0
 40
3.100000000000036
100
AcDbArc
 50
45.0056978614
 51
224.9943021386
  0
ARC
  5
6B8
330
1F
100
AcDbEntity
  8
0
  6
Continuous
 62
     7
370
    25
100
AcDbCircle
 10
691.0446008573
 20
-522.6462263195
 30
0.0
 40
3.100000000000113
100
AcDbArc
 50
314.9943021391
 51
135.0056978609
  0
ARC
  5
6B9
330
1F
100
AcDbEntity
  8
0
  6
Continuous
 62
     7
370
    25
100
AcDbCircle
 10
-1006.6563209916
 20
-546.8290385875
 30
0.0
 40
3.100000000000116
100
AcDbArc
 50
314.9943021386
 51
135.0056978614
  0
ARC
  5
6BA
330
1F
100
AcDbEntity
  8
0
  6
Continuous
 62
     7
370
    25
100
AcDbCircle
 10
-1006.6563210133
 20
-518.0554125669
 30
0.0
 40
3.100000000000196
100
AcDbArc
 50
224.9943021386
 51
45.0056978614
  0
ARC
  5
6BB
330
1F
100
AcDbEntity
  8
0
  6
Continuous
 62
     7
370
    25
100
AcDbCircle
 10
-993.8513210133
 20
-505.2504125669
 30
0.0
 40
3.100000000000036
100
AcDbArc
 50
224.9943021386
 51
45.0056978614
  0
ARC
  5
6BC
330
1F
100
AcDbEntity
  8
0
  6
Continuous
 62
     7
370
    25
100
AcDbCircle
 10
-965.0772590133
 20
-505.2499765658
 30
0.0
 40
3.100000000000076
100
AcDbArc
 50
135.0056978614
 51
314.9943021386
  0
ARC
  5
6BD
330
1F
100
AcDbEntity
  8
0
  6
Continuous
 62
     7
370
    25
100
AcDbCircle
 10
-952.2722590133
 20
-518.0549765658
 30
0.0
 40
3.100000000000036
100
AcDbArc
 50
135.0056978614
 51
314.9943021386
  0
ARC
  5
6BE
330
1F
100
AcDbEntity
  8
0
  6
Continuous
 62
     7
370
    25
100
AcDbCircle
 10
-952.2722589916
 20
-546.8294745452
 30
0.0
 40
3.100000000000194
100
AcDbArc
 50
45.0056978609
 51
224.9943021391
  0
ARC
  5
6BF
330
1F
100
AcDbEntity
  8
0
  6
Continuous
 62
     7
370
    25
100
AcDbCircle
 10
-965.0772589916
 20
-559.6344745452
 30
0.0
 40
3.100000000000036
100
AcDbArc
 50
45.0056978614
 51
224.9943021386
  0
ARC
  5
6C0
330
1F
100
AcDbEntity
  8
0
  6
Continuous
 62
     7
370
    25
100
AcDbCircle
 10
-993.8513209916
 20
-559.6340385875
 30
0.0
 40
3.100000000000194
100
AcDbArc
 50
314.9943021391
 51
135.0056978609
  0
ARC
  5
6C1
330
1F
100
AcDbEntity
  8
0
  6
Continuous
 62
     7
370
    25
100
AcDbCircle
 10
1096.7873536768
 20
352.5227550555
 30
0.0
 40
3.099999999999915
100
AcDbArc
 50
314.9943021386
 51
135.0056978614
  0
ARC
  5
6C2
330
1F
100
AcDbEntity
  8
0
  6
Continuous
 62
     7
370
    25
100
AcDbCircle
 10
1096.7873536551
 20
381.2963810761
 30
0.0
 40
3.100000000000196
100
AcDbArc
 50
224.9943021386
 51
45.0056978614
  0
ARC
  5
6C3
330
1F
100
AcDbEntity
  8
0
  6
Continuous
 62
     7
370
    25
100
AcDbCircle
 10
1109.5923536551
 20
394.1013810761
 30
0.0
 40
3.100000000000156
100
AcDbArc
 50
224.9943021386
 51
45.0056978614
  0
ARC
  5
6C4
330
1F
100
AcDbEntity
  8
0
  6
Continuous
 62
     7
370
    25
100
AcDbCircle
 10
1138.3664156551
 20
394.1018170772
 30
0.0
 40
3.099999999999955
100
AcDbArc
 50
135.0056978614
 51
314.9943021386
  0
ARC
  5
6C5
330
1F
100
AcDbEntity
  8
0
  6
Continuous
 62
     7
370
    25
100
AcDbCircle
 10
1151.1714156551
 20
381.2968170772
 30
0.0
 40
3.100000000000156
100
AcDbArc
 50
135.0056978614
 51
314.9943021386
  0
ARC
  5
6C6
330
1F
100
AcDbEntity
  8
0
  6
Continuous
 62
     7
370
    25
100
AcDbCircle
 10
1151.1714156768
 20
352.5223190978
 30
0.0
 40
3.100000000000315
100
AcDbArc
 50
45.0056978609
 51
224.9943021391
  0
ARC
  5
6C7
330
1F
100
AcDbEntity
  8
0
  6
Continuous
 62
     7
370
    25
100
AcDbCircle
 10
1138.3664156768
 20
339.7173190978
 30
0.0
 40
3.100000000000196
100
AcDbArc
 50
45.0056978614
 51
224.9943021386
  0
ARC
  5
6C8
330
1F
100
AcDbEntity
  8
0
  6
Continuous
 62
     7
370
    25
100
AcDbCircle
 10
1109.5923536768
 20
339.7177550555
 30
0.0
 40
3.100000000000234
100
AcDbArc
 50
314.9943021391
 51
135.0056978609
  0
ARC
  5
6C9
330
1F
100
AcDbEntity
  8
0
  6
Continuous
 62
     7
370
    25
100
AcDbCircle
 10
-754.6563209916
 20
-546.8290385875
 30
0.0
 40
3.100000000000196
100
AcDbArc
 50
314.9943021386
 51
135.0056978614
  0
ARC
  5
6CA
330
1F
100
AcDbEntity
  8
0
  6
Continuous
 62
     7
370
    25
100
AcDbCircle
 10
-754.6563210133
 20
-518.0554125669
 30
0.0
 40
3.099999999999955
100
AcDbArc
 50
224.9943021386
 51
45.0056978614
  0
ARC
  5
6CB
330
1F
100
AcDbEntity
  8
0
  6
Continuous
 62
     7
370
    25
100
AcDbCircle
 10
-737.4672590133
 20
-505.2499765658
 30
0.0
 40
3.100000000000076
100
AcDbArc
 50
135.0056978614
 51
314.9943021386
  0
ARC
  5
6CC
330
1F
100
AcDbEntity
  8
0
  6
Continuous
 62
     7
370
    25
100
AcDbCircle
 10
-717.4613210156
 20
-505.2504125537
 30
0.0
 40
3.099999977005634
100
AcDbArc
 50
224.9943023418
 51
45.0056976582
  0
ARC
  5
6CD
330
1F
100
AcDbEntity
  8
0
  6
Continuous
 62
     7
370
    25
100
AcDbCircle
 10
-700.2722590133
 20
-518.0549765658
 30
0.0
 40
3.100000000000196
100
AcDbArc
 50
135.0056978614
 51
314.9943021386
  0
ARC
  5
6CE
330
1F
100
AcDbEntity
  8
0
  6
Continuous
 62
     7
370
    25
100
AcDbCircle
 10
-700.2722589916
 20
-546.8294745452
 30
0.0
 40
3.100000000000274
100
AcDbArc
 50
45.0056978609
 51
224.9943021391
  0
ARC
  5
6CF
330
1F
100
AcDbEntity
  8
0
  6
Continuous
 62
     7
370
    25
100
AcDbCircle
 10
-717.4613209916
 20
-559.6340385875
 30
0.0
 40
3.100000000000194
100
AcDbArc
 50
314.9943021391
 51
135.0056978609
  0
ARC
  5
6D0
330
1F
100
AcDbEntity
  8
0
  6
Continuous
 62
     7
370
    25
100
AcDbCircle
 10
-737.4672589893
 20
-559.6344745584
 30
0.0
 40
3.099999977008022
100
AcDbArc
 50
45.0056980646
 51
224.9943019354
  0
ARC
  5
6D1
330
1F
100
AcDbEntity
  8
0
  6
Continuous
 62
     7
370
    25
100
AcDbCircle
 10
611.1753179949
 20
489.3148777828
 30
0.0
 40
3.100000000000076
100
AcDbArc
 50
314.9943021386
 51
135.0056978614
  0
ARC
  5
6D2
330
1F
100
AcDbEntity
  8
0
  6
Continuous
 62
     7
370
    25
100
AcDbCircle
 10
611.1753179732
 20
518.0885038034
 30
0.0
 40
3.100000000000196
100
AcDbArc
 50
224.9943021386
 51
45.0056978614
  0
ARC
  5
6D3
330
1F
100
AcDbEntity
  8
0
  6
Continuous
 62
     7
370
    25
100
AcDbCircle
 10
628.3643799732
 20
530.8939398045
 30
0.0
 40
3.100000000000277
100
AcDbArc
 50
135.0056978614
 51
314.9943021386
  0
ARC
  5
6D4
330
1F
100
AcDbEntity
  8
0
  6
Continuous
 62
     7
370
    25
100
AcDbCircle
 10
648.3703179709
 20
530.8935038166
 30
0.0
 40
3.099999977005674
100
AcDbArc
 50
224.9943023418
 51
45.0056976582
  0
ARC
  5
6D5
330
1F
100
AcDbEntity
  8
0
  6
Continuous
 62
     7
370
    25
100
AcDbCircle
 10
665.5593799732
 20
518.0889398045
 30
0.0
 40
3.100000000000116
100
AcDbArc
 50
135.0056978614
 51
314.9943021386
  0
ARC
  5
6D6
330
1F
100
AcDbEntity
  8
0
  6
Continuous
 62
     7
370
    25
100
AcDbCircle
 10
665.5593799949
 20
489.3144418251
 30
0.0
 40
3.100000000000194
100
AcDbArc
 50
45.0056978609
 51
224.9943021391
  0
ARC
  5
6D7
330
1F
100
AcDbEntity
  8
0
  6
Continuous
 62
     7
370
    25
100
AcDbCircle
 10
648.3703179949
 20
476.5098777828
 30
0.0
 40
3.100000000000194
100
AcDbArc
 50
314.9943021391
 51
135.0056978609
  0
ARC
  5
6D8
330
1F
100
AcDbEntity
  8
0
  6
Continuous
 62
     7
370
    25
100
AcDbCircle
 10
628.3643799972
 20
476.5094418119
 30
0.0
 40
3.099999977007941
100
AcDbArc
 50
45.0056980646
 51
224.9943019354
  0
ARC
  5
6D9
330
1F
100
AcDbEntity
  8
0
  6
Continuous
 62
     7
370
    25
100
AcDbCircle
 10
945.7317171922
 20
503.9151276165
 30
0.0
 40
3.100000000000156
100
AcDbArc
 50
314.9943021386
 51
135.0056978614
  0
ARC
  5
6DA
330
1F
100
AcDbEntity
  8
0
  6
Continuous
 62
     7
370
    25
100
AcDbCircle
 10
945.7317171705
 20
532.6887536372
 30
0.0
 40
3.099999999999955
100
AcDbArc
 50
224.9943021386
 51
45.0056978614
  0
ARC
  5
6DB
330
1F
100
AcDbEntity
  8
0
  6
Continuous
 62
     7
370
    25
100
AcDbCircle
 10
962.9207791705
 20
545.4941896382
 30
0.0
 40
3.100000000000116
100
AcDbArc
 50
135.0056978614
 51
314.9943021386
  0
ARC
  5
6DC
330
1F
100
AcDbEntity
  8
0
  6
Continuous
 62
     7
370
    25
100
AcDbCircle
 10
982.9267171682
 20
545.4937536504
 30
0.0
 40
3.099999977005754
100
AcDbArc
 50
224.9943023418
 51
45.0056976582
  0
ARC
  5
6DD
330
1F
100
AcDbEntity
  8
0
  6
Continuous
 62
     7
370
    25
100
AcDbCircle
 10
1000.1157791705
 20
532.6891896382
 30
0.0
 40
3.100000000000116
100
AcDbArc
 50
135.0056978614
 51
314.9943021386
  0
ARC
  5
6DE
330
1F
100
AcDbEntity
  8
0
  6
Continuous
 62
     7
370
    25
100
AcDbCircle
 10
1000.1157791922
 20
503.9146916589
 30
0.0
 40
3.099999999999993
100
AcDbArc
 50
45.0056978609
 51
224.9943021391
  0
ARC
  5
6DF
330
1F
100
AcDbEntity
  8
0
  6
Continuous
 62
     7
370
    25
100
AcDbCircle
 10
982.9267171922
 20
491.1101276165
 30
0.0
 40
3.100000000000153
100
AcDbArc
 50
314.9943021391
 51
135.0056978609
  0
ARC
  5
6E0
330
1F
100
AcDbEntity
  8
0
  6
Continuous
 62
     7
370
    25
100
AcDbCircle
 10
962.9207791946
 20
491.1096916456
 30
0.0
 40
3.09999997700782
100
AcDbArc
 50
45.0056980646
 51
224.9943019354
  0
ARC
  5
6E1
330
1F
100
AcDbEntity
  8
0
  6
Continuous
 62
     7
370
    25
100
AcDbCircle
 10
-922.6563210133
 20
-542.4454125669
 30
0.0
 40
3.100000000000196
100
AcDbArc
 50
224.9943021386
 51
45.0056978614
  0
ARC
  5
6E2
330
1F
100
AcDbEntity
  8
0
  6
Continuous
 62
     7
370
    25
100
AcDbCircle
 10
-922.6563210048
 20
-522.4390385899
 30
0.0
 40
3.099999977005754
100
AcDbArc
 50
314.9943023418
 51
135.0056976582
  0
ARC
  5
6E3
330
1F
100
AcDbEntity
  8
0
  6
Continuous
 62
     7
370
    25
100
AcDbCircle
 10
-905.4672590133
 20
-505.2499765658
 30
0.0
 40
3.100000000000036
100
AcDbArc
 50
135.0056978614
 51
314.9943021386
  0
ARC
  5
6E4
330
1F
100
AcDbEntity
  8
0
  6
Continuous
 62
     7
370
    25
100
AcDbCircle
 10
-885.4613210156
 20
-505.2504125537
 30
0.0
 40
3.099999977005634
100
AcDbArc
 50
224.9943023418
 51
45.0056976582
  0
ARC
  5
6E5
330
1F
100
AcDbEntity
  8
0
  6
Continuous
 62
     7
370
    25
100
AcDbCircle
 10
-868.2722589916
 20
-522.4394745452
 30
0.0
 40
3.100000000000113
100
AcDbArc
 50
45.0056978609
 51
224.9943021391
  0
ARC
  5
6E6
330
1F
100
AcDbEntity
  8
0
  6
Continuous
 62
     7
370
    25
100
AcDbCircle
 10
-868.2722590001
 20
-542.4449765635
 30
0.0
 40
3.099999977007861
100
AcDbArc
 50
135.0056980646
 51
314.9943019354
  0
ARC
  5
6E7
330
1F
100
AcDbEntity
  8
0
  6
Continuous
 62
     7
370
    25
100
AcDbCircle
 10
-885.4613209916
 20
-559.6340385875
 30
0.0
 40
3.100000000000194
100
AcDbArc
 50
314.9943021391
 51
135.0056978609
  0
ARC
  5
6E8
330
1F
100
AcDbEntity
  8
0
  6
Continuous
 62
     7
370
    25
100
AcDbCircle
 10
-905.4672589893
 20
-559.6344745584
 30
0.0
 40
3.099999977007941
100
AcDbArc
 50
45.0056980646
 51
224.9943019354
  0
ARC
  5
6E9
330
1F
100
AcDbEntity
  8
0
  6
Continuous
 62
     7
370
    25
100
AcDbCircle
 10
792.6021723121
 20
-499.6425542915
 30
0.0
 40
3.100000000000076
100
AcDbArc
 50
224.9943021386
 51
45.0056978614
  0
ARC
  5
6EA
330
1F
100
AcDbEntity
  8
0
  6
Continuous
 62
     7
370
    25
100
AcDbCircle
 10
792.6021723206
 20
-479.6361803145
 30
0.0
 40
3.099999977005715
100
AcDbArc
 50
314.9943023418
 51
135.0056976582
  0
ARC
  5
6EB
330
1F
100
AcDbEntity
  8
0
  6
Continuous
 62
     7
370
    25
100
AcDbCircle
 10
809.7912343121
 20
-462.4471182905
 30
0.0
 40
3.100000000000076
100
AcDbArc
 50
135.0056978614
 51
314.9943021386
  0
ARC
  5
6EC
330
1F
100
AcDbEntity
  8
0
  6
Continuous
 62
     7
370
    25
100
AcDbCircle
 10
829.7971723098
 20
-462.4475542784
 30
0.0
 40
3.099999977005634
100
AcDbArc
 50
224.9943023418
 51
45.0056976582
  0
ARC
  5
6ED
330
1F
100
AcDbEntity
  8
0
  6
Continuous
 62
     7
370
    25
100
AcDbCircle
 10
846.9862343338
 20
-479.6366162699
 30
0.0
 40
3.100000000000194
100
AcDbArc
 50
45.0056978609
 51
224.9943021391
  0
ARC
  5
6EE
330
1F
100
AcDbEntity
  8
0
  6
Continuous
 62
     7
370
    25
100
AcDbCircle
 10
846.9862343253
 20
-499.6421182881
 30
0.0
 40
3.099999977007861
100
AcDbArc
 50
135.0056980646
 51
314.9943019354
  0
ARC
  5
6EF
330
1F
100
AcDbEntity
  8
0
  6
Continuous
 62
     7
370
    25
100
AcDbCircle
 10
829.7971723338
 20
-516.8311803122
 30
0.0
 40
3.100000000000113
100
AcDbArc
 50
314.9943021391
 51
135.0056978609
  0
ARC
  5
6F0
330
1F
100
AcDbEntity
  8
0
  6
Continuous
 62
     7
370
    25
100
AcDbCircle
 10
809.7912343362
 20
-516.8316162831
 30
0.0
 40
3.099999977007781
100
AcDbArc
 50
45.0056980646
 51
224.9943019354
  0
ARC
  5
6F1
330
1F
100
AcDbEntity
  8
0
  6
Continuous
 62
     7
370
    25
100
AcDbCircle
 10
1123.8129911229
 20
531.9433914981
 30
0.0
 40
3.09999997700778
100
AcDbArc
 50
45.0056980646
 51
224.9943019354
  0
ARC
  5
6F2
330
1F
100
AcDbEntity
  8
0
  6
Continuous
 62
     7
370
    25
100
AcDbCircle
 10
1123.812555152
 20
511.9374535004
 30
0.0
 40
3.100000000000113
100
AcDbArc
 50
134.9943021391
 51
315.0056978609
  0
ARC
  5
6F3
330
1F
100
AcDbEntity
  8
0
  6
Continuous
 62
     7
370
    25
100
AcDbCircle
 10
1106.623493128
 20
494.7483915089
 30
0.0
 40
3.09999997700774
100
AcDbArc
 50
315.0056980646
 51
134.9943019354
  0
ARC
  5
6F4
330
1F
100
AcDbEntity
  8
0
  6
Continuous
 62
     7
370
    25
100
AcDbCircle
 10
1086.6179911097
 20
494.7483915004
 30
0.0
 40
3.100000000000354
100
AcDbArc
 50
45.0056978609
 51
224.9943021391
  0
ARC
  5
6F5
330
1F
100
AcDbEntity
  8
0
  6
Continuous
 62
     7
370
    25
100
AcDbCircle
 10
1069.4289291182
 20
511.9374535245
 30
0.0
 40
3.099999977005594
100
AcDbArc
 50
224.9943023418
 51
45.0056976582
  0
ARC
  5
6F6
330
1F
100
AcDbEntity
  8
0
  6
Continuous
 62
     7
370
    25
100
AcDbCircle
 10
1069.4284931303
 20
531.9433915221
 30
0.0
 40
3.100000000000196
100
AcDbArc
 50
315.0056978614
 51
134.9943021386
  0
ARC
  5
6F7
330
1F
100
AcDbEntity
  8
0
  6
Continuous
 62
     7
370
    25
100
AcDbCircle
 10
1086.6175551544
 20
549.1324535136
 30
0.0
 40
3.099999977005754
100
AcDbArc
 50
134.9943023418
 51
315.0056976582
  0
ARC
  5
6F8
330
1F
100
AcDbEntity
  8
0
  6
Continuous
 62
     7
370
    25
100
AcDbCircle
 10
1106.6239291314
 20
549.1324535221
 30
0.0
 40
3.100000000000036
100
AcDbArc
 50
224.9943021386
 51
45.0056978614
  0
ARC
  5
6F9
330
1F
100
AcDbEntity
  8
0
  6
Continuous
 62
     7
370
    25
100
AcDbCircle
 10
-1120.2722590001
 20
-522.4394745692
 30
0.0
 40
3.099999977007861
100
AcDbArc
 50
45.0056980646
 51
224.9943019354
  0
ARC
  5
6FA
330
1F
100
AcDbEntity
  8
0
  6
Continuous
 62
     7
370
    25
100
AcDbCircle
 10
-1120.272694971
 20
-542.4454125669
 30
0.0
 40
3.100000000000194
100
AcDbArc
 50
134.9943021391
 51
315.0056978609
  0
ARC
  5
6FB
330
1F
100
AcDbEntity
  8
0
  6
Continuous
 62
     7
370
    25
100
AcDbCircle
 10
-1137.461756995
 20
-559.6344745584
 30
0.0
 40
3.099999977007861
100
AcDbArc
 50
315.0056980646
 51
134.9943019354
  0
ARC
  5
6FC
330
1F
100
AcDbEntity
  8
0
  6
Continuous
 62
     7
370
    25
100
AcDbCircle
 10
-1157.4672590133
 20
-559.6344745669
 30
0.0
 40
3.100000000000354
100
AcDbArc
 50
45.0056978609
 51
224.9943021391
  0
ARC
  5
6FD
330
1F
100
AcDbEntity
  8
0
  6
Continuous
 62
     7
370
    25
100
AcDbCircle
 10
-1174.6563210048
 20
-542.4454125429
 30
0.0
 40
3.099999977005754
100
AcDbArc
 50
224.9943023418
 51
45.0056976582
  0
ARC
  5
6FE
330
1F
100
AcDbEntity
  8
0
  6
Continuous
 62
     7
370
    25
100
AcDbCircle
 10
-1174.6567569927
 20
-522.4394745452
 30
0.0
 40
3.100000000000437
100
AcDbArc
 50
315.0056978614
 51
134.9943021386
  0
ARC
  5
6FF
330
1F
100
AcDbEntity
  8
0
  6
Continuous
 62
     7
370
    25
100
AcDbCircle
 10
-1157.4676949686
 20
-505.2504125537
 30
0.0
 40
3.099999977005715
100
AcDbArc
 50
134.9943023418
 51
315.0056976582
  0
ARC
  5
700
330
1F
100
AcDbEntity
  8
0
  6
Continuous
 62
     7
370
    25
100
AcDbCircle
 10
-1137.4613209916
 20
-505.2504125452
 30
0.0
 40
3.100000000000076
100
AcDbArc
 50
224.9943021386
 51
45.0056978614
  0
ARC
  5
701
330
1F
100
AcDbEntity
  8
0
  6
Continuous
 62
     7
370
    25
100
AcDbCircle
 10
-187.9019602649
 20
223.9266480367
 30
0.0
 40
3.099999977007821
100
AcDbArc
 50
45.0056980646
 51
224.9943019354
  0
ARC
  5
702
330
1F
100
AcDbEntity
  8
0
  6
Continuous
 62
     7
370
    25
100
AcDbCircle
 10
-187.9023962357
 20
203.9207100391
 30
0.0
 40
3.100000000000053
100
AcDbArc
 50
134.9943021391
 51
315.0056978609
  0
ARC
  5
703
330
1F
100
AcDbEntity
  8
0
  6
Continuous
 62
     7
370
    25
100
AcDbCircle
 10
-205.0914582598
 20
186.7316480475
 30
0.0
 40
3.099999977007801
100
AcDbArc
 50
315.0056980646
 51
134.9943019354
  0
ARC
  5
704
330
1F
100
AcDbEntity
  8
0
  6
Continuous
 62
     7
370
    25
100
AcDbCircle
 10
-225.0969602781
 20
186.7316480391
 30
0.0
 40
3.100000000000093
100
AcDbArc
 50
45.0056978609
 51
224.9943021391
  0
ARC
  5
705
330
1F
100
AcDbEntity
  8
0
  6
Continuous
 62
     7
370
    25
100
AcDbCircle
 10
-242.2860222696
 20
203.9207100631
 30
0.0
 40
3.099999977005634
100
AcDbArc
 50
224.9943023418
 51
45.0056976582
  0
ARC
  5
706
330
1F
100
AcDbEntity
  8
0
  6
Continuous
 62
     7
370
    25
100
AcDbCircle
 10
-242.2864582574
 20
223.9266480607
 30
0.0
 40
3.100000000000056
100
AcDbArc
 50
315.0056978614
 51
134.9943021386
  0
ARC
  5
707
330
1F
100
AcDbEntity
  8
0
  6
Continuous
 62
     7
370
    25
100
AcDbCircle
 10
-225.0973962334
 20
241.1157100522
 30
0.0
 40
3.099999977005634
100
AcDbArc
 50
134.9943023418
 51
315.0056976582
  0
ARC
  5
708
330
1F
100
AcDbEntity
  8
0
  6
Continuous
 62
     7
370
    25
100
AcDbCircle
 10
-205.0910222564
 20
241.1157100607
 30
0.0
 40
3.100000000000076
100
AcDbArc
 50
224.9943021386
 51
45.0056978614
  0
ARC
  5
709
330
1F
100
AcDbEntity
  8
0
  6
Continuous
 62
     7
370
    25
100
AcDbCircle
 10
991.9133929192
 20
400.3999980101
 30
0.0
 40
3.099999999999995
100
AcDbArc
 50
314.9943021386
 51
135.0056978614
  0
ARC
  5
70A
330
1F
100
AcDbEntity
  8
0
  6
Continuous
 62
     7
370
    25
100
AcDbCircle
 10
991.9133928975
 20
429.1736240307
 30
0.0
 40
3.100000000000116
100
AcDbArc
 50
224.9943021386
 51
45.0056978614
  0
ARC
  5
70B
330
1F
100
AcDbEntity
  8
0
  6
Continuous
 62
     7
370
    25
100
AcDbCircle
 10
1004.7183928975
 20
441.9786240307
 30
0.0
 40
3.099999999999915
100
AcDbArc
 50
224.9943021386
 51
45.0056978614
  0
ARC
  5
70C
330
1F
100
AcDbEntity
  8
0
  6
Continuous
 62
     7
370
    25
100
AcDbCircle
 10
1033.4924548975
 20
441.9790600317
 30
0.0
 40
3.100000000000036
100
AcDbArc
 50
135.0056978614
 51
314.9943021386
  0
ARC
  5
70D
330
1F
100
AcDbEntity
  8
0
  6
Continuous
 62
     7
370
    25
100
AcDbCircle
 10
1046.2974548975
 20
429.1740600317
 30
0.0
 40
3.100000000000156
100
AcDbArc
 50
135.0056978614
 51
314.9943021386
  0
ARC
  5
70E
330
1F
100
AcDbEntity
  8
0
  6
Continuous
 62
     7
370
    25
100
AcDbCircle
 10
1046.2974549192
 20
400.3995620524
 30
0.0
 40
3.100000000000274
100
AcDbArc
 50
45.0056978609
 51
224.9943021391
  0
ARC
  5
70F
330
1F
100
AcDbEntity
  8
0
  6
Continuous
 62
     7
370
    25
100
AcDbCircle
 10
1033.4924549192
 20
387.5945620524
 30
0.0
 40
3.100000000000036
100
AcDbArc
 50
45.0056978614
 51
224.9943021386
  0
ARC
  5
710
330
1F
100
AcDbEntity
  8
0
  6
Continuous
 62
     7
370
    25
100
AcDbCircle
 10
1004.7183929192
 20
387.59499801
 30
0.0
 40
3.100000000000194
100
AcDbArc
 50
314.9943021391
 51
135.0056978609
  0
ARC
  5
711
330
1F
100
AcDbEntity
  8
0
  6
Continuous
 62
     7
370
    25
100
AcDbCircle
 10
-1090.6563209916
 20
-546.8290385875
 30
0.0
 40
3.100000000000357
100
AcDbArc
 50
314.9943021386
 51
135.0056978614
  0
ARC
  5
712
330
1F
100
AcDbEntity
  8
0
  6
Continuous
 62
     7
370
    25
100
AcDbCircle
 10
-1090.6563210133
 20
-518.0554125669
 30
0.0
 40
3.100000000000036
100
AcDbArc
 50
224.9943021386
 51
45.0056978614
  0
ARC
  5
713
330
1F
100
AcDbEntity
  8
0
  6
Continuous
 62
     7
370
    25
100
AcDbCircle
 10
-1077.8513210133
 20
-505.2504125669
 30
0.0
 40
3.100000000000196
100
AcDbArc
 50
224.9943021386
 51
45.0056978614
  0
ARC
  5
714
330
1F
100
AcDbEntity
  8
0
  6
Continuous
 62
     7
370
    25
100
AcDbCircle
 10
-1049.0772590133
 20
-505.2499765658
 30
0.0
 40
3.100000000000236
100
AcDbArc
 50
135.0056978614
 51
314.9943021386
  0
ARC
  5
715
330
1F
100
AcDbEntity
  8
0
  6
Continuous
 62
     7
370
    25
100
AcDbCircle
 10
-1036.2722590133
 20
-518.0549765658
 30
0.0
 40
3.100000000000116
100
AcDbArc
 50
135.0056978614
 51
314.9943021386
  0
ARC
  5
716
330
1F
100
AcDbEntity
  8
0
  6
Continuous
 62
     7
370
    25
100
AcDbCircle
 10
-1036.2722589916
 20
-546.8294745452
 30
0.0
 40
3.100000000000194
100
AcDbArc
 50
45.0056978609
 51
224.9943021391
  0
ARC
  5
717
330
1F
100
AcDbEntity
  8
0
  6
Continuous
 62
     7
370
    25
100
AcDbCircle
 10
-1049.0772589916
 20
-559.6344745452
 30
0.0
 40
3.099999999999955
100
AcDbArc
 50
45.0056978614
 51
224.9943021386
  0
ARC
  5
718
330
1F
100
AcDbEntity
  8
0
  6
Continuous
 62
     7
370
    25
100
AcDbCircle
 10
-1077.8513209916
 20
-559.6340385875
 30
0.0
 40
3.100000000000275
100
AcDbArc
 50
314.9943021391
 51
135.0056978609
  0
ARC
  5
719
330
1F
100
AcDbEntity
  8
0
  6
Continuous
 62
     7
370
    25
100
AcDbCircle
 10
-356.2663804668
 20
435.6392545971
 30
0.0
 40
3.099999999999955
100
AcDbArc
 50
314.9943021386
 51
135.0056978614
  0
ARC
  5
71A
330
1F
100
AcDbEntity
  8
0
  6
Continuous
 62
     7
370
    25
100
AcDbCircle
 10
-356.2663804885
 20
464.4128806178
 30
0.0
 40
3.100000000000116
100
AcDbArc
 50
224.9943021386
 51
45.0056978614
  0
ARC
  5
71B
330
1F
100
AcDbEntity
  8
0
  6
Continuous
 62
     7
370
    25
100
AcDbCircle
 10
-343.4613804885
 20
477.2178806178
 30
0.0
 40
3.099999999999995
100
AcDbArc
 50
224.9943021386
 51
45.0056978614
  0
ARC
  5
71C
330
1F
100
AcDbEntity
  8
0
  6
Continuous
 62
     7
370
    25
100
AcDbCircle
 10
-314.6873184885
 20
477.2183166188
 30
0.0
 40
3.100000000000076
100
AcDbArc
 50
135.0056978614
 51
314.9943021386
  0
ARC
  5
71D
330
1F
100
AcDbEntity
  8
0
  6
Continuous
 62
     7
370
    25
100
AcDbCircle
 10
-301.8823184885
 20
464.4133166188
 30
0.0
 40
3.100000000000036
100
AcDbArc
 50
135.0056978614
 51
314.9943021386
  0
ARC
  5
71E
330
1F
100
AcDbEntity
  8
0
  6
Continuous
 62
     7
370
    25
100
AcDbCircle
 10
-301.8823184668
 20
435.6388186395
 30
0.0
 40
3.099999999999993
100
AcDbArc
 50
45.0056978609
 51
224.9943021391
  0
ARC
  5
71F
330
1F
100
AcDbEntity
  8
0
  6
Continuous
 62
     7
370
    25
100
AcDbCircle
 10
-314.6873184668
 20
422.8338186394
 30
0.0
 40
3.099999999999995
100
AcDbArc
 50
45.0056978614
 51
224.9943021386
  0
ARC
  5
720
330
1F
100
AcDbEntity
  8
0
  6
Continuous
 62
     7
370
    25
100
AcDbCircle
 10
-343.4613804668
 20
422.8342545971
 30
0.0
 40
3.100000000000113
100
AcDbArc
 50
314.9943021391
 51
135.0056978609
  0
MTEXT
  5
722
330
1F
100
AcDbEntity
  8
0
  6
Continuous
 62
     7
100
AcDbMText
 10
-1184.4645079921
 20
-576.6917260717
 30
0.0
 40
4.83362
 41
0.0
 71
     1
 72
     1
  1
SOLIDWORKS Educational Product.
  7
SLDTEXTSTYLE0
 73
     1
 44
1.0
  0
MTEXT
  5
723
330
1F
100
AcDbEntity
  8
0
  6
Continuous
 62
     7
100
AcDbMText
 10
-1184.4645079921
 20
-583.9421560717
 30
0.0
 40
4.83362
 41
0.0
 71
     1
 72
     1
  1
For Instructional Use Only.
  7
SLDTEXTSTYLE0
 73
     1
 44
1.0
  0
ENDSEC
  0
SECTION
  2
OBJECTS
  0
DICTIONARY
  5
C
330
0
100
AcDbDictionary
281
     1
  3
ACAD_GROUP
350
D
  3
ACAD_LAYOUT
350
1A
  3
ACAD_MLINESTYLE
350
17
  3
ACAD_PLOTSETTINGS
350
19
  3
ACAD_PLOTSTYLENAME
350
E
  3
ACAD_SCALELIST
350
47
  3
DWGPROPS
350
724
  0
DICTIONARY
  5
D
102
{ACAD_REACTORS
330
C
102
}
330
C
100
AcDbDictionary
281
     1
  0
DICTIONARY
  5
1A
102
{ACAD_REACTORS
330
C
102
}
330
C
100
AcDbDictionary
281
     1
  3
Layout1
350
1E
  3
Layout2
350
26
  3
Model
350
22
  0
DICTIONARY
  5
17
102
{ACAD_REACTORS
330
C
102
}
330
C
100
AcDbDictionary
281
     1
  3
Standard
350
18
  0
DICTIONARY
  5
19
102
{ACAD_REACTORS
330
C
102
}
330
C
100
AcDbDictionary
281
     1
  0
ACDBDICTIONARYWDFLT
  5
E
102
{ACAD_REACTORS
330
C
102
}
330
C
100
AcDbDictionary
281
     1
  3
Normal
350
F
100
AcDbDictionaryWithDefault
340
F
  0
DICTIONARY
  5
47
102
{ACAD_REACTORS
330
C
102
}
330
C
100
AcDbDictionary
281
     1
  3
A0
350
48
  3
A1
350
49
  3
A2
350
4A
  3
A3
350
4B
  3
A4
350
4C
  3
A5
350
4D
  3
A6
350
4E
  3
A7
350
4F
  3
A8
350
50
  3
A9
350
51
  3
B0
350
52
  3
B1
350
53
  3
B2
350
54
  3
B3
350
55
  3
B4
350
56
  3
B5
350
57
  3
B6
350
58
  0
XRECORD
  5
724
102
{ACAD_REACTORS
330
C
102
}
330
C
100
AcDbXrecord
280
     1
  1
DWGPROPS COOKIE
  2

  3

  4

  6

  7

  8
ali-a
  9

300
=
301
=
302
=
303
=
304
=
305
=
306
=
307
=
308
=
309
=
 40
0.0
 41
2460542.568661424
 42
2460542.568692662
  1

 90
        0
  0
LAYOUT
  5
1E
102
{ACAD_REACTORS
330
1A
102
}
330
1A
100
AcDbPlotSettings
  1

  2
none_device
  4

  6

 40
0.0
 41
0.0
 42
0.0
 43
0.0
 44
0.0
 45
0.0
 46
0.0
 47
0.0
 48
0.0
 49
0.0
140
0.0
141
0.0
142
1.0
143
1.0
 70
   688
 72
     1
 73
     0
 74
     5
  7

 75
    16
147
1.0
148
0.0
149
0.0
100
AcDbLayout
  1
Layout1
 70
     1
 71
     1
 10
0.0
 20
0.0
 11
420.0
 21
297.0
 12
0.0
 22
0.0
 32
0.0
 14
1.0000000000E+20
 24
1.0000000000E+20
 34
1.0000000000E+20
 15
-1.0000000000E+20
 25
-1.0000000000E+20
 35
-1.0000000000E+20
146
0.0
 13
0.0
 23
0.0
 33
0.0
 16
1.0
 26
0.0
 36
0.0
 17
0.0
 27
1.0
 37
0.0
 76
     0
330
1B
  0
LAYOUT
  5
26
102
{ACAD_REACTORS
330
1A
102
}
330
1A
100
AcDbPlotSettings
  1

  2
none_device
  4

  6

 40
0.0
 41
0.0
 42
0.0
 43
0.0
 44
0.0
 45
0.0
 46
0.0
 47
0.0
 48
0.0
 49
0.0
140
0.0
141
0.0
142
1.0
143
1.0
 70
   688
 72
     1
 73
     0
 74
     5
  7

 75
    16
147
1.0
148
0.0
149
0.0
100
AcDbLayout
  1
Layout2
 70
     1
 71
     2
 10
0.0
 20
0.0
 11
0.0
 21
0.0
 12
0.0
 22
0.0
 32
0.0
 14
0.0
 24
0.0
 34
0.0
 15
0.0
 25
0.0
 35
0.0
146
0.0
 13
0.0
 23
0.0
 33
0.0
 16
1.0
 26
0.0
 36
0.0
 17
0.0
 27
1.0
 37
0.0
 76
     0
330
23
  0
LAYOUT
  5
22
102
{ACAD_REACTORS
330
1A
102
}
330
1A
100
AcDbPlotSettings
  1

  2
none_device
  4
ANSI_A_(11.00_x_8.50_Inches)
  6

 40
6.35
 41
19.05
 42
6.35000508
 43
19.05000254
 44
279.4
 45
215.9
 46
133.6837552131
 47
88.9393355097
 48
0.0
 49
0.0
140
0.0
141
0.0
142
0.0046081077
143
1.0
 70
  1696
 72
     0
 73
     0
 74
     0
  7

 75
     0
147
0.0179189148
148
-1300.4909072572
149
0.0
100
AcDbLayout
  1
Model
 70
     1
 71
     0
 10
0.0
 20
0.0
 11
420.0
 21
297.0
 12
0.0
 22
0.0
 32
0.0
 14
-1184.4645079921
 24
-575.67215968
 34
0.0
 15
1178.7614863814
 25
575.0
 35
0.0
146
0.0
 13
0.0
 23
0.0
 33
0.0
 16
1.0
 26
0.0
 36
0.0
 17
0.0
 27
1.0
 37
0.0
 76
     0
330
1F
331
29
  0
MLINESTYLE
  5
18
102
{ACAD_REACTORS
330
17
102
}
330
17
100
AcDbMlineStyle
  2
Standard
 70
     0
  3

 62
   256
 51
90.0
 52
90.0
 71
     2
 49
0.5
 62
   256
  6
BYLAYER
 49
-0.5
 62
   256
  6
BYLAYER
  0
ACDBPLACEHOLDER
  5
F
102
{ACAD_REACTORS
330
E
102
}
330
E
  0
SCALE
  5
48
102
{ACAD_REACTORS
330
47
102
}
330
47
100
AcDbScale
 70
     0
300
1:1
140
1.0
141
1.0
290
     1
  0
SCALE
  5
49
102
{ACAD_REACTORS
330
47
102
}
330
47
100
AcDbScale
 70
     0
300
1:2
140
1.0
141
2.0
290
     0
  0
SCALE
  5
4A
102
{ACAD_REACTORS
330
47
102
}
330
47
100
AcDbScale
 70
     0
300
1:4
140
1.0
141
4.0
290
     0
  0
SCALE
  5
4B
102
{ACAD_REACTORS
330
47
102
}
330
47
100
AcDbScale
 70
     0
300
1:5
140
1.0
141
5.0
290
     0
  0
SCALE
  5
4C
102
{ACAD_REACTORS
330
47
102
}
330
47
100
AcDbScale
 70
     0
300
1:8
140
1.0
141
8.0
290
     0
  0
SCALE
  5
4D
102
{ACAD_REACTORS
330
47
102
}
330
47
100
AcDbScale
 70
     0
300
1:10
140
1.0
141
10.0
290
     0
  0
SCALE
  5
4E
102
{ACAD_REACTORS
330
47
102
}
330
47
100
AcDbScale
 70
     0
300
1:16
140
1.0
141
16.0
290
     0
  0
SCALE
  5
4F
102
{ACAD_REACTORS
330
47
102
}
330
47
100
AcDbScale
 70
     0
300
1:20
140
1.0
141
20.0
290
     0
  0
SCALE
  5
50
102
{ACAD_REACTORS
330
47
102
}
330
47
100
AcDbScale
 70
     0
300
1:30
140
1.0
141
30.0
290
     0
  0
SCALE
  5
51
102
{ACAD_REACTORS
330
47
102
}
330
47
100
AcDbScale
 70
     0
300
1:40
140
1.0
141
40.0
290
     0
  0
SCALE
  5
52
102
{ACAD_REACTORS
330
47
102
}
330
47
100
AcDbScale
 70
     0
300
1:50
140
1.0
141
50.0
290
     0
  0
SCALE
  5
53
102
{ACAD_REACTORS
330
47
102
}
330
47
100
AcDbScale
 70
     0
300
1:100
140
1.0
141
100.0
290
     0
  0
SCALE
  5
54
102
{ACAD_REACTORS
330
47
102
}
330
47
100
AcDbScale
 70
     0
300
2:1
140
2.0
141
1.0
290
     0
  0
SCALE
  5
55
102
{ACAD_REACTORS
330
47
102
}
330
47
100
AcDbScale
 70
     0
300
4:1
140
4.0
141
1.0
290
     0
  0
SCALE
  5
56
102
{ACAD_REACTORS
330
47
102
}
330
47
100
AcDbScale
 70
     0
300
8:1
140
8.0
141
1.0
290
     0
  0
SCALE
  5
57
102
{ACAD_REACTORS
330
47
102
}
330
47
100
AcDbScale
 70
     0
300
10:1
140
10.0
141
1.0
290
     0
  0
SCALE
  5
58
102
{ACAD_REACTORS
330
47
102
}
330
47
100
AcDbScale
 70
     0
300
100:1
140
100.0
141
1.0
290
     0
  0
ENDSEC
  0
EOF
