0
SECTION
2
HEADER
9
$INSUNITS
70
4
0
ENDSEC
0
SECTION
2
TABLES
0
TABLE
2
LTYPE
0
LTYPE
72
65
70
64
2
CONTINUOUS
3
______
73
0
40
0
0
ENDTAB
0
TABLE
2
LAYER
0
ENDTAB
0
ENDSEC
0
SECTION
2
ENTITIES
0
LINE
8
front_outsideCutPath
10
0
20
77
11
0
21
52
0
LINE
8
front_outsideCutPath
10
0
20
52
11
7.615938
21
52
0
LINE
8
front_outsideCutPath
10
12
20
47.615938
11
12
21
32.384062
0
LINE
8
front_outsideCutPath
10
7.615938
20
28
11
0
21
28
0
LINE
8
front_outsideCutPath
10
0
20
28
11
0
21
3
0
LINE
8
front_outsideCutPath
10
0
20
3
11
25
21
3
0
LINE
8
front_outsideCutPath
10
25
20
3
11
25
21
10.615938
0
LINE
8
front_outsideCutPath
10
29.384062
20
15
11
44.615938
21
15
0
LINE
8
front_outsideCutPath
10
49
20
10.615938
11
49
21
3
0
LINE
8
front_outsideCutPath
10
49
20
3
11
74
21
3
0
LINE
8
front_outsideCutPath
10
74
20
3
11
74
21
28
0
LINE
8
front_outsideCutPath
10
74
20
28
11
66.384062
21
28
0
LINE
8
front_outsideCutPath
10
62
20
32.384062
11
62
21
47.615938
0
LINE
8
front_outsideCutPath
10
66.384062
20
52
11
74
21
52
0
LINE
8
front_outsideCutPath
10
74
20
52
11
74
21
77
0
LINE
8
front_outsideCutPath
10
74
20
77
11
49
21
77
0
LINE
8
front_outsideCutPath
10
49
20
77
11
49
21
69.384062
0
LINE
8
front_outsideCutPath
10
44.615938
20
65
11
29.384062
21
65
0
LINE
8
front_outsideCutPath
10
25
20
69.384062
11
25
21
77
0
LINE
8
front_outsideCutPath
10
25
20
77
11
0
21
77
0
ARC
8
front_outsideCutPath
10
27.192031
20
67.192031
40
3.1
50
135
51
315
0
ARC
8
front_outsideCutPath
10
46.807969
20
67.192031
40
3.1
50
225
51
45
0
ARC
8
front_outsideCutPath
10
64.192031
20
49.807969
40
3.1
50
45
51
225
0
ARC
8
front_outsideCutPath
10
64.192031
20
30.192031
40
3.1
50
135
51
315
0
ARC
8
front_outsideCutPath
10
46.807969
20
12.807969
40
3.1
50
315
51
135
0
ARC
8
front_outsideCutPath
10
27.192031
20
12.807969
40
3.1
50
45
51
225
0
ARC
8
front_outsideCutPath
10
9.807969
20
30.192031
40
3.1
50
225
51
45
0
ARC
8
front_outsideCutPath
10
9.807969
20
49.807969
40
3.1
50
315
51
135
0
LINE
8
left_outsideCutPath
10
89
20
77
11
89
21
56.384062
0
LINE
8
left_outsideCutPath
10
84.615938
20
52
11
77
21
52
0
LINE
8
left_outsideCutPath
10
77
20
52
11
77
21
28
0
LINE
8
left_outsideCutPath
10
77
20
28
11
84.615938
21
28
0
LINE
8
left_outsideCutPath
10
89
20
23.615938
11
89
21
3
0
LINE
8
left_outsideCutPath
10
89
20
3
11
102
21
3
0
LINE
8
left_outsideCutPath
10
102
20
3
11
102
21
10.615938
0
LINE
8
left_outsideCutPath
10
106.384062
20
15
11
121.615938
21
15
0
LINE
8
left_outsideCutPath
10
126
20
10.615938
11
126
21
3
0
LINE
8
left_outsideCutPath
10
126
20
3
11
139
21
3
0
LINE
8
left_outsideCutPath
10
139
20
3
11
139
21
23.615938
0
LINE
8
left_outsideCutPath
10
143.384062
20
28
11
151
21
28
0
LINE
8
left_outsideCutPath
10
151
20
28
11
151
21
52
0
LINE
8
left_outsideCutPath
10
151
20
52
11
143.384062
21
52
0
LINE
8
left_outsideCutPath
10
139
20
56.384062
11
139
21
77
0
LINE
8
left_outsideCutPath
10
139
20
77
11
126
21
77
0
LINE
8
left_outsideCutPath
10
126
20
77
11
126
21
69.384062
0
LINE
8
left_outsideCutPath
10
121.615938
20
65
11
106.384062
21
65
0
LINE
8
left_outsideCutPath
10
102
20
69.384062
11
102
21
77
0
LINE
8
left_outsideCutPath
10
102
20
77
11
89
21
77
0
ARC
8
left_outsideCutPath
10
104.192031
20
67.192031
40
3.1
50
135
51
315
0
ARC
8
left_outsideCutPath
10
123.807969
20
67.192031
40
3.1
50
225
51
45
0
ARC
8
left_outsideCutPath
10
141.192031
20
54.192031
40
3.1
50
135
51
315
0
ARC
8
left_outsideCutPath
10
141.192031
20
25.807969
40
3.1
50
45
51
225
0
ARC
8
left_outsideCutPath
10
123.807969
20
12.807969
40
3.1
50
315
51
135
0
ARC
8
left_outsideCutPath
10
104.192031
20
12.807969
40
3.1
50
45
51
225
0
ARC
8
left_outsideCutPath
10
86.807969
20
25.807969
40
3.1
50
315
51
135
0
ARC
8
left_outsideCutPath
10
86.807969
20
54.192031
40
3.1
50
225
51
45
0
LINE
8
top_outsideCutPath
10
166
20
65
11
166
21
56.384062
0
LINE
8
top_outsideCutPath
10
161.615938
20
52
11
154
21
52
0
LINE
8
top_outsideCutPath
10
154
20
52
11
154
21
28
0
LINE
8
top_outsideCutPath
10
154
20
28
11
161.615938
21
28
0
LINE
8
top_outsideCutPath
10
166
20
23.615938
11
166
21
15
0
LINE
8
top_outsideCutPath
10
166
20
15
11
174.615938
21
15
0
LINE
8
top_outsideCutPath
10
179
20
10.615938
11
179
21
3
0
LINE
8
top_outsideCutPath
10
179
20
3
11
203
21
3
0
LINE
8
top_outsideCutPath
10
203
20
3
11
203
21
10.615938
0
LINE
8
top_outsideCutPath
10
207.384062
20
15
11
216
21
15
0
LINE
8
top_outsideCutPath
10
216
20
15
11
216
21
23.615938
0
LINE
8
top_outsideCutPath
10
220.384062
20
28
11
228
21
28
0
LINE
8
top_outsideCutPath
10
228
20
28
11
228
21
52
0
LINE
8
top_outsideCutPath
10
228
20
52
11
220.384062
21
52
0
LINE
8
top_outsideCutPath
10
216
20
56.384062
11
216
21
65
0
LINE
8
top_outsideCutPath
10
216
20
65
11
207.384062
21
65
0
LINE
8
top_outsideCutPath
10
203
20
69.384062
11
203
21
77
0
LINE
8
top_outsideCutPath
10
203
20
77
11
179
21
77
0
LINE
8
top_outsideCutPath
10
179
20
77
11
179
21
69.384062
0
LINE
8
top_outsideCutPath
10
174.615938
20
65
11
166
21
65
0
ARC
8
top_outsideCutPath
10
176.807969
20
67.192031
40
3.1
50
225
51
45
0
ARC
8
top_outsideCutPath
10
205.192031
20
67.192031
40
3.1
50
135
51
315
0
ARC
8
top_outsideCutPath
10
218.192031
20
54.192031
40
3.1
50
135
51
315
0
ARC
8
top_outsideCutPath
10
218.192031
20
25.807969
40
3.1
50
45
51
225
0
ARC
8
top_outsideCutPath
10
205.192031
20
12.807969
40
3.1
50
45
51
225
0
ARC
8
top_outsideCutPath
10
176.807969
20
12.807969
40
3.1
50
315
51
135
0
ARC
8
top_outsideCutPath
10
163.807969
20
25.807969
40
3.1
50
315
51
135
0
ARC
8
top_outsideCutPath
10
163.807969
20
54.192031
40
3.1
50
225
51
45
0
LINE
8
back_outsideCutPath
10
0
20
154
11
0
21
129
0
LINE
8
back_outsideCutPath
10
0
20
129
11
7.615938
21
129
0
LINE
8
back_outsideCutPath
10
12
20
124.615938
11
12
21
109.384062
0
LINE
8
back_outsideCutPath
10
7.615938
20
105
11
0
21
105
0
LINE
8
back_outsideCutPath
10
0
20
105
11
0
21
80
0
LINE
8
back_outsideCutPath
10
0
20
80
11
25
21
80
0
LINE
8
back_outsideCutPath
10
25
20
80
11
25
21
87.615938
0
LINE
8
back_outsideCutPath
10
29.384062
20
92
11
44.615938
21
92
0
LINE
8
back_outsideCutPath
10
49
20
87.615938
11
49
21
80
0
LINE
8
back_outsideCutPath
10
49
20
80
11
74
21
80
0
LINE
8
back_outsideCutPath
10
74
20
80
11
74
21
105
0
LINE
8
back_outsideCutPath
10
74
20
105
11
66.384062
21
105
0
LINE
8
back_outsideCutPath
10
62
20
109.384062
11
62
21
124.615938
0
LINE
8
back_outsideCutPath
10
66.384062
20
129
11
74
21
129
0
LINE
8
back_outsideCutPath
10
74
20
129
11
74
21
154
0
LINE
8
back_outsideCutPath
10
74
20
154
11
49
21
154
0
LINE
8
back_outsideCutPath
10
49
20
154
11
49
21
146.384062
0
LINE
8
back_outsideCutPath
10
44.615938
20
142
11
29.384062
21
142
0
LINE
8
back_outsideCutPath
10
25
20
146.384062
11
25
21
154
0
LINE
8
back_outsideCutPath
10
25
20
154
11
0
21
154
0
ARC
8
back_outsideCutPath
10
27.192031
20
144.192031
40
3.1
50
135
51
315
0
ARC
8
back_outsideCutPath
10
46.807969
20
144.192031
40
3.1
50
225
51
45
0
ARC
8
back_outsideCutPath
10
64.192031
20
126.807969
40
3.1
50
45
51
225
0
ARC
8
back_outsideCutPath
10
64.192031
20
107.192031
40
3.1
50
135
51
315
0
ARC
8
back_outsideCutPath
10
46.807969
20
89.807969
40
3.1
50
315
51
135
0
ARC
8
back_outsideCutPath
10
27.192031
20
89.807969
40
3.1
50
45
51
225
0
ARC
8
back_outsideCutPath
10
9.807969
20
107.192031
40
3.1
50
225
51
45
0
ARC
8
back_outsideCutPath
10
9.807969
20
126.807969
40
3.1
50
315
51
135
0
LINE
8
right_outsideCutPath
10
89
20
154
11
89
21
133.384062
0
LINE
8
right_outsideCutPath
10
84.615938
20
129
11
77
21
129
0
LINE
8
right_outsideCutPath
10
77
20
129
11
77
21
105
0
LINE
8
right_outsideCutPath
10
77
20
105
11
84.615938
21
105
0
LINE
8
right_outsideCutPath
10
89
20
100.615938
11
89
21
80
0
LINE
8
right_outsideCutPath
10
89
20
80
11
102
21
80
0
LINE
8
right_outsideCutPath
10
102
20
80
11
102
21
87.615938
0
LINE
8
right_outsideCutPath
10
106.384062
20
92
11
121.615938
21
92
0
LINE
8
right_outsideCutPath
10
126
20
87.615938
11
126
21
80
0
LINE
8
right_outsideCutPath
10
126
20
80
11
139
21
80
0
LINE
8
right_outsideCutPath
10
139
20
80
11
139
21
100.615938
0
LINE
8
right_outsideCutPath
10
143.384062
20
105
11
151
21
105
0
LINE
8
right_outsideCutPath
10
151
20
105
11
151
21
129
0
LINE
8
right_outsideCutPath
10
151
20
129
11
143.384062
21
129
0
LINE
8
right_outsideCutPath
10
139
20
133.384062
11
139
21
154
0
LINE
8
right_outsideCutPath
10
139
20
154
11
126
21
154
0
LINE
8
right_outsideCutPath
10
126
20
154
11
126
21
146.384062
0
LINE
8
right_outsideCutPath
10
121.615938
20
142
11
106.384062
21
142
0
LINE
8
right_outsideCutPath
10
102
20
146.384062
11
102
21
154
0
LINE
8
right_outsideCutPath
10
102
20
154
11
89
21
154
0
ARC
8
right_outsideCutPath
10
104.192031
20
144.192031
40
3.1
50
135
51
315
0
ARC
8
right_outsideCutPath
10
123.807969
20
144.192031
40
3.1
50
225
51
45
0
ARC
8
right_outsideCutPath
10
141.192031
20
131.192031
40
3.1
50
135
51
315
0
ARC
8
right_outsideCutPath
10
141.192031
20
102.807969
40
3.1
50
45
51
225
0
ARC
8
right_outsideCutPath
10
123.807969
20
89.807969
40
3.1
50
315
51
135
0
ARC
8
right_outsideCutPath
10
104.192031
20
89.807969
40
3.1
50
45
51
225
0
ARC
8
right_outsideCutPath
10
86.807969
20
102.807969
40
3.1
50
315
51
135
0
ARC
8
right_outsideCutPath
10
86.807969
20
131.192031
40
3.1
50
225
51
45
0
LINE
8
bottom_outsideCutPath
10
166
20
142
11
166
21
133.384062
0
LINE
8
bottom_outsideCutPath
10
161.615938
20
129
11
154
21
129
0
LINE
8
bottom_outsideCutPath
10
154
20
129
11
154
21
105
0
LINE
8
bottom_outsideCutPath
10
154
20
105
11
161.615938
21
105
0
LINE
8
bottom_outsideCutPath
10
166
20
100.615938
11
166
21
92
0
LINE
8
bottom_outsideCutPath
10
166
20
92
11
174.615938
21
92
0
LINE
8
bottom_outsideCutPath
10
179
20
87.615938
11
179
21
80
0
LINE
8
bottom_outsideCutPath
10
179
20
80
11
203
21
80
0
LINE
8
bottom_outsideCutPath
10
203
20
80
11
203
21
87.615938
0
LINE
8
bottom_outsideCutPath
10
207.384062
20
92
11
216
21
92
0
LINE
8
bottom_outsideCutPath
10
216
20
92
11
216
21
100.615938
0
LINE
8
bottom_outsideCutPath
10
220.384062
20
105
11
228
21
105
0
LINE
8
bottom_outsideCutPath
10
228
20
105
11
228
21
129
0
LINE
8
bottom_outsideCutPath
10
228
20
129
11
220.384062
21
129
0
LINE
8
bottom_outsideCutPath
10
216
20
133.384062
11
216
21
142
0
LINE
8
bottom_outsideCutPath
10
216
20
142
11
207.384062
21
142
0
LINE
8
bottom_outsideCutPath
10
203
20
146.384062
11
203
21
154
0
LINE
8
bottom_outsideCutPath
10
203
20
154
11
179
21
154
0
LINE
8
bottom_outsideCutPath
10
179
20
154
11
179
21
146.384062
0
LINE
8
bottom_outsideCutPath
10
174.615938
20
142
11
166
21
142
0
ARC
8
bottom_outsideCutPath
10
176.807969
20
144.192031
40
3.1
50
225
51
45
0
ARC
8
bottom_outsideCutPath
10
205.192031
20
144.192031
40
3.1
50
135
51
315
0
ARC
8
bottom_outsideCutPath
10
218.192031
20
131.192031
40
3.1
50
135
51
315
0
ARC
8
bottom_outsideCutPath
10
218.192031
20
102.807969
40
3.1
50
45
51
225
0
ARC
8
bottom_outsideCutPath
10
205.192031
20
89.807969
40
3.1
50
45
51
225
0
ARC
8
bottom_outsideCutPath
10
176.807969
20
89.807969
40
3.1
50
315
51
135
0
ARC
8
bottom_outsideCutPath
10
163.807969
20
102.807969
40
3.1
50
315
51
135
0
ARC
8
bottom_outsideCutPath
10
163.807969
20
131.192031
40
3.1
50
225
51
45
0
ENDSEC
0
EOF