0
SECTION
2
HEADER
9
$HANDSEED
5
191
9
$INSUNITS
70
5
9
$ACADVER
1
AC1021
0
ENDSEC
0
SECTION
2
CLASSES
0
ENDSEC
0
SECTION
2
TABLES
0
TABLE
2
LTYPE
5
18F
330
0
100
AcDbSymbolTable
70
5
0
LTYPE
5
2
330
18F
100
AcDbSymbolTableRecord
100
AcDbLinetypeTableRecord
2
CONTINUOUS
3
______
70
0
72
65
73
0
40
0
0
LTYPE
5
3
330
18F
100
AcDbSymbolTableRecord
100
AcDbLinetypeTableRecord
2
DASHED
3
_ _ _ 
70
0
72
65
73
2
40
10
49
5
74
0
49
-5
74
0
0
LTYPE
5
4
330
18F
100
AcDbSymbolTableRecord
100
AcDbLinetypeTableRecord
2
DOTTED
3
. . . 
70
0
72
65
73
2
40
5
49
0
74
0
49
-5
74
0
0
LTYPE
5
6
330
18F
100
AcDbSymbolTableRecord
100
AcDbLinetypeTableRecord
2
ByBlock
3

70
0
72
65
73
0
40
0
0
LTYPE
5
7
330
18F
100
AcDbSymbolTableRecord
100
AcDbLinetypeTableRecord
2
ByLayer
3

70
0
72
65
73
0
40
0
0
ENDTAB
0
TABLE
2
LAYER
5
190
330
0
100
AcDbSymbolTable
70
3
0
LAYER
5
5
330
190
100
AcDbSymbolTableRecord
100
AcDbLayerTableRecord
2
0
62
7
70
0
6
CONTINUOUS
390
1
0
LAYER
5
16
330
190
100
AcDbSymbolTableRecord
100
AcDbLayerTableRecord
2
Layer_0
420
0
70
0
6
CONTINUOUS
390
1
0
LAYER
5
16C
330
190
100
AcDbSymbolTableRecord
100
AcDbLayerTableRecord
2
Layer_1
420
11340812
70
0
6
CONTINUOUS
390
1
0
ENDTAB
0
TABLE
2
VPORT
5
8
330
0
100
AcDbSymbolTable
70
1
0
VPORT
5
E
330
8
100
AcDbSymbolTableRecord
100
AcDbViewportTableRecord
2
*ACTIVE
40
1000
70
0
0
ENDTAB
0
TABLE
2
STYLE
5
9
330
0
100
AcDbSymbolTable
70
1
0
STYLE
5
F
330
9
100
AcDbSymbolTableRecord
100
AcDbTextStyleTableRecord
2
standard
70
0
40
0
41
1
50
0
71
0
42
1
3
txt
4

0
ENDTAB
0
TABLE
2
VIEW
5
A
330
0
100
AcDbSymbolTable
70
0
0
ENDTAB
0
TABLE
2
UCS
5
B
330
0
100
AcDbSymbolTable
70
0
0
ENDTAB
0
TABLE
2
APPID
5
C
330
0
100
AcDbSymbolTable
70
1
0
APPID
5
10
330
C
100
AcDbSymbolTableRecord
100
AcDbRegAppTableRecord
2
ACAD
70
0
0
ENDTAB
0
TABLE
2
DIMSTYLE
5
D
330
0
100
AcDbSymbolTable
100
AcDbDimStyleTable
70
0
71
1
0
ENDTAB
0
TABLE
2
BLOCK_RECORD
5
18C
330
0
100
AcDbSymbolTable
70
2
0
BLOCK_RECORD
5
18D
330
18C
100
AcDbSymbolTableRecord
100
AcDbBlockTableRecord
2
*Model_Space
70
0
280
0
281
1
0
BLOCK_RECORD
5
18E
330
18C
100
AcDbSymbolTableRecord
100
AcDbBlockTableRecord
2
*Paper_Space
70
0
280
0
281
1
0
ENDTAB
0
ENDSEC
0
SECTION
2
BLOCKS
0
BLOCK
5
11
330
0
100
AcDbEntity
100
AcDbBlockBegin
2
*Model_Space
70
0
10
0
20
0
30
0
3
*Model_Space
1

0
ENDBLK
5
12
330
0
100
AcDbEntity
100
AcDbBlockEnd
0
BLOCK
5
13
330
0
100
AcDbEntity
100
AcDbBlockBegin
2
*Paper_Space
70
0
10
0
20
0
30
0
3
*Paper_Space
1

0
ENDBLK
5
14
330
0
100
AcDbEntity
100
AcDbBlockEnd
0
ENDSEC
0
SECTION
2
ENTITIES
0
LINE
5
17
330
11
100
AcDbEntity
100
AcDbLine
8
Layer_0
10
-10.619594039638745
20
210.42404789735096
30
0
11
-10.619594039638745
21
211.71841531984083
31
0
0
LINE
5
18
330
11
100
AcDbEntity
100
AcDbLine
8
Layer_0
10
-10.619594039638745
20
211.71841531984083
30
0
11
-10.151294855196223
21
211.71841531984083
31
0
0
LINE
5
19
330
11
100
AcDbEntity
100
AcDbLine
8
Layer_0
10
-10.151294855196223
20
211.71841531984083
30
0
11
-10.151294855196223
21
212.0820016803168
31
0
0
LINE
5
1A
330
11
100
AcDbEntity
100
AcDbLine
8
Layer_0
10
-10.151294855196223
20
212.0820016803168
30
0
11
-11.611457650023041
21
212.0820016803168
31
0
0
LINE
5
1B
330
11
100
AcDbEntity
100
AcDbLine
8
Layer_0
10
-11.611457650023041
20
212.0820016803168
30
0
11
-11.611457650023041
21
211.71841531984083
31
0
0
LINE
5
1C
330
11
100
AcDbEntity
100
AcDbLine
8
Layer_0
10
-11.611457650023041
20
211.71841531984083
30
0
11
-11.14315841952872
21
211.71841531984083
31
0
0
LINE
5
1D
330
11
100
AcDbEntity
100
AcDbLine
8
Layer_0
10
-11.14315841952872
20
211.71841531984083
30
0
11
-11.14315841952872
21
210.42404789735096
31
0
0
LINE
5
1E
330
11
100
AcDbEntity
100
AcDbLine
8
Layer_0
10
-11.14315841952872
20
210.42404789735096
30
0
11
-10.619594039638745
21
210.42404789735096
31
0
0
SPLINE
5
1F
330
11
100
AcDbEntity
100
AcDbSpline
8
Layer_0
210
0
220
0
230
1
70
8
71
3
72
8
73
4
74
0
42
1e-7
43
1e-7
44
1e-10
40
0
40
0
40
0
40
0
40
1
40
1
40
1
40
1
10
-9.934597354706021
20
210.47931302236626
30
0
10
-9.883210479420312
20
210.4269565869056
30
0
10
-9.817764931934063
20
210.40077836917524
30
0
10
-9.738260712247278
20
210.40077836917524
30
0
0
SPLINE
5
20
330
11
100
AcDbEntity
100
AcDbSpline
8
Layer_0
210
0
220
0
230
1
70
8
71
3
72
8
73
4
74
0
42
1e-7
43
1e-7
44
1e-10
40
0
40
0
40
0
40
0
40
1
40
1
40
1
40
1
10
-9.738260712247278
20
210.40077836917524
30
0
10
-9.652939142346488
20
210.40077836917524
30
0
10
-9.584584876410366
20
210.42695658837292
30
0
10
-9.533198001124656
20
210.47931302236626
30
0
0
SPLINE
5
21
330
11
100
AcDbEntity
100
AcDbSpline
8
Layer_0
210
0
220
0
230
1
70
8
71
3
72
8
73
4
74
0
42
1e-7
43
1e-7
44
1e-10
40
0
40
0
40
0
40
0
40
1
40
1
40
1
40
1
10
-9.533198001124656
20
210.47931302236626
30
0
10
-9.481811125838947
20
210.53166945240906
30
0
10
-9.456117688196095
20
210.6024475980141
30
0
10
-9.456117688196095
20
210.69164745918138
30
0
0
SPLINE
5
22
330
11
100
AcDbEntity
100
AcDbSpline
8
Layer_0
210
0
220
0
230
1
70
8
71
3
72
8
73
4
74
0
42
1e-7
43
1e-7
44
1e-10
40
0
40
0
40
0
40
0
40
1
40
1
40
1
40
1
10
-9.456117688196095
20
210.69164745918138
30
0
10
-9.456117688196095
20
210.76921254768254
30
0
10
-9.482295915859167
20
210.83465809516878
30
0
10
-9.534652371185313
20
210.88798410164011
30
0
0
SPLINE
5
23
330
11
100
AcDbEntity
100
AcDbSpline
8
Layer_0
210
0
220
0
230
1
70
8
71
3
72
8
73
4
74
0
42
1e-7
43
1e-7
44
1e-10
40
0
40
0
40
0
40
0
40
1
40
1
40
1
40
1
10
-9.534652371185313
20
210.88798410164011
30
0
10
-9.587008797616212
20
210.94131010811145
30
0
10
-9.651969562306052
20
210.96797311134713
30
0
10
-9.729534665254835
20
210.96797311134713
30
0
0
SPLINE
5
24
330
11
100
AcDbEntity
100
AcDbSpline
8
Layer_0
210
0
220
0
230
1
70
8
71
3
72
8
73
4
74
0
42
1e-7
43
1e-7
44
1e-10
40
0
40
0
40
0
40
0
40
1
40
1
40
1
40
1
10
-9.729534665254835
20
210.96797311134713
30
0
10
-9.810978001679622
20
210.96797311134713
30
0
10
-9.878362665903872
20
210.94131009366382
30
0
10
-9.931688657927584
20
210.88798410164011
30
0
0
SPLINE
5
25
330
11
100
AcDbEntity
100
AcDbSpline
8
Layer_0
210
0
220
0
230
1
70
8
71
3
72
8
73
4
74
0
42
1e-7
43
1e-7
44
1e-10
40
0
40
0
40
0
40
0
40
1
40
1
40
1
40
1
10
-9.931688657927584
20
210.88798410164011
30
0
10
-9.98501466439892
20
210.83465809516878
30
0
10
-10.011677667634586
20
210.76921254768254
30
0
10
-10.011677667634586
20
210.69164745918138
30
0
0
SPLINE
5
26
330
11
100
AcDbEntity
100
AcDbSpline
8
Layer_0
210
0
220
0
230
1
70
8
71
3
72
8
73
4
74
0
42
1e-7
43
1e-7
44
1e-10
40
0
40
0
40
0
40
0
40
1
40
1
40
1
40
1
10
-10.011677667634586
20
210.69164745918138
30
0
10
-10.011677667634586
20
210.6024476052379
30
0
10
-9.98598422999173
20
210.53166945963287
30
0
10
-9.934597354706021
20
210.47931302236626
30
0
0
SPLINE
5
27
330
11
100
AcDbEntity
100
AcDbSpline
8
Layer_0
210
0
220
0
230
1
70
8
71
3
72
8
73
4
74
0
42
1e-7
43
1e-7
44
1e-10
40
0
40
0
40
0
40
0
40
1
40
1
40
1
40
1
10
-7.835976827079953
20
211.16721838556998
30
0
10
-7.892211602567846
20
211.23993567500233
30
0
10
-7.986259219461079
20
211.28405083001337
30
0
10
-8.118119937816882
20
211.29956385060314
30
0
0
LINE
5
28
330
11
100
AcDbEntity
100
AcDbLine
8
Layer_0
10
-8.118119937816882
20
211.29956385060314
30
0
11
-8.118119937816882
21
211.31410729115245
31
0
0
SPLINE
5
29
330
11
100
AcDbEntity
100
AcDbSpline
8
Layer_0
210
0
220
0
230
1
70
8
71
3
72
8
73
4
74
0
42
1e-7
43
1e-7
44
1e-10
40
0
40
0
40
0
40
0
40
1
40
1
40
1
40
1
10
-8.118119937816882
20
211.31410729115245
30
0
10
-8.011467867083716
20
211.33737686537995
30
0
10
-7.933418017457586
20
211.38003760698749
30
0
10
-7.883970215567007
20
211.44208968934652
30
0
0
SPLINE
5
2A
330
11
100
AcDbEntity
100
AcDbSpline
8
Layer_0
210
0
220
0
230
1
70
8
71
3
72
8
73
4
74
0
42
1e-7
43
1e-7
44
1e-10
40
0
40
0
40
0
40
0
40
1
40
1
40
1
40
1
10
-7.883970215567007
20
211.44208968934652
30
0
10
-7.834522587047914
20
211.50414177170555
30
0
10
-7.80979859941688
20
211.58558510813035
30
0
10
-7.80979859941688
20
211.68641969862088
30
0
0
SPLINE
5
2B
330
11
100
AcDbEntity
100
AcDbSpline
8
Layer_0
210
0
220
0
230
1
70
8
71
3
72
8
73
4
74
0
42
1e-7
43
1e-7
44
1e-10
40
0
40
0
40
0
40
0
40
1
40
1
40
1
40
1
10
-7.80979859941688
20
211.68641969862088
30
0
10
-7.80979859941688
20
211.80276739638694
30
0
10
-7.839855147241701
20
211.88954337969125
30
0
10
-7.899968069519853
20
211.94674764853383
30
0
0
SPLINE
5
2C
330
11
100
AcDbEntity
100
AcDbSpline
8
Layer_0
210
0
220
0
230
1
70
8
71
3
72
8
73
4
74
0
42
1e-7
43
1e-7
44
1e-10
40
0
40
0
40
0
40
0
40
1
40
1
40
1
40
1
10
-7.899968069519853
20
211.94674764853383
30
0
10
-7.960080991798006
20
212.00395174400492
30
0
10
-8.038130928109878
20
212.04079526542708
30
0
10
-8.134117705083984
20
212.05727786605726
30
0
0
SPLINE
5
2D
330
11
100
AcDbEntity
100
AcDbSpline
8
Layer_0
210
0
220
0
230
1
70
8
71
3
72
8
73
4
74
0
42
1e-7
43
1e-7
44
1e-10
40
0
40
0
40
0
40
0
40
1
40
1
40
1
40
1
10
-8.134117705083984
20
212.05727786605726
30
0
10
-8.23010448205809
20
212.07376046668745
30
0
10
-8.355662973493926
20
212.0820016803168
30
0
10
-8.510793179391491
20
212.0820016803168
30
0
0
LINE
5
2E
330
11
100
AcDbEntity
100
AcDbLine
8
Layer_0
10
-8.510793179391491
20
212.0820016803168
30
0
11
-9.194335524516884
21
212.0820016803168
31
0
0
LINE
5
2F
330
11
100
AcDbEntity
100
AcDbLine
8
Layer_0
10
-9.194335524516884
20
212.0820016803168
30
0
11
-9.194335524516884
21
210.42404789735096
31
0
0
LINE
5
30
330
11
100
AcDbEntity
100
AcDbLine
8
Layer_0
10
-9.194335524516884
20
210.42404789735096
30
0
11
-8.630049487250233
21
210.42404789735096
31
0
0
SPLINE
5
31
330
11
100
AcDbEntity
100
AcDbSpline
8
Layer_0
210
0
220
0
230
1
70
8
71
3
72
8
73
4
74
0
42
1e-7
43
1e-7
44
1e-10
40
0
40
0
40
0
40
0
40
1
40
1
40
1
40
1
10
-8.630049487250233
20
210.42404789735096
30
0
10
-8.234467548897184
20
210.42404789735096
30
0
10
-7.997894006574832
20
210.44925655039142
30
0
10
-7.920328903626049
20
210.49967386189027
30
0
0
SPLINE
5
32
330
11
100
AcDbEntity
100
AcDbSpline
8
Layer_0
210
0
220
0
230
1
70
8
71
3
72
8
73
4
74
0
42
1e-7
43
1e-7
44
1e-10
40
0
40
0
40
0
40
0
40
1
40
1
40
1
40
1
10
-7.920328903626049
20
210.49967386189027
30
0
10
-7.900937649560289
20
210.51130862191474
30
0
10
-7.877668162018527
20
210.5370020649755
30
0
10
-7.850520267629274
20
210.57675416398317
30
0
0
SPLINE
5
33
330
11
100
AcDbEntity
100
AcDbSpline
8
Layer_0
210
0
220
0
230
1
70
8
71
3
72
8
73
4
74
0
42
1e-7
43
1e-7
44
1e-10
40
0
40
0
40
0
40
0
40
1
40
1
40
1
40
1
10
-7.850520267629274
20
210.57675416398317
30
0
10
-7.823372546611507
20
210.61650628466228
30
0
10
-7.800102972384
20
210.66498446316953
30
0
10
-7.78071171831824
20
210.72218871034067
30
0
0
SPLINE
5
34
330
11
100
AcDbEntity
100
AcDbSpline
8
Layer_0
210
0
220
0
230
1
70
8
71
3
72
8
73
4
74
0
42
1e-7
43
1e-7
44
1e-10
40
0
40
0
40
0
40
0
40
1
40
1
40
1
40
1
10
-7.78071171831824
20
210.72218871034067
30
0
10
-7.76132046425248
20
210.77939296473565
30
0
10
-7.751624837219601
20
210.83999069870546
30
0
10
-7.751624837219601
20
210.90398191225012
30
0
0
SPLINE
5
35
330
11
100
AcDbEntity
100
AcDbSpline
8
Layer_0
210
0
220
0
230
1
70
8
71
3
72
8
73
4
74
0
42
1e-7
43
1e-7
44
1e-10
40
0
40
0
40
0
40
0
40
1
40
1
40
1
40
1
10
-7.751624837219601
20
210.90398191225012
30
0
10
-7.751624837219601
20
211.00675561947867
30
0
10
-7.779742224963546
20
211.0945011394805
30
0
10
-7.835976827079953
20
211.16721838556998
30
0
0
SPLINE
5
36
330
11
100
AcDbEntity
100
AcDbSpline
8
Layer_0
210
0
220
0
230
1
70
8
71
3
72
8
73
4
74
0
42
1e-7
43
1e-7
44
1e-10
40
0
40
0
40
0
40
0
40
1
40
1
40
1
40
1
10
-8.419169382570736
20
211.7664087083279
30
0
10
-8.392991154907662
20
211.76156089481145
30
0
10
-8.370206414043246
20
211.74944136102036
30
0
10
-8.350815159977486
20
211.7300501069546
30
0
0
SPLINE
5
37
330
11
100
AcDbEntity
100
AcDbSpline
8
Layer_0
210
0
220
0
230
1
70
8
71
3
72
8
73
4
74
0
42
1e-7
43
1e-7
44
1e-10
40
0
40
0
40
0
40
0
40
1
40
1
40
1
40
1
10
-8.350815159977486
20
211.7300501069546
30
0
10
-8.321728278878846
20
211.70096322585596
30
0
10
-8.307184838329526
20
211.65733281752225
30
0
10
-8.307184838329526
20
211.59915905532498
30
0
0
SPLINE
5
38
330
11
100
AcDbEntity
100
AcDbSpline
8
Layer_0
210
0
220
0
230
1
70
8
71
3
72
8
73
4
74
0
42
1e-7
43
1e-7
44
1e-10
40
0
40
0
40
0
40
0
40
1
40
1
40
1
40
1
10
-8.307184838329526
20
211.59915905532498
30
0
10
-8.307184838329526
20
211.56037648940296
30
0
10
-8.314456558604187
20
211.52450263470698
30
0
10
-8.328999999153506
20
211.4915374912371
30
0
0
SPLINE
5
39
330
11
100
AcDbEntity
100
AcDbSpline
8
Layer_0
210
0
220
0
230
1
70
8
71
3
72
8
73
4
74
0
42
1e-7
43
1e-7
44
1e-10
40
0
40
0
40
0
40
0
40
1
40
1
40
1
40
1
10
-8.328999999153506
20
211.4915374912371
30
0
10
-8.343543439702826
20
211.4585722899767
30
0
10
-8.359541206969931
20
211.43821145587052
30
0
10
-8.37699338764056
20
211.43045490223275
30
0
0
SPLINE
5
3A
330
11
100
AcDbEntity
100
AcDbSpline
8
Layer_0
210
0
220
0
230
1
70
8
71
3
72
8
73
4
74
0
42
1e-7
43
1e-7
44
1e-10
40
0
40
0
40
0
40
0
40
1
40
1
40
1
40
1
10
-8.37699338764056
20
211.43045490223275
30
0
10
-8.400262875182323
20
211.42075927519988
30
0
10
-8.447771516992029
20
211.41591146168344
30
0
10
-8.519519226383935
20
211.41591146168344
30
0
0
LINE
5
3B
330
11
100
AcDbEntity
100
AcDbLine
8
Layer_0
10
-8.519519226383935
20
211.41591146168344
30
0
11
-8.670771155462628
21
211.41591146168344
31
0
0
LINE
5
3C
330
11
100
AcDbEntity
100
AcDbLine
8
Layer_0
10
-8.670771155462628
20
211.41591146168344
30
0
11
-8.670771155462628
21
211.77077177516696
31
0
0
SPLINE
5
3D
330
11
100
AcDbEntity
100
AcDbSpline
8
Layer_0
210
0
220
0
230
1
70
8
71
3
72
8
73
4
74
0
42
1e-7
43
1e-7
44
1e-10
40
0
40
0
40
0
40
0
40
1
40
1
40
1
40
1
10
-8.670771155462628
20
211.77077177516696
30
0
10
-8.641684274363987
20
211.77271093524783
30
0
10
-8.59902348941359
20
211.77368042860255
30
0
10
-8.54278880061144
20
211.77368042860255
30
0
0
SPLINE
5
3E
330
11
100
AcDbEntity
100
AcDbSpline
8
Layer_0
210
0
220
0
230
1
70
8
71
3
72
8
73
4
74
0
42
1e-7
43
1e-7
44
1e-10
40
0
40
0
40
0
40
0
40
1
40
1
40
1
40
1
10
-8.54278880061144
20
211.77368042860255
30
0
10
-8.486554082914042
20
211.77368042860255
30
0
10
-8.44534761023381
20
211.77125652184435
30
0
10
-8.419169382570736
20
211.7664087083279
30
0
0
SPLINE
5
3F
330
11
100
AcDbEntity
100
AcDbSpline
8
Layer_0
210
0
220
0
230
1
70
8
71
3
72
8
73
4
74
0
42
1e-7
43
1e-7
44
1e-10
40
0
40
0
40
0
40
0
40
1
40
1
40
1
40
1
10
-8.267917496834915
20
210.8239929025431
30
0
10
-8.276643543827358
20
210.79199728132315
30
0
10
-8.287793497578026
20
210.7701821204992
30
0
10
-8.301367444772652
20
210.75854735505686
30
0
0
SPLINE
5
40
330
11
100
AcDbEntity
100
AcDbSpline
8
Layer_0
210
0
220
0
230
1
70
8
71
3
72
8
73
4
74
0
42
1e-7
43
1e-7
44
1e-10
40
0
40
0
40
0
40
0
40
1
40
1
40
1
40
1
10
-8.301367444772652
20
210.75854735505686
30
0
10
-8.313002231886404
20
210.74885170635255
30
0
10
-8.35469339345349
20
210.7415799860779
30
0
10
-8.426441102845395
20
210.73673217256146
30
0
0
SPLINE
5
41
330
11
100
AcDbEntity
100
AcDbSpline
8
Layer_0
210
0
220
0
230
1
70
8
71
3
72
8
73
4
74
0
42
1e-7
43
1e-7
44
1e-10
40
0
40
0
40
0
40
0
40
1
40
1
40
1
40
1
10
-8.426441102845395
20
210.73673217256146
30
0
10
-8.4981888122373
20
210.731884359045
30
0
10
-8.579632163109714
20
210.73043001065577
30
0
10
-8.670771155462628
20
210.73236912739378
30
0
0
LINE
5
42
330
11
100
AcDbEntity
100
AcDbLine
8
Layer_0
10
-8.670771155462628
20
210.73236912739378
30
0
11
-8.670771155462628
21
211.15412927173844
31
0
0
SPLINE
5
43
330
11
100
AcDbEntity
100
AcDbSpline
8
Layer_0
210
0
220
0
230
1
70
8
71
3
72
8
73
4
74
0
42
1e-7
43
1e-7
44
1e-10
40
0
40
0
40
0
40
0
40
1
40
1
40
1
40
1
10
-8.670771155462628
20
211.15412927173844
30
0
10
-8.637806011992737
20
211.1560684318193
30
0
10
-8.59708432933272
20
211.15703801185978
30
0
10
-8.548606107482577
20
211.15703801185978
30
0
0
SPLINE
5
44
330
11
100
AcDbEntity
100
AcDbSpline
8
Layer_0
210
0
220
0
230
1
70
8
71
3
72
8
73
4
74
0
42
1e-7
43
1e-7
44
1e-10
40
0
40
0
40
0
40
0
40
1
40
1
40
1
40
1
10
-8.548606107482577
20
211.15703801185978
30
0
10
-8.472980164614668
20
211.15703801185978
30
0
10
-8.419169382570734
20
211.1541292717385
30
0
10
-8.387173848036529
20
211.14831192152448
30
0
0
SPLINE
5
45
330
11
100
AcDbEntity
100
AcDbSpline
8
Layer_0
210
0
220
0
230
1
70
8
71
3
72
8
73
4
74
0
42
1e-7
43
1e-7
44
1e-10
40
0
40
0
40
0
40
0
40
1
40
1
40
1
40
1
10
-8.387173848036529
20
211.14831192152448
30
0
10
-8.355178226816578
20
211.1424945279676
30
0
10
-8.33045432587129
20
211.1308597841967
30
0
10
-8.313002231886404
20
211.11340764686895
30
0
0
SPLINE
5
46
330
11
100
AcDbEntity
100
AcDbSpline
8
Layer_0
210
0
220
0
230
1
70
8
71
3
72
8
73
4
74
0
42
1e-7
43
1e-7
44
1e-10
40
0
40
0
40
0
40
0
40
1
40
1
40
1
40
1
10
-8.313002231886404
20
211.11340764686895
30
0
10
-8.295550080111022
20
211.09789462627919
30
0
10
-8.281491386239049
20
211.0722011886363
30
0
10
-8.270826150270484
20
211.03632733394036
30
0
0
SPLINE
5
47
330
11
100
AcDbEntity
100
AcDbSpline
8
Layer_0
210
0
220
0
230
1
70
8
71
3
72
8
73
4
74
0
42
1e-7
43
1e-7
44
1e-10
40
0
40
0
40
0
40
0
40
1
40
1
40
1
40
1
10
-8.270826150270484
20
211.03632733394036
30
0
10
-8.260160943197167
20
211.0004534792444
30
0
10
-8.254828383003378
20
210.96215571779024
30
0
10
-8.254828383003378
20
210.92143404957784
30
0
0
SPLINE
5
48
330
11
100
AcDbEntity
100
AcDbSpline
8
Layer_0
210
0
220
0
230
1
70
8
71
3
72
8
73
4
74
0
42
1e-7
43
1e-7
44
1e-10
40
0
40
0
40
0
40
0
40
1
40
1
40
1
40
1
10
-8.254828383003378
20
210.92143404957784
30
0
10
-8.254828383003378
20
210.88846889166032
30
0
10
-8.259191449842472
20
210.85598848042017
30
0
10
-8.267917496834915
20
210.8239929025431
30
0
0
LINE
5
49
330
11
100
AcDbEntity
100
AcDbLine
8
Layer_0
10
-6.762669954755593
20
210.42404789735096
30
0
11
-6.3496358790747855
21
210.42404789735096
31
0
0
LINE
5
4A
330
11
100
AcDbEntity
100
AcDbLine
8
Layer_0
10
-6.3496358790747855
20
210.42404789735096
30
0
11
-6.3583619260672295
21
210.76727342372072
31
0
0
LINE
5
4B
330
11
100
AcDbEntity
100
AcDbLine
8
Layer_0
10
-6.3583619260672295
20
210.76727342372072
30
0
11
-6.35545318594592
21
211.19485093995087
31
0
0
SPLINE
5
4C
330
11
100
AcDbEntity
100
AcDbSpline
8
Layer_0
210
0
220
0
230
1
70
8
71
3
72
8
73
4
74
0
42
1e-7
43
1e-7
44
1e-10
40
0
40
0
40
0
40
0
40
1
40
1
40
1
40
1
10
-6.35545318594592
20
211.19485093995087
30
0
10
-6.353514141446038
20
211.32283336704018
30
0
10
-6.364179348519353
20
211.42851582883762
30
0
10
-6.387448807165868
20
211.51189832534328
30
0
0
SPLINE
5
4D
330
11
100
AcDbEntity
100
AcDbSpline
8
Layer_0
210
0
220
0
230
1
70
8
71
3
72
8
73
4
74
0
42
1e-7
43
1e-7
44
1e-10
40
0
40
0
40
0
40
0
40
1
40
1
40
1
40
1
10
-6.387448807165868
20
211.51189832534328
30
0
10
-6.410718381393375
20
211.5952807351632
30
0
10
-6.461135676638649
20
211.66266546440178
30
0
10
-6.5387007795874315
20
211.7140523396875
30
0
0
SPLINE
5
4E
330
11
100
AcDbEntity
100
AcDbSpline
8
Layer_0
210
0
220
0
230
1
70
8
71
3
72
8
73
4
74
0
42
1e-7
43
1e-7
44
1e-10
40
0
40
0
40
0
40
0
40
1
40
1
40
1
40
1
10
-6.5387007795874315
20
211.7140523396875
30
0
10
-6.616265853640966
20
211.76543918607797
30
0
10
-6.732613464721269
20
211.79113260927318
30
0
10
-6.88774361282834
20
211.79113260927318
30
0
0
SPLINE
5
4F
330
11
100
AcDbEntity
100
AcDbSpline
8
Layer_0
210
0
220
0
230
1
70
8
71
3
72
8
73
4
74
0
42
1e-7
43
1e-7
44
1e-10
40
0
40
0
40
0
40
0
40
1
40
1
40
1
40
1
10
-6.88774361282834
20
211.79113260927318
30
0
10
-6.976943502890876
20
211.79113260927318
30
0
10
-7.077778136724293
20
211.7838608889985
30
0
10
-7.190247514328592
20
211.7693174484492
30
0
0
SPLINE
5
50
330
11
100
AcDbEntity
100
AcDbSpline
8
Layer_0
210
0
220
0
230
1
70
8
71
3
72
8
73
4
74
0
42
1e-7
43
1e-7
44
1e-10
40
0
40
0
40
0
40
0
40
1
40
1
40
1
40
1
10
-7.190247514328592
20
211.7693174484492
30
0
10
-7.302716891932892
20
211.75477400789987
30
0
10
-7.410338452408846
20
211.7368370805519
30
0
10
-7.513112195756453
20
211.71550666640528
30
0
0
SPLINE
5
51
330
11
100
AcDbEntity
100
AcDbSpline
8
Layer_0
210
0
220
0
230
1
70
8
71
3
72
8
73
4
74
0
42
1e-7
43
1e-7
44
1e-10
40
0
40
0
40
0
40
0
40
1
40
1
40
1
40
1
10
-7.513112195756453
20
211.71550666640528
30
0
10
-7.505355692685387
20
211.59528070626797
30
0
10
-7.493720930854975
20
211.48281132866364
30
0
10
-7.478207910265218
20
211.37809853359235
30
0
0
SPLINE
5
52
330
11
100
AcDbEntity
100
AcDbSpline
8
Layer_0
210
0
220
0
230
1
70
8
71
3
72
8
73
4
74
0
42
1e-7
43
1e-7
44
1e-10
40
0
40
0
40
0
40
0
40
1
40
1
40
1
40
1
10
-7.478207910265218
20
211.37809853359235
30
0
10
-7.3191994708916495
20
211.39555062757725
30
0
10
-7.193156211107031
20
211.40621583465057
30
0
10
-7.100078087568491
20
211.41009406812657
30
0
0
SPLINE
5
53
330
11
100
AcDbEntity
100
AcDbSpline
8
Layer_0
210
0
220
0
230
1
70
8
71
3
72
8
73
4
74
0
42
1e-7
43
1e-7
44
1e-10
40
0
40
0
40
0
40
0
40
1
40
1
40
1
40
1
10
-7.100078087568491
20
211.41009406812657
30
0
10
-7.04190428202834
20
211.41397238828833
30
0
10
-6.996334800299507
20
211.41591146168344
30
0
10
-6.96336959903912
20
211.41591146168344
30
0
0
SPLINE
5
54
330
11
100
AcDbEntity
100
AcDbSpline
8
Layer_0
210
0
220
0
230
1
70
8
71
3
72
8
73
4
74
0
42
1e-7
43
1e-7
44
1e-10
40
0
40
0
40
0
40
0
40
1
40
1
40
1
40
1
10
-6.96336959903912
20
211.41591146168344
30
0
10
-6.911013172608222
20
211.41591146168344
30
0
10
-6.879987145876332
20
211.41203322820746
30
0
10
-6.870291518843453
20
211.40427676125546
30
0
0
SPLINE
5
55
330
11
100
AcDbEntity
100
AcDbSpline
8
Layer_0
210
0
220
0
230
1
70
8
71
3
72
8
73
4
74
0
42
1e-7
43
1e-7
44
1e-10
40
0
40
0
40
0
40
0
40
1
40
1
40
1
40
1
10
-6.870291518843453
20
211.40427676125546
30
0
10
-6.858656731729699
20
211.39652023651297
30
0
10
-6.8528393381728225
20
211.32865076059701
30
0
10
-6.8528393381728225
20
211.2006683335077
30
0
0
SPLINE
5
56
330
11
100
AcDbEntity
100
AcDbSpline
8
Layer_0
210
0
220
0
230
1
70
8
71
3
72
8
73
4
74
0
42
1e-7
43
1e-7
44
1e-10
40
0
40
0
40
0
40
0
40
1
40
1
40
1
40
1
10
-6.8528393381728225
20
211.2006683335077
30
0
10
-7.079717253462294
20
211.1967901000317
30
0
10
-7.247451783171179
20
211.17933800604686
30
0
10
-7.356042883956603
20
211.14831192152448
30
0
0
SPLINE
5
57
330
11
100
AcDbEntity
100
AcDbSpline
8
Layer_0
210
0
220
0
230
1
70
8
71
3
72
8
73
4
74
0
42
1e-7
43
1e-7
44
1e-10
40
0
40
0
40
0
40
0
40
1
40
1
40
1
40
1
10
-7.356042883956603
20
211.14831192152448
30
0
10
-7.4394253515670155
20
211.12310327390185
30
0
10
-7.5048708990532615
20
211.0799576989312
30
0
10
-7.552379526415344
20
211.0188751966126
30
0
0
SPLINE
5
58
330
11
100
AcDbEntity
100
AcDbSpline
8
Layer_0
210
0
220
0
230
1
70
8
71
3
72
8
73
4
74
0
42
1e-7
43
1e-7
44
1e-10
40
0
40
0
40
0
40
0
40
1
40
1
40
1
40
1
10
-7.552379526415344
20
211.0188751966126
30
0
10
-7.599888142941709
20
210.95779266539878
30
0
10
-7.6236424512048915
20
210.8865297315795
30
0
10
-7.6236424512048915
20
210.8050863951547
30
0
0
SPLINE
5
59
330
11
100
AcDbEntity
100
AcDbSpline
8
Layer_0
210
0
220
0
230
1
70
8
71
3
72
8
73
4
74
0
42
1e-7
43
1e-7
44
1e-10
40
0
40
0
40
0
40
0
40
1
40
1
40
1
40
1
10
-7.6236424512048915
20
210.8050863951547
30
0
10
-7.6236424512048915
20
210.67322574181318
30
0
10
-7.582435998390139
20
210.5709367920977
30
0
10
-7.500023081924916
20
210.49821951350108
30
0
0
SPLINE
5
5A
330
11
100
AcDbEntity
100
AcDbSpline
8
Layer_0
210
0
220
0
230
1
70
8
71
3
72
8
73
4
74
0
42
1e-7
43
1e-7
44
1e-10
40
0
40
0
40
0
40
0
40
1
40
1
40
1
40
1
10
-7.500023081924916
20
210.49821951350108
30
0
10
-7.4176102015787535
20
210.42550224212826
30
0
10
-7.311442982268206
20
210.38914360644188
30
0
10
-7.181521423993277
20
210.38914360644188
30
0
0
SPLINE
5
5B
330
11
100
AcDbEntity
100
AcDbSpline
8
Layer_0
210
0
220
0
230
1
70
8
71
3
72
8
73
4
74
0
42
1e-7
43
1e-7
44
1e-10
40
0
40
0
40
0
40
0
40
1
40
1
40
1
40
1
10
-7.181521423993277
20
210.38914360644188
30
0
10
-7.02251295572446
20
210.38914360644188
30
0
10
-6.898408819901655
20
210.46186087962062
30
0
10
-6.809209016524862
20
210.60729542597815
30
0
0
LINE
5
5C
330
11
100
AcDbEntity
100
AcDbLine
8
Layer_0
10
-6.809209016524862
20
210.60729542597815
30
0
11
-6.762669954755593
21
210.42404789735096
31
0
0
SPLINE
5
5D
330
11
100
AcDbEntity
100
AcDbSpline
8
Layer_0
210
0
220
0
230
1
70
8
71
3
72
8
73
4
74
0
42
1e-7
43
1e-7
44
1e-10
40
0
40
0
40
0
40
0
40
1
40
1
40
1
40
1
10
-6.8528393381728225
20
210.7440038928361
30
0
10
-6.90907405587022
20
210.72461262432273
30
0
10
-6.962400062341556
20
210.714916990066
30
0
10
-7.012817357586829
20
210.714916990066
30
0
0
SPLINE
5
5E
330
11
100
AcDbEntity
100
AcDbSpline
8
Layer_0
210
0
220
0
230
1
70
8
71
3
72
8
73
4
74
0
42
1e-7
43
1e-7
44
1e-10
40
0
40
0
40
0
40
0
40
1
40
1
40
1
40
1
10
-7.012817357586829
20
210.714916990066
30
0
10
-7.057417288170472
20
210.714916990066
30
0
10
-7.090382460535612
20
210.7236430587299
30
0
10
-7.1117128746822456
20
210.74109519605764
30
0
0
SPLINE
5
5F
330
11
100
AcDbEntity
100
AcDbSpline
8
Layer_0
210
0
220
0
230
1
70
8
71
3
72
8
73
4
74
0
42
1e-7
43
1e-7
44
1e-10
40
0
40
0
40
0
40
0
40
1
40
1
40
1
40
1
10
-7.1117128746822456
20
210.74109519605764
30
0
10
-7.133043259933631
20
210.75854734783303
30
0
10
-7.1437084525593235
20
210.79054295460537
30
0
10
-7.1437084525593235
20
210.83708201637464
30
0
0
SPLINE
5
60
330
11
100
AcDbEntity
100
AcDbSpline
8
Layer_0
210
0
220
0
230
1
70
8
71
3
72
8
73
4
74
0
42
1e-7
43
1e-7
44
1e-10
40
0
40
0
40
0
40
0
40
1
40
1
40
1
40
1
10
-7.1437084525593235
20
210.83708201637464
30
0
10
-7.1437084525593235
20
210.85453416815002
30
0
10
-7.141284545801104
20
210.8729558710706
30
0
10
-7.136436732284664
20
210.89234712513635
30
0
0
SPLINE
5
61
330
11
100
AcDbEntity
100
AcDbSpline
8
Layer_0
210
0
220
0
230
1
70
8
71
3
72
8
73
4
74
0
42
1e-7
43
1e-7
44
1e-10
40
0
40
0
40
0
40
0
40
1
40
1
40
1
40
1
10
-7.136436732284664
20
210.89234712513635
30
0
10
-7.131588918768224
20
210.91173842254497
30
0
10
-7.1243171984935625
20
210.9262818630943
30
0
10
-7.1146215281178105
20
210.93597749012716
30
0
0
SPLINE
5
62
330
11
100
AcDbEntity
100
AcDbSpline
8
Layer_0
210
0
220
0
230
1
70
8
71
3
72
8
73
4
74
0
42
1e-7
43
1e-7
44
1e-10
40
0
40
0
40
0
40
0
40
1
40
1
40
1
40
1
10
-7.1146215281178105
20
210.93597749012716
30
0
10
-7.0991084786328065
20
210.95149051071692
30
0
10
-7.019604273393647
20
210.9592470210118
30
0
10
-6.87610891240033
20
210.9592470210118
30
0
0
LINE
5
63
330
11
100
AcDbEntity
100
AcDbLine
8
Layer_0
10
-6.87610891240033
20
210.9592470210118
30
0
11
-6.8528393381728225
21
210.9592470210118
31
0
0
LINE
5
64
330
11
100
AcDbEntity
100
AcDbLine
8
Layer_0
10
-6.8528393381728225
20
210.9592470210118
30
0
11
-6.8528393381728225
21
210.7440038928361
31
0
0
LINE
5
65
330
11
100
AcDbEntity
100
AcDbLine
8
Layer_0
10
-5.514841584326182
20
210.97379046156112
30
0
11
-5.514841584326182
21
211.47699396400205
31
0
0
LINE
5
66
330
11
100
AcDbEntity
100
AcDbLine
8
Layer_0
10
-5.514841584326182
20
211.47699396400205
30
0
11
-5.206520332611923
21
211.47699396400205
31
0
0
LINE
5
67
330
11
100
AcDbEntity
100
AcDbLine
8
Layer_0
10
-5.206520332611923
20
211.47699396400205
30
0
11
-5.206520332611923
21
211.76204572817454
31
0
0
LINE
5
68
330
11
100
AcDbEntity
100
AcDbLine
8
Layer_0
10
-5.206520332611923
20
211.76204572817454
30
0
11
-5.514841584326182
21
211.76204572817454
31
0
0
LINE
5
69
330
11
100
AcDbEntity
100
AcDbLine
8
Layer_0
10
-5.514841584326182
20
211.76204572817454
30
0
11
-5.514841584326182
21
212.10236260110872
31
0
0
LINE
5
6A
330
11
100
AcDbEntity
100
AcDbLine
8
Layer_0
10
-5.514841584326182
20
212.10236260110872
30
0
11
-5.878427901459281
21
212.0820016803168
31
0
0
LINE
5
6B
330
11
100
AcDbEntity
100
AcDbLine
8
Layer_0
10
-5.878427901459281
20
212.0820016803168
30
0
11
-6.009319018103211
21
211.76204572817454
31
0
0
LINE
5
6C
330
11
100
AcDbEntity
100
AcDbLine
8
Layer_0
10
-6.009319018103211
20
211.76204572817454
30
0
11
-6.227470824094861
21
211.74168489406833
31
0
0
LINE
5
6D
330
11
100
AcDbEntity
100
AcDbLine
8
Layer_0
10
-6.227470824094861
20
211.74168489406833
30
0
11
-6.227470824094861
21
211.47699396400205
31
0
0
LINE
5
6E
330
11
100
AcDbEntity
100
AcDbLine
8
Layer_0
10
-6.227470824094861
20
211.47699396400205
30
0
11
-6.009319018103211
21
211.47699396400205
31
0
0
LINE
5
6F
330
11
100
AcDbEntity
100
AcDbLine
8
Layer_0
10
-6.009319018103211
20
211.47699396400205
30
0
11
-6.009319018103211
21
210.76145603016386
31
0
0
SPLINE
5
70
330
11
100
AcDbEntity
100
AcDbSpline
8
Layer_0
210
0
220
0
230
1
70
8
71
3
72
8
73
4
74
0
42
1e-7
43
1e-7
44
1e-10
40
0
40
0
40
0
40
0
40
1
40
1
40
1
40
1
10
-6.009319018103211
20
210.76145603016386
30
0
10
-6.009319018103211
20
210.63735188711723
30
0
10
-5.972960373387039
20
210.54572813363936
30
0
10
-5.900243105626132
20
210.48658475347662
30
0
0
SPLINE
5
71
330
11
100
AcDbEntity
100
AcDbSpline
8
Layer_0
210
0
220
0
230
1
70
8
71
3
72
8
73
4
74
0
42
1e-7
43
1e-7
44
1e-10
40
0
40
0
40
0
40
0
40
1
40
1
40
1
40
1
10
-5.900243105626132
20
210.48658475347662
30
0
10
-5.8275258450890375
20
210.42744137150794
30
0
10
-5.724267318945023
20
210.3978696805236
30
0
10
-5.5904675271940905
20
210.3978696805236
30
0
0
SPLINE
5
72
330
11
100
AcDbEntity
100
AcDbSpline
8
Layer_0
210
0
220
0
230
1
70
8
71
3
72
8
73
4
74
0
42
1e-7
43
1e-7
44
1e-10
40
0
40
0
40
0
40
0
40
1
40
1
40
1
40
1
10
-5.5904675271940905
20
210.3978696805236
30
0
10
-5.526476328097062
20
210.3978696805236
30
0
10
-5.459091642201379
20
210.40368706053584
30
0
10
-5.388313512849909
20
210.4153218246237
30
0
0
SPLINE
5
73
330
11
100
AcDbEntity
100
AcDbSpline
8
Layer_0
210
0
220
0
230
1
70
8
71
3
72
8
73
4
74
0
42
1e-7
43
1e-7
44
1e-10
40
0
40
0
40
0
40
0
40
1
40
1
40
1
40
1
10
-5.388313512849909
20
210.4153218246237
30
0
10
-5.317535354603192
20
210.42695658826005
30
0
10
-5.263724572559262
20
210.4395609152318
30
0
10
-5.22688116671812
20
210.4531348055389
30
0
0
SPLINE
5
74
330
11
100
AcDbEntity
100
AcDbSpline
8
Layer_0
210
0
220
0
230
1
70
8
71
3
72
8
73
4
74
0
42
1e-7
43
1e-7
44
1e-10
40
0
40
0
40
0
40
0
40
1
40
1
40
1
40
1
10
-5.22688116671812
20
210.4531348055389
30
0
10
-5.22688116671812
20
210.57529982642964
30
0
10
-5.235607213710563
20
210.68292139051752
30
0
10
-5.253059394381193
20
210.7759994923846
30
0
0
LINE
5
75
330
11
100
AcDbEntity
100
AcDbLine
8
Layer_0
10
-5.253059394381193
20
210.7759994923846
30
0
11
-5.351954911476609
21
210.77309079560618
31
0
0
SPLINE
5
76
330
11
100
AcDbEntity
100
AcDbSpline
8
Layer_0
210
0
220
0
230
1
70
8
71
3
72
8
73
4
74
0
42
1e-7
43
1e-7
44
1e-10
40
0
40
0
40
0
40
0
40
1
40
1
40
1
40
1
10
-5.351954911476609
20
210.77309079560618
30
0
10
-5.4333981901109
20
210.77309079560618
30
0
10
-5.480906803025358
20
210.77987774753205
30
0
10
-5.494480750219985
20
210.7934516513838
30
0
0
SPLINE
5
77
330
11
100
AcDbEntity
100
AcDbSpline
8
Layer_0
210
0
220
0
230
1
70
8
71
3
72
8
73
4
74
0
42
1e-7
43
1e-7
44
1e-10
40
0
40
0
40
0
40
0
40
1
40
1
40
1
40
1
10
-5.494480750219985
20
210.7934516513838
30
0
10
-5.504176377252865
20
210.80314727841667
30
0
10
-5.509993770809741
20
210.8269015993215
30
0
10
-5.511932844204871
20
210.86471457075547
30
0
0
SPLINE
5
78
330
11
100
AcDbEntity
100
AcDbSpline
8
Layer_0
210
0
220
0
230
1
70
8
71
3
72
8
73
4
74
0
42
1e-7
43
1e-7
44
1e-10
40
0
40
0
40
0
40
0
40
1
40
1
40
1
40
1
10
-5.511932844204871
20
210.86471457075547
30
0
10
-5.513872004285744
20
210.90252755663704
30
0
10
-5.514841584326182
20
210.93888618690562
30
0
10
-5.514841584326182
20
210.97379046156112
30
0
0
SPLINE
5
79
330
11
100
AcDbEntity
100
AcDbSpline
8
Layer_0
210
0
220
0
230
1
70
8
71
3
72
8
73
4
74
0
42
1e-7
43
1e-7
44
1e-10
40
0
40
0
40
0
40
0
40
1
40
1
40
1
40
1
10
-4.9345577335889255
20
210.55057594715578
30
0
10
-4.819179673653812
20
210.4410152591061
30
0
10
-4.645142989263081
20
210.38623491508127
30
0
10
-4.412447680416732
20
210.38623491508127
30
0
0
SPLINE
5
7A
330
11
100
AcDbEntity
100
AcDbSpline
8
Layer_0
210
0
220
0
230
1
70
8
71
3
72
8
73
4
74
0
42
1e-7
43
1e-7
44
1e-10
40
0
40
0
40
0
40
0
40
1
40
1
40
1
40
1
10
-4.412447680416732
20
210.38623491508127
30
0
10
-4.170056831223247
20
210.38623491508127
30
0
10
-3.9916571377839176
20
210.44537829704998
30
0
10
-3.8772486000987447
20
210.56366506098735
30
0
0
SPLINE
5
7B
330
11
100
AcDbEntity
100
AcDbSpline
8
Layer_0
210
0
220
0
230
1
70
8
71
3
72
8
73
4
74
0
42
1e-7
43
1e-7
44
1e-10
40
0
40
0
40
0
40
0
40
1
40
1
40
1
40
1
10
-3.8772486000987447
20
210.56366506098735
30
0
10
-3.7628401202040678
20
210.6819518321485
30
0
10
-3.7056358802567297
20
210.8671384775137
30
0
10
-3.7056358802567297
20
211.11922499708294
30
0
0
SPLINE
5
7C
330
11
100
AcDbEntity
100
AcDbSpline
8
Layer_0
210
0
220
0
230
1
70
8
71
3
72
8
73
4
74
0
42
1e-7
43
1e-7
44
1e-10
40
0
40
0
40
0
40
0
40
1
40
1
40
1
40
1
10
-3.7056358802567297
20
211.11922499708294
30
0
10
-3.7056358802567297
20
211.3538593793244
30
0
10
-3.7589618289375695
20
211.52450260581176
30
0
10
-3.865613812984992
20
211.6311545898592
30
0
0
SPLINE
5
7D
330
11
100
AcDbEntity
100
AcDbSpline
8
Layer_0
210
0
220
0
230
1
70
8
71
3
72
8
73
4
74
0
42
1e-7
43
1e-7
44
1e-10
40
0
40
0
40
0
40
0
40
1
40
1
40
1
40
1
10
-3.865613812984992
20
211.6311545898592
30
0
10
-3.972265883718158
20
211.73780660280187
30
0
10
-4.150665606052734
20
211.79113260927318
30
0
10
-4.4008129799887215
20
211.79113260927318
30
0
0
SPLINE
5
7E
330
11
100
AcDbEntity
100
AcDbSpline
8
Layer_0
210
0
220
0
230
1
70
8
71
3
72
8
73
4
74
0
42
1e-7
43
1e-7
44
1e-10
40
0
40
0
40
0
40
0
40
1
40
1
40
1
40
1
10
-4.4008129799887215
20
211.79113260927318
30
0
10
-4.505525803955271
20
211.79113260927318
30
0
10
-4.617510434882224
20
211.77465000864296
30
0
10
-4.736766742740965
20
211.74168489406833
30
0
0
SPLINE
5
7F
330
11
100
AcDbEntity
100
AcDbSpline
8
Layer_0
210
0
220
0
230
1
70
8
71
3
72
8
73
4
74
0
42
1e-7
43
1e-7
44
1e-10
40
0
40
0
40
0
40
0
40
1
40
1
40
1
40
1
10
-4.736766742740965
20
211.74168489406833
30
0
10
-4.85602306504733
20
211.70871969280793
30
0
10
-4.937951191492334
20
211.66702844455511
30
0
10
-4.982551122075978
20
211.61661114930985
30
0
0
SPLINE
5
80
330
11
100
AcDbEntity
100
AcDbSpline
8
Layer_0
210
0
220
0
230
1
70
8
71
3
72
8
73
4
74
0
42
1e-7
43
1e-7
44
1e-10
40
0
40
0
40
0
40
0
40
1
40
1
40
1
40
1
10
-4.982551122075978
20
211.61661114930985
30
0
10
-5.01745541840293
20
211.57782864117831
30
0
10
-5.047027111193224
20
211.50947441858509
30
0
10
-5.07126620044686
20
211.4115484815301
30
0
0
SPLINE
5
81
330
11
100
AcDbEntity
100
AcDbSpline
8
Layer_0
210
0
220
0
230
1
70
8
71
3
72
8
73
4
74
0
42
1e-7
43
1e-7
44
1e-10
40
0
40
0
40
0
40
0
40
1
40
1
40
1
40
1
10
-5.07126620044686
20
211.4115484815301
30
0
10
-5.095505289700495
20
211.3136226022656
30
0
10
-5.107624834327313
20
211.19969886904826
30
0
10
-5.107624834327313
20
211.0697772818781
30
0
0
SPLINE
5
82
330
11
100
AcDbEntity
100
AcDbSpline
8
Layer_0
210
0
220
0
230
1
70
8
71
3
72
8
73
4
74
0
42
1e-7
43
1e-7
44
1e-10
40
0
40
0
40
0
40
0
40
1
40
1
40
1
40
1
10
-5.107624834327313
20
211.0697772818781
30
0
10
-5.107624834327313
20
210.83320373955573
30
0
10
-5.049935797135945
20
210.66013664965308
30
0
10
-4.9345577335889255
20
210.55057594715578
30
0
0
SPLINE
5
83
330
11
100
AcDbEntity
100
AcDbSpline
8
Layer_0
210
0
220
0
230
1
70
8
71
3
72
8
73
4
74
0
42
1e-7
43
1e-7
44
1e-10
40
0
40
0
40
0
40
0
40
1
40
1
40
1
40
1
10
-4.255378401124036
20
210.80654076521532
30
0
10
-4.278647975351542
20
210.75321475152018
30
0
10
-4.3280956905563785
20
210.72655175550832
30
0
10
-4.403721633424288
20
210.72655175550832
30
0
0
SPLINE
5
84
330
11
100
AcDbEntity
100
AcDbSpline
8
Layer_0
210
0
220
0
230
1
70
8
71
3
72
8
73
4
74
0
42
1e-7
43
1e-7
44
1e-10
40
0
40
0
40
0
40
0
40
1
40
1
40
1
40
1
10
-4.403721633424288
20
210.72655175550832
30
0
10
-4.479347619635069
20
210.72655175550832
30
0
10
-4.5302497049005614
20
210.75369954154039
30
0
10
-4.5564279325636345
20
210.8079950919331
30
0
0
SPLINE
5
85
330
11
100
AcDbEntity
100
AcDbSpline
8
Layer_0
210
0
220
0
230
1
70
8
71
3
72
8
73
4
74
0
42
1e-7
43
1e-7
44
1e-10
40
0
40
0
40
0
40
0
40
1
40
1
40
1
40
1
10
-4.5564279325636345
20
210.8079950919331
30
0
10
-4.58260613133146
20
210.8622906495496
30
0
10
-4.595695230715372
20
210.95536875864056
30
0
10
-4.595695230715372
20
211.08722941920587
30
0
0
SPLINE
5
86
330
11
100
AcDbEntity
100
AcDbSpline
8
Layer_0
210
0
220
0
230
1
70
8
71
3
72
8
73
4
74
0
42
1e-7
43
1e-7
44
1e-10
40
0
40
0
40
0
40
0
40
1
40
1
40
1
40
1
10
-4.595695230715372
20
211.08722941920587
30
0
10
-4.595695230715372
20
211.16479452215466
30
0
10
-4.590847417198932
20
211.239450928325
30
0
10
-4.581151790166053
20
211.3111986377169
30
0
0
SPLINE
5
87
330
11
100
AcDbEntity
100
AcDbSpline
8
Layer_0
210
0
220
0
230
1
70
8
71
3
72
8
73
4
74
0
42
1e-7
43
1e-7
44
1e-10
40
0
40
0
40
0
40
0
40
1
40
1
40
1
40
1
10
-4.581151790166053
20
211.3111986377169
30
0
10
-4.571456163133173
20
211.3829462893183
30
0
10
-4.5588518393218544
20
211.42560708871633
30
0
10
-4.5433388187320976
20
211.43918103591096
30
0
0
SPLINE
5
88
330
11
100
AcDbEntity
100
AcDbSpline
8
Layer_0
210
0
220
0
230
1
70
8
71
3
72
8
73
4
74
0
42
1e-7
43
1e-7
44
1e-10
40
0
40
0
40
0
40
0
40
1
40
1
40
1
40
1
10
-4.5433388187320976
20
211.43918103591096
30
0
10
-4.531704031618344
20
211.45275489641983
30
0
10
-4.487104129929948
20
211.45954187001715
30
0
10
-4.409539026981165
20
211.45954187001715
30
0
0
SPLINE
5
89
330
11
100
AcDbEntity
100
AcDbSpline
8
Layer_0
210
0
220
0
230
1
70
8
71
3
72
8
73
4
74
0
42
1e-7
43
1e-7
44
1e-10
40
0
40
0
40
0
40
0
40
1
40
1
40
1
40
1
10
-4.409539026981165
20
211.45954187001715
30
0
10
-4.355243498259889
20
211.45954187001715
30
0
10
-4.315006576724842
20
211.44742233622605
30
0
10
-4.2888283490617685
20
211.4231831819581
30
0
0
SPLINE
5
8A
330
11
100
AcDbEntity
100
AcDbSpline
8
Layer_0
210
0
220
0
230
1
70
8
71
3
72
8
73
4
74
0
42
1e-7
43
1e-7
44
1e-10
40
0
40
0
40
0
40
0
40
1
40
1
40
1
40
1
10
-4.2888283490617685
20
211.4231831819581
30
0
10
-4.262650121398695
20
211.39894411437592
30
0
10
-4.244713194050719
20
211.36113118628484
30
0
10
-4.235017567017839
20
211.30974431099912
30
0
0
SPLINE
5
8B
330
11
100
AcDbEntity
100
AcDbSpline
8
Layer_0
210
0
220
0
230
1
70
8
71
3
72
8
73
4
74
0
42
1e-7
43
1e-7
44
1e-10
40
0
40
0
40
0
40
0
40
1
40
1
40
1
40
1
10
-4.235017567017839
20
211.30974431099912
30
0
10
-4.225321939984959
20
211.2583574357134
30
0
10
-4.2204741264685195
20
211.185155312918
30
0
10
-4.2204741264685195
20
211.09013811598433
30
0
0
SPLINE
5
8C
330
11
100
AcDbEntity
100
AcDbSpline
8
Layer_0
210
0
220
0
230
1
70
8
71
3
72
8
73
4
74
0
42
1e-7
43
1e-7
44
1e-10
40
0
40
0
40
0
40
0
40
1
40
1
40
1
40
1
10
-4.2204741264685195
20
211.09013811598433
30
0
10
-4.2204741264685195
20
210.95439920749538
30
0
10
-4.232108913582272
20
210.85986675723902
30
0
10
-4.255378401124036
20
210.80654076521532
30
0
0
SPLINE
5
8D
330
11
100
AcDbEntity
100
AcDbSpline
8
Layer_0
210
0
220
0
230
1
70
8
71
3
72
8
73
4
74
0
42
1e-7
43
1e-7
44
1e-10
40
0
40
0
40
0
40
0
40
1
40
1
40
1
40
1
10
-3.392951565170807
20
210.55057594715578
30
0
10
-3.2775735052356936
20
210.4410152591061
30
0
10
-3.103536820844962
20
210.38623491508127
30
0
10
-2.8708415119986133
20
210.38623491508127
30
0
0
SPLINE
5
8E
330
11
100
AcDbEntity
100
AcDbSpline
8
Layer_0
210
0
220
0
230
1
70
8
71
3
72
8
73
4
74
0
42
1e-7
43
1e-7
44
1e-10
40
0
40
0
40
0
40
0
40
1
40
1
40
1
40
1
10
-2.8708415119986133
20
210.38623491508127
30
0
10
-2.628450662805128
20
210.38623491508127
30
0
10
-2.4500509693657997
20
210.44537829704998
30
0
10
-2.335642431680627
20
210.56366506098735
30
0
0
SPLINE
5
8F
330
11
100
AcDbEntity
100
AcDbSpline
8
Layer_0
210
0
220
0
230
1
70
8
71
3
72
8
73
4
74
0
42
1e-7
43
1e-7
44
1e-10
40
0
40
0
40
0
40
0
40
1
40
1
40
1
40
1
10
-2.335642431680627
20
210.56366506098735
30
0
10
-2.22123395178595
20
210.6819518321485
30
0
10
-2.1640297118386114
20
210.8671384775137
30
0
10
-2.1640297118386114
20
211.11922499708294
30
0
0
SPLINE
5
90
330
11
100
AcDbEntity
100
AcDbSpline
8
Layer_0
210
0
220
0
230
1
70
8
71
3
72
8
73
4
74
0
42
1e-7
43
1e-7
44
1e-10
40
0
40
0
40
0
40
0
40
1
40
1
40
1
40
1
10
-2.1640297118386114
20
211.11922499708294
30
0
10
-2.1640297118386114
20
211.3538593793244
30
0
10
-2.21735566051945
20
211.52450260581176
30
0
10
-2.3240076445668727
20
211.6311545898592
30
0
0
SPLINE
5
91
330
11
100
AcDbEntity
100
AcDbSpline
8
Layer_0
210
0
220
0
230
1
70
8
71
3
72
8
73
4
74
0
42
1e-7
43
1e-7
44
1e-10
40
0
40
0
40
0
40
0
40
1
40
1
40
1
40
1
10
-2.3240076445668727
20
211.6311545898592
30
0
10
-2.4306597153000387
20
211.73780660280187
30
0
10
-2.609059437634616
20
211.79113260927318
30
0
10
-2.859206811570603
20
211.79113260927318
30
0
0
SPLINE
5
92
330
11
100
AcDbEntity
100
AcDbSpline
8
Layer_0
210
0
220
0
230
1
70
8
71
3
72
8
73
4
74
0
42
1e-7
43
1e-7
44
1e-10
40
0
40
0
40
0
40
0
40
1
40
1
40
1
40
1
10
-2.859206811570603
20
211.79113260927318
30
0
10
-2.9639196355371524
20
211.79113260927318
30
0
10
-3.075904266464106
20
211.77465000864296
30
0
10
-3.1951605743228466
20
211.74168489406833
30
0
0
SPLINE
5
93
330
11
100
AcDbEntity
100
AcDbSpline
8
Layer_0
210
0
220
0
230
1
70
8
71
3
72
8
73
4
74
0
42
1e-7
43
1e-7
44
1e-10
40
0
40
0
40
0
40
0
40
1
40
1
40
1
40
1
10
-3.1951605743228466
20
211.74168489406833
30
0
10
-3.3144168966292114
20
211.70871969280793
30
0
10
-3.3963450230742156
20
211.66702844455511
30
0
10
-3.44094495365786
20
211.61661114930985
30
0
0
SPLINE
5
94
330
11
100
AcDbEntity
100
AcDbSpline
8
Layer_0
210
0
220
0
230
1
70
8
71
3
72
8
73
4
74
0
42
1e-7
43
1e-7
44
1e-10
40
0
40
0
40
0
40
0
40
1
40
1
40
1
40
1
10
-3.44094495365786
20
211.61661114930985
30
0
10
-3.475849249984812
20
211.57782864117831
30
0
10
-3.5054209427751055
20
211.50947441858509
30
0
10
-3.5296600320287412
20
211.4115484815301
30
0
0
SPLINE
5
95
330
11
100
AcDbEntity
100
AcDbSpline
8
Layer_0
210
0
220
0
230
1
70
8
71
3
72
8
73
4
74
0
42
1e-7
43
1e-7
44
1e-10
40
0
40
0
40
0
40
0
40
1
40
1
40
1
40
1
10
-3.5296600320287412
20
211.4115484815301
30
0
10
-3.553899121282377
20
211.3136226022656
30
0
10
-3.566018665909195
20
211.19969886904826
30
0
10
-3.566018665909195
20
211.0697772818781
30
0
0
SPLINE
5
96
330
11
100
AcDbEntity
100
AcDbSpline
8
Layer_0
210
0
220
0
230
1
70
8
71
3
72
8
73
4
74
0
42
1e-7
43
1e-7
44
1e-10
40
0
40
0
40
0
40
0
40
1
40
1
40
1
40
1
10
-3.566018665909195
20
211.0697772818781
30
0
10
-3.566018665909195
20
210.83320373955573
30
0
10
-3.508329628717827
20
210.66013664965308
30
0
10
-3.392951565170807
20
210.55057594715578
30
0
0
SPLINE
5
97
330
11
100
AcDbEntity
100
AcDbSpline
8
Layer_0
210
0
220
0
230
1
70
8
71
3
72
8
73
4
74
0
42
1e-7
43
1e-7
44
1e-10
40
0
40
0
40
0
40
0
40
1
40
1
40
1
40
1
10
-2.7137722327059177
20
210.80654076521532
30
0
10
-2.737041806933424
20
210.75321475152018
30
0
10
-2.78648952213826
20
210.72655175550832
30
0
10
-2.8621154650061698
20
210.72655175550832
30
0
0
SPLINE
5
98
330
11
100
AcDbEntity
100
AcDbSpline
8
Layer_0
210
0
220
0
230
1
70
8
71
3
72
8
73
4
74
0
42
1e-7
43
1e-7
44
1e-10
40
0
40
0
40
0
40
0
40
1
40
1
40
1
40
1
10
-2.8621154650061698
20
210.72655175550832
30
0
10
-2.937741451216951
20
210.72655175550832
30
0
10
-2.988643536482442
20
210.75369954154039
30
0
10
-3.0148217641455153
20
210.8079950919331
30
0
0
SPLINE
5
99
330
11
100
AcDbEntity
100
AcDbSpline
8
Layer_0
210
0
220
0
230
1
70
8
71
3
72
8
73
4
74
0
42
1e-7
43
1e-7
44
1e-10
40
0
40
0
40
0
40
0
40
1
40
1
40
1
40
1
10
-3.0148217641455153
20
210.8079950919331
30
0
10
-3.040999962913341
20
210.8622906495496
30
0
10
-3.0540890622972543
20
210.95536875864056
30
0
10
-3.0540890622972543
20
211.08722941920587
30
0
0
SPLINE
5
9A
330
11
100
AcDbEntity
100
AcDbSpline
8
Layer_0
210
0
220
0
230
1
70
8
71
3
72
8
73
4
74
0
42
1e-7
43
1e-7
44
1e-10
40
0
40
0
40
0
40
0
40
1
40
1
40
1
40
1
10
-3.0540890622972543
20
211.08722941920587
30
0
10
-3.0540890622972543
20
211.16479452215466
30
0
10
-3.0492412487808136
20
211.239450928325
30
0
10
-3.0395456217479335
20
211.3111986377169
30
0
0
SPLINE
5
9B
330
11
100
AcDbEntity
100
AcDbSpline
8
Layer_0
210
0
220
0
230
1
70
8
71
3
72
8
73
4
74
0
42
1e-7
43
1e-7
44
1e-10
40
0
40
0
40
0
40
0
40
1
40
1
40
1
40
1
10
-3.0395456217479335
20
211.3111986377169
30
0
10
-3.0298499947150535
20
211.3829462893183
30
0
10
-3.0172456709037356
20
211.42560708871633
30
0
10
-3.001732650313979
20
211.43918103591096
30
0
0
SPLINE
5
9C
330
11
100
AcDbEntity
100
AcDbSpline
8
Layer_0
210
0
220
0
230
1
70
8
71
3
72
8
73
4
74
0
42
1e-7
43
1e-7
44
1e-10
40
0
40
0
40
0
40
0
40
1
40
1
40
1
40
1
10
-3.001732650313979
20
211.43918103591096
30
0
10
-2.990097863200226
20
211.45275489641983
30
0
10
-2.9454979615118297
20
211.45954187001715
30
0
10
-2.867932858563047
20
211.45954187001715
30
0
0
SPLINE
5
9D
330
11
100
AcDbEntity
100
AcDbSpline
8
Layer_0
210
0
220
0
230
1
70
8
71
3
72
8
73
4
74
0
42
1e-7
43
1e-7
44
1e-10
40
0
40
0
40
0
40
0
40
1
40
1
40
1
40
1
10
-2.867932858563047
20
211.45954187001715
30
0
10
-2.8136373298417707
20
211.45954187001715
30
0
10
-2.7734004083067236
20
211.44742233622605
30
0
10
-2.7472221806436505
20
211.4231831819581
30
0
0
SPLINE
5
9E
330
11
100
AcDbEntity
100
AcDbSpline
8
Layer_0
210
0
220
0
230
1
70
8
71
3
72
8
73
4
74
0
42
1e-7
43
1e-7
44
1e-10
40
0
40
0
40
0
40
0
40
1
40
1
40
1
40
1
10
-2.7472221806436505
20
211.4231831819581
30
0
10
-2.7210439529805774
20
211.39894411437592
30
0
10
-2.7031070256326006
20
211.36113118628484
30
0
10
-2.6934113985997206
20
211.30974431099912
30
0
0
SPLINE
5
9F
330
11
100
AcDbEntity
100
AcDbSpline
8
Layer_0
210
0
220
0
230
1
70
8
71
3
72
8
73
4
74
0
42
1e-7
43
1e-7
44
1e-10
40
0
40
0
40
0
40
0
40
1
40
1
40
1
40
1
10
-2.6934113985997206
20
211.30974431099912
30
0
10
-2.6837157715668405
20
211.2583574357134
30
0
10
-2.678867958050401
20
211.185155312918
30
0
10
-2.678867958050401
20
211.09013811598433
30
0
0
SPLINE
5
A0
330
11
100
AcDbEntity
100
AcDbSpline
8
Layer_0
210
0
220
0
230
1
70
8
71
3
72
8
73
4
74
0
42
1e-7
43
1e-7
44
1e-10
40
0
40
0
40
0
40
0
40
1
40
1
40
1
40
1
10
-2.678867958050401
20
211.09013811598433
30
0
10
-2.678867958050401
20
210.95439920749538
30
0
10
-2.6905027451641548
20
210.85986675723902
30
0
10
-2.7137722327059177
20
210.80654076521532
30
0
0
LINE
5
A1
330
11
100
AcDbEntity
100
AcDbLine
8
Layer_0
10
-1.966238681115207
20
210.42404789735096
30
0
11
-1.966238681115207
21
212.1692624969842
31
0
0
LINE
5
A2
330
11
100
AcDbEntity
100
AcDbLine
8
Layer_0
10
-1.966238681115207
20
212.1692624969842
30
0
11
-1.4688525288883034
21
212.1896232444047
31
0
0
LINE
5
A3
330
11
100
AcDbEntity
100
AcDbLine
8
Layer_0
10
-1.4688525288883034
20
212.1896232444047
30
0
11
-1.4688525288883034
21
210.42404789735096
31
0
0
LINE
5
A4
330
11
100
AcDbEntity
100
AcDbLine
8
Layer_0
10
-1.4688525288883034
20
210.42404789735096
30
0
11
-1.966238681115207
21
210.42404789735096
31
0
0
SPLINE
5
A5
330
11
100
AcDbEntity
100
AcDbSpline
8
Layer_0
210
0
220
0
230
1
70
8
71
3
72
8
73
4
74
0
42
1e-7
43
1e-7
44
1e-10
40
0
40
0
40
0
40
0
40
1
40
1
40
1
40
1
10
-4.042766809463501
20
0.18843596935272222
30
0
10
-4.042868375542098
20
0.18843128046489965
30
0
10
-4.0429699423289955
20
0.18842627365146108
30
0
10
-4.043071508407593
20
0.18842094898223882
30
0
0
LINE
5
A6
330
11
100
AcDbEntity
100
AcDbLine
8
Layer_0
10
-4.043071508407593
20
0.18842094898223882
30
0
11
-4.139591455459595
21
0.18334108352661138
31
0
0
SPLINE
5
A7
330
11
100
AcDbEntity
100
AcDbSpline
8
Layer_0
210
0
220
0
230
1
70
8
71
3
72
8
73
4
74
0
42
1e-7
43
1e-7
44
1e-10
40
0
40
0
40
0
40
0
40
1
40
1
40
1
40
1
10
-4.139591455459595
20
0.18334108352661138
30
0
10
-4.167070149930098
20
0.18189482950883512
30
0
10
-4.188215901341478
20
0.15851736042043188
30
0
10
-4.186907052993774
20
0.13103180885314947
30
0
0
SPLINE
5
A8
330
11
100
AcDbEntity
100
AcDbSpline
8
Layer_0
210
0
220
0
230
1
70
8
71
3
72
8
73
4
74
0
42
1e-7
43
1e-7
44
1e-10
40
0
40
0
40
0
40
0
40
1
40
1
40
1
40
1
10
-4.186907052993774
20
0.13103180885314947
30
0
10
-4.183558066685994
20
0.06070563952128098
30
0
10
-4.1818835735321045
20
-0.12392165501912433
30
0
10
-4.1818835735321045
20
-0.42285007476806635
30
0
0
LINE
5
A9
330
11
100
AcDbEntity
100
AcDbLine
8
Layer_0
10
-4.1818835735321045
20
-0.42285007476806635
30
0
11
-4.184423089027405
21
-0.9814226055145263
31
0
0
SPLINE
5
AA
330
11
100
AcDbEntity
100
AcDbSpline
8
Layer_0
210
0
220
0
230
1
70
8
71
3
72
8
73
4
74
0
42
1e-7
43
1e-7
44
1e-10
40
0
40
0
40
0
40
0
40
1
40
1
40
1
40
1
10
-4.184423089027405
20
-0.9814226055145263
30
0
10
-4.186116735140483
20
-1.0454805914560954
30
0
10
-4.1869635581970215
20
-1.1353030427296955
30
0
10
-4.1869635581970215
20
-1.250889959335327
30
0
0
SPLINE
5
AB
330
11
100
AcDbEntity
100
AcDbSpline
8
Layer_0
210
0
220
0
230
1
70
8
71
3
72
8
73
4
74
0
42
1e-7
43
1e-7
44
1e-10
40
0
40
0
40
0
40
0
40
1
40
1
40
1
40
1
10
-4.1869635581970215
20
-1.250889959335327
30
0
10
-4.186963240305583
20
-1.4975624306996662
30
0
10
-4.234218915303548
20
-1.6868186219533283
30
0
10
-4.328730583190918
20
-1.8186585330963134
30
0
0
SPLINE
5
AC
330
11
100
AcDbEntity
100
AcDbSpline
8
Layer_0
210
0
220
0
230
1
70
8
71
3
72
8
73
4
74
0
42
1e-7
43
1e-7
44
1e-10
40
0
40
0
40
0
40
0
40
1
40
1
40
1
40
1
10
-4.328730583190918
20
-1.8186585330963134
30
0
10
-4.419510205586751
20
-1.9452929719289143
30
0
10
-4.546087861061096
20
-2.008610111872355
30
0
10
-4.708463549613953
20
-2.0086099529266357
30
0
0
SPLINE
5
AD
330
11
100
AcDbEntity
100
AcDbSpline
8
Layer_0
210
0
220
0
230
1
70
8
71
3
72
8
73
4
74
0
42
1e-7
43
1e-7
44
1e-10
40
0
40
0
40
0
40
0
40
1
40
1
40
1
40
1
10
-4.708463549613953
20
-2.0086099529266357
30
0
10
-4.795568982760112
20
-2.0086099529266357
30
0
10
-4.892130692799886
20
-1.9893621031443278
30
0
10
-4.998148679733276
20
-1.9508664035797119
30
0
0
SPLINE
5
AE
330
11
100
AcDbEntity
100
AcDbSpline
8
Layer_0
210
0
220
0
230
1
70
8
71
3
72
8
73
4
74
0
42
1e-7
43
1e-7
44
1e-10
40
0
40
0
40
0
40
0
40
1
40
1
40
1
40
1
10
-4.998148679733276
20
-1.9508664035797119
30
0
10
-5.014872153600057
20
-1.94440510114034
30
0
10
-5.03092082341512
20
-1.94446883837382
30
0
10
-5.046294689178467
20
-1.9510576152801513
30
0
0
SPLINE
5
AF
330
11
100
AcDbEntity
100
AcDbSpline
8
Layer_0
210
0
220
0
230
1
70
8
71
3
72
8
73
4
74
0
42
1e-7
43
1e-7
44
1e-10
40
0
40
0
40
0
40
0
40
1
40
1
40
1
40
1
10
-5.046294689178467
20
-1.9510576152801513
30
0
10
-5.0619486172993975
20
-1.9577663962046306
30
0
10
-5.073186159133911
20
-1.9696472708384196
30
0
10
-5.080007314682007
20
-1.9867002391815185
30
0
0
LINE
5
B0
330
11
100
AcDbEntity
100
AcDbLine
8
Layer_0
10
-5.080007314682007
20
-1.9867002391815185
30
0
11
-5.105015516281128
21
-2.0517093563079833
31
0
0
SPLINE
5
B1
330
11
100
AcDbEntity
100
AcDbSpline
8
Layer_0
210
0
220
0
230
1
70
8
71
3
72
8
73
4
74
0
42
1e-7
43
1e-7
44
1e-10
40
0
40
0
40
0
40
0
40
1
40
1
40
1
40
1
10
-5.105015516281128
20
-2.0517093563079833
30
0
10
-5.112828334172566
20
-2.0690826002756753
30
0
10
-5.112391710281372
20
-2.086455923716227
30
0
10
-5.103705644607544
20
-2.1038293266296386
30
0
0
SPLINE
5
B2
330
11
100
AcDbEntity
100
AcDbSpline
8
Layer_0
210
0
220
0
230
1
70
8
71
3
72
8
73
4
74
0
42
1e-7
43
1e-7
44
1e-10
40
0
40
0
40
0
40
0
40
1
40
1
40
1
40
1
10
-5.103705644607544
20
-2.1038293266296386
30
0
10
-5.097043593724568
20
-2.117154541015625
30
0
10
-5.087049802144368
20
-2.1271484915415444
30
0
10
-5.073724269866943
20
-2.1338111782073974
30
0
0
SPLINE
5
B3
330
11
100
AcDbEntity
100
AcDbSpline
8
Layer_0
210
0
220
0
230
1
70
8
71
3
72
8
73
4
74
0
42
1e-7
43
1e-7
44
1e-10
40
0
40
0
40
0
40
0
40
1
40
1
40
1
40
1
10
-5.073724269866943
20
-2.1338111782073974
30
0
10
-5.07216052550216
20
-2.1345931298079894
30
0
10
-5.070556865024969
20
-2.1352924184097004
30
0
10
-5.068919897079468
20
-2.135906162261963
30
0
0
SPLINE
5
B4
330
11
100
AcDbEntity
100
AcDbSpline
8
Layer_0
210
0
220
0
230
1
70
8
71
3
72
8
73
4
74
0
42
1e-7
43
1e-7
44
1e-10
40
0
40
0
40
0
40
0
40
1
40
1
40
1
40
1
10
-5.068919897079468
20
-2.135906162261963
30
0
10
-4.941339731216431
20
-2.1837485059102377
30
0
10
-4.821187575658162
20
-2.207669836680094
30
0
10
-4.708463430404663
20
-2.207670154571533
30
0
0
SPLINE
5
B5
330
11
100
AcDbEntity
100
AcDbSpline
8
Layer_0
210
0
220
0
230
1
70
8
71
3
72
8
73
4
74
0
42
1e-7
43
1e-7
44
1e-10
40
0
40
0
40
0
40
0
40
1
40
1
40
1
40
1
10
-4.708463430404663
20
-2.207670154571533
30
0
10
-4.562314589818318
20
-2.207670472462972
30
0
10
-4.43451730410258
20
-2.1685823822021484
30
0
10
-4.325071573257446
20
-2.0904058837890624
30
0
0
SPLINE
5
B6
330
11
100
AcDbEntity
100
AcDbSpline
8
Layer_0
210
0
220
0
230
1
70
8
71
3
72
8
73
4
74
0
42
1e-7
43
1e-7
44
1e-10
40
0
40
0
40
0
40
0
40
1
40
1
40
1
40
1
10
-4.325071573257446
20
-2.0904058837890624
30
0
10
-4.2163708209991455
20
-2.012763442993164
30
0
10
-4.133113582928975
20
-1.9016746107737224
30
0
10
-4.075299859046936
20
-1.7571393871307373
30
0
0
SPLINE
5
B7
330
11
100
AcDbEntity
100
AcDbSpline
8
Layer_0
210
0
220
0
230
1
70
8
71
3
72
8
73
4
74
0
42
1e-7
43
1e-7
44
1e-10
40
0
40
0
40
0
40
0
40
1
40
1
40
1
40
1
10
-4.075299859046936
20
-1.7571393871307373
30
0
10
-4.018728931744893
20
-1.6157121880849201
30
0
10
-3.990443527698517
20
-1.4469623788197834
30
0
10
-3.9904436469078064
20
-1.250889959335327
30
0
0
SPLINE
5
B8
330
11
100
AcDbEntity
100
AcDbSpline
8
Layer_0
210
0
220
0
230
1
70
8
71
3
72
8
73
4
74
0
42
1e-7
43
1e-7
44
1e-10
40
0
40
0
40
0
40
0
40
1
40
1
40
1
40
1
10
-3.9904436469078064
20
-1.250889959335327
30
0
10
-3.990443686644236
20
-1.1378663603464763
30
0
10
-3.989602506160736
20
-1.0485468133290607
30
0
10
-3.987920105457306
20
-0.982931318283081
30
0
0
LINE
5
B9
330
11
100
AcDbEntity
100
AcDbLine
8
Layer_0
10
-3.987920105457306
20
-0.982931318283081
30
0
11
-3.985364079475403
21
-0.4205362224578857
31
0
0
SPLINE
5
BA
330
11
100
AcDbEntity
100
AcDbSpline
8
Layer_0
210
0
220
0
230
1
70
8
71
3
72
8
73
4
74
0
42
1e-7
43
1e-7
44
1e-10
40
0
40
0
40
0
40
0
40
1
40
1
40
1
40
1
10
-3.985364079475403
20
-0.4205362224578857
30
0
10
-3.9853633642196655
20
-0.11989182472228999
30
0
10
-3.987074553966522
20
0.06722463925679531
30
0
10
-3.990497648715973
20
0.14081316947937017
30
0
0
SPLINE
5
BB
330
11
100
AcDbEntity
100
AcDbSpline
8
Layer_0
210
0
220
0
230
1
70
8
71
3
72
8
73
4
74
0
42
1e-7
43
1e-7
44
1e-10
40
0
40
0
40
0
40
0
40
1
40
1
40
1
40
1
10
-3.990497648715973
20
0.14081316947937017
30
0
10
-3.991780689370251
20
0.16839755598426515
30
0
10
-4.01518239003987
20
0.18971901000700012
30
0
10
-4.042766809463501
20
0.18843596935272222
30
0
0
SPLINE
5
BC
330
11
100
AcDbEntity
100
AcDbSpline
8
Layer_0
210
0
220
0
230
1
70
8
71
3
72
8
73
4
74
0
42
1e-7
43
1e-7
44
1e-10
40
0
40
0
40
0
40
0
40
1
40
1
40
1
40
1
10
-2.3386435508728027
20
-1.935889902114868
30
0
10
-2.311029307074357
20
-1.935889902114868
30
0
10
-2.288643538951874
20
-1.9135041606782937
30
0
10
-2.288643538951874
20
-1.885889949798584
30
0
0
LINE
5
BD
330
11
100
AcDbEntity
100
AcDbLine
8
Layer_0
10
-2.288643538951874
20
-1.885889949798584
30
0
11
-2.288643538951874
21
-1.789370002746582
31
0
0
SPLINE
5
BE
330
11
100
AcDbEntity
100
AcDbSpline
8
Layer_0
210
0
220
0
230
1
70
8
71
3
72
8
73
4
74
0
42
1e-7
43
1e-7
44
1e-10
40
0
40
0
40
0
40
0
40
1
40
1
40
1
40
1
10
-2.288643538951874
20
-1.789370002746582
30
0
10
-2.288643538951874
20
-1.7617557918668723
30
0
10
-2.311029307074357
20
-1.7393700504302978
30
0
10
-2.3386435508728027
20
-1.7393700504302978
30
0
0
LINE
5
BF
330
11
100
AcDbEntity
100
AcDbLine
8
Layer_0
10
-2.3386435508728027
20
-1.7393700504302978
30
0
11
-2.3979284167289734
21
-1.7393700504302978
31
0
0
SPLINE
5
C0
330
11
100
AcDbEntity
100
AcDbSpline
8
Layer_0
210
0
220
0
230
1
70
8
71
3
72
8
73
4
74
0
42
1e-7
43
1e-7
44
1e-10
40
0
40
0
40
0
40
0
40
1
40
1
40
1
40
1
10
-2.3979284167289734
20
-1.7393700504302978
30
0
10
-2.3946786125501
20
-1.7348060830434162
30
0
10
-2.3915295203526816
20
-1.730237824122111
30
0
10
-2.3884811401367188
20
-1.7256652736663818
30
0
0
SPLINE
5
C1
330
11
100
AcDbEntity
100
AcDbSpline
8
Layer_0
210
0
220
0
230
1
70
8
71
3
72
8
73
4
74
0
42
1e-7
43
1e-7
44
1e-10
40
0
40
0
40
0
40
0
40
1
40
1
40
1
40
1
10
-2.3884811401367188
20
-1.7256652736663818
30
0
10
-2.3253095149993896
20
-1.634633404413859
30
0
10
-2.29372368256251
20
-1.5271749718983967
30
0
10
-2.2937236428260803
20
-1.403289976119995
30
0
0
SPLINE
5
C2
330
11
100
AcDbEntity
100
AcDbSpline
8
Layer_0
210
0
220
0
230
1
70
8
71
3
72
8
73
4
74
0
42
1e-7
43
1e-7
44
1e-10
40
0
40
0
40
0
40
0
40
1
40
1
40
1
40
1
10
-2.2937236428260803
20
-1.403289976119995
30
0
10
-2.2937236030896506
20
-1.278684320449829
30
0
10
-2.3238027691841125
20
-1.1553255144755046
30
0
10
-2.3839611411094666
20
-1.0332135581970214
30
0
0
SPLINE
5
C3
330
11
100
AcDbEntity
100
AcDbSpline
8
Layer_0
210
0
220
0
230
1
70
8
71
3
72
8
73
4
74
0
42
1e-7
43
1e-7
44
1e-10
40
0
40
0
40
0
40
0
40
1
40
1
40
1
40
1
10
-2.3839611411094666
20
-1.0332135581970214
30
0
10
-2.4442009727160134
20
-0.9109356625874837
30
0
10
-2.5287208457787833
20
-0.8088843250274658
30
0
10
-2.6375207602977753
20
-0.7270595455169677
30
0
0
SPLINE
5
C4
330
11
100
AcDbEntity
100
AcDbSpline
8
Layer_0
210
0
220
0
230
1
70
8
71
3
72
8
73
4
74
0
42
1e-7
43
1e-7
44
1e-10
40
0
40
0
40
0
40
0
40
1
40
1
40
1
40
1
10
-2.6375207602977753
20
-0.7270595455169677
30
0
10
-2.7482785284519196
20
-0.6437619749704996
30
0
10
-2.8723533349111676
20
-0.5993654155731201
30
0
10
-3.0097451796755195
20
-0.593869867324829
30
0
0
SPLINE
5
C5
330
11
100
AcDbEntity
100
AcDbSpline
8
Layer_0
210
0
220
0
230
1
70
8
71
3
72
8
73
4
74
0
42
1e-7
43
1e-7
44
1e-10
40
0
40
0
40
0
40
0
40
1
40
1
40
1
40
1
10
-3.0097451796755195
20
-0.593869867324829
30
0
10
-3.114182402379811
20
-0.5900718593597412
30
0
10
-3.212045669555664
20
-0.6201713307698568
30
0
10
-3.3033349812030792
20
-0.6841682815551757
30
0
0
SPLINE
5
C6
330
11
100
AcDbEntity
100
AcDbSpline
8
Layer_0
210
0
220
0
230
1
70
8
71
3
72
8
73
4
74
0
42
1e-7
43
1e-7
44
1e-10
40
0
40
0
40
0
40
0
40
1
40
1
40
1
40
1
10
-3.3033349812030792
20
-0.6841682815551757
30
0
10
-3.392516702413559
20
-0.7466873550415039
30
0
10
-3.4635481437047324
20
-0.8321957810719808
30
0
10
-3.516429305076599
20
-0.9406935596466064
30
0
0
SPLINE
5
C7
330
11
100
AcDbEntity
100
AcDbSpline
8
Layer_0
210
0
220
0
230
1
70
8
71
3
72
8
73
4
74
0
42
1e-7
43
1e-7
44
1e-10
40
0
40
0
40
0
40
0
40
1
40
1
40
1
40
1
10
-3.516429305076599
20
-0.9406935596466064
30
0
10
-3.568905472755432
20
-1.0483603700002033
30
0
10
-3.5951435764630637
20
-1.1653057956695556
30
0
10
-3.5951436161994934
20
-1.291529836654663
30
0
0
SPLINE
5
C8
330
11
100
AcDbEntity
100
AcDbSpline
8
Layer_0
210
0
220
0
230
1
70
8
71
3
72
8
73
4
74
0
42
1e-7
43
1e-7
44
1e-10
40
0
40
0
40
0
40
0
40
1
40
1
40
1
40
1
10
-3.5951436161994934
20
-1.291529836654663
30
0
10
-3.5951435764630637
20
-1.444857301712036
30
0
10
-3.551606168349584
20
-1.5797238572438557
30
0
10
-3.4645313918590546
20
-1.696129503250122
30
0
0
SPLINE
5
C9
330
11
100
AcDbEntity
100
AcDbSpline
8
Layer_0
210
0
220
0
230
1
70
8
71
3
72
8
73
4
74
0
42
1e-7
43
1e-7
44
1e-10
40
0
40
0
40
0
40
0
40
1
40
1
40
1
40
1
10
-3.4645313918590546
20
-1.696129503250122
30
0
10
-3.3764010965824127
20
-1.8139456335703532
30
0
10
-3.256603660682837
20
-1.8876306438446044
30
0
10
-3.105139084160328
20
-1.917184534072876
30
0
0
SPLINE
5
CA
330
11
100
AcDbEntity
100
AcDbSpline
8
Layer_0
210
0
220
0
230
1
70
8
71
3
72
8
73
4
74
0
42
1e-7
43
1e-7
44
1e-10
40
0
40
0
40
0
40
0
40
1
40
1
40
1
40
1
10
-3.105139084160328
20
-1.917184534072876
30
0
10
-3.0417344185213246
20
-1.9290735149383544
30
0
10
-2.9821901532510915
20
-1.9365054988861083
30
0
10
-2.9265062883496284
20
-1.9394804859161376
30
0
0
SPLINE
5
CB
330
11
100
AcDbEntity
100
AcDbSpline
8
Layer_0
210
0
220
0
230
1
70
8
71
3
72
8
73
4
74
0
42
1e-7
43
1e-7
44
1e-10
40
0
40
0
40
0
40
0
40
1
40
1
40
1
40
1
10
-2.9265062883496284
20
-1.9394804859161376
30
0
10
-2.948635240395864
20
-1.9526252969106037
30
0
10
-2.971091549222668
20
-1.9654449049631755
30
0
10
-2.993875214830041
20
-1.9779393100738525
30
0
0
SPLINE
5
CC
330
11
100
AcDbEntity
100
AcDbSpline
8
Layer_0
210
0
220
0
230
1
70
8
71
3
72
8
73
4
74
0
42
1e-7
43
1e-7
44
1e-10
40
0
40
0
40
0
40
0
40
1
40
1
40
1
40
1
10
-2.993875214830041
20
-1.9779393100738525
30
0
10
-3.0695330183953047
20
-2.0194290701548256
30
0
10
-3.1310782631238303
20
-2.0472888374328613
30
0
10
-3.1785109490156174
20
-2.061518611907959
30
0
0
SPLINE
5
CD
330
11
100
AcDbEntity
100
AcDbSpline
8
Layer_0
210
0
220
0
230
1
70
8
71
3
72
8
73
4
74
0
42
1e-7
43
1e-7
44
1e-10
40
0
40
0
40
0
40
0
40
1
40
1
40
1
40
1
10
-3.1785109490156174
20
-2.061518611907959
30
0
10
-3.204960602001592
20
-2.0694534757079834
30
0
10
-3.219969804519629
20
-2.097327654630882
30
0
10
-3.2120349407196045
20
-2.123777332305908
30
0
0
LINE
5
CE
330
11
100
AcDbEntity
100
AcDbLine
8
Layer_0
10
-3.2120349407196045
20
-2.123777332305908
30
0
11
-3.2119948267936707
21
-2.123910369873047
31
0
0
LINE
5
CF
330
11
100
AcDbEntity
100
AcDbLine
8
Layer_0
10
-3.2119948267936707
20
-2.123910369873047
30
0
11
-3.1865948140621185
21
-2.2077302360534667
31
0
0
SPLINE
5
D0
330
11
100
AcDbEntity
100
AcDbSpline
8
Layer_0
210
0
220
0
230
1
70
8
71
3
72
8
73
4
74
0
42
1e-7
43
1e-7
44
1e-10
40
0
40
0
40
0
40
0
40
1
40
1
40
1
40
1
10
-3.1865948140621185
20
-2.2077302360534667
30
0
10
-3.1788640059928928
20
-2.233242107153175
30
0
10
-3.1524781594161824
20
-2.248202673136833
30
0
10
-3.1266167759895325
20
-2.241737308502197
30
0
0
SPLINE
5
D1
330
11
100
AcDbEntity
100
AcDbSpline
8
Layer_0
210
0
220
0
230
1
70
8
71
3
72
8
73
4
74
0
42
1e-7
43
1e-7
44
1e-10
40
0
40
0
40
0
40
0
40
1
40
1
40
1
40
1
10
-3.1266167759895325
20
-2.241737308502197
30
0
10
-3.0679398427406945
20
-2.2270675722757973
30
0
10
-2.9849476044376693
20
-2.1889478588104248
30
0
10
-2.877640061080456
20
-2.127378168106079
30
0
0
SPLINE
5
D2
330
11
100
AcDbEntity
100
AcDbSpline
8
Layer_0
210
0
220
0
230
1
70
8
71
3
72
8
73
4
74
0
42
1e-7
43
1e-7
44
1e-10
40
0
40
0
40
0
40
0
40
1
40
1
40
1
40
1
10
-2.877640061080456
20
-2.127378168106079
30
0
10
-2.777322647472223
20
-2.06981915473938
30
0
10
-2.683225452899933
20
-2.0059897327423095
30
0
10
-2.5953484773635864
20
-1.935889902114868
30
0
0
LINE
5
D3
330
11
100
AcDbEntity
100
AcDbLine
8
Layer_0
10
-2.5953484773635864
20
-1.935889902114868
30
0
11
-2.3386435508728027
21
-1.935889902114868
31
0
0
SPLINE
5
D4
330
11
100
AcDbEntity
100
AcDbSpline
8
Layer_0
210
0
220
0
230
1
70
8
71
3
72
8
73
4
74
0
42
1e-7
43
1e-7
44
1e-10
40
0
40
0
40
0
40
0
40
1
40
1
40
1
40
1
10
-1.7180454730987549
20
-0.6703850650787353
30
0
10
-1.7260131041208904
20
-0.6614478651682535
30
0
10
-1.7352391481399536
20
-0.6537028376261392
30
0
10
-1.7457236051559448
20
-0.6471499824523925
30
0
0
SPLINE
5
D5
330
11
100
AcDbEntity
100
AcDbSpline
8
Layer_0
210
0
220
0
230
1
70
8
71
3
72
8
73
4
74
0
42
1e-7
43
1e-7
44
1e-10
40
0
40
0
40
0
40
0
40
1
40
1
40
1
40
1
10
-1.7457236051559448
20
-0.6471499824523925
30
0
10
-1.7673770189285278
20
-0.6336165491739908
30
0
10
-1.7906036774317424
20
-0.62684983253479
30
0
10
-1.8154035806655884
20
-0.62684983253479
30
0
0
SPLINE
5
D6
330
11
100
AcDbEntity
100
AcDbSpline
8
Layer_0
210
0
220
0
230
1
70
8
71
3
72
8
73
4
74
0
42
1e-7
43
1e-7
44
1e-10
40
0
40
0
40
0
40
0
40
1
40
1
40
1
40
1
10
-1.8154035806655884
20
-0.62684983253479
30
0
10
-1.8292795419692993
20
-0.62684983253479
30
0
10
-1.8438634475072224
20
-0.6293985271453857
30
0
10
-1.859155297279358
20
-0.6344959163665771
30
0
0
SPLINE
5
D7
330
11
100
AcDbEntity
100
AcDbSpline
8
Layer_0
210
0
220
0
230
1
70
8
71
3
72
8
73
4
74
0
42
1e-7
43
1e-7
44
1e-10
40
0
40
0
40
0
40
0
40
1
40
1
40
1
40
1
10
-1.859155297279358
20
-0.6344959163665771
30
0
10
-1.8608137084856378
20
-0.6350488259929596
30
0
10
-1.8624419591765988
20
-0.6356882685297081
30
0
10
-1.8640333414077759
20
-0.6364116096496581
30
0
0
SPLINE
5
D8
330
11
100
AcDbEntity
100
AcDbSpline
8
Layer_0
210
0
220
0
230
1
70
8
71
3
72
8
73
4
74
0
42
1e-7
43
1e-7
44
1e-10
40
0
40
0
40
0
40
0
40
1
40
1
40
1
40
1
10
-1.8640333414077759
20
-0.6364116096496581
30
0
10
-1.892543355623881
20
-0.6493704541524251
30
0
10
-1.9149728616078694
20
-0.6703123474121093
30
0
10
-1.9313218593597412
20
-0.6992372894287109
30
0
0
SPLINE
5
D9
330
11
100
AcDbEntity
100
AcDbSpline
8
Layer_0
210
0
220
0
230
1
70
8
71
3
72
8
73
4
74
0
42
1e-7
43
1e-7
44
1e-10
40
0
40
0
40
0
40
0
40
1
40
1
40
1
40
1
10
-1.9313218593597412
20
-0.6992372894287109
30
0
10
-1.9500054518381755
20
-0.7322929128011068
30
0
10
-1.9532169898351033
20
-0.7645584964752197
30
0
10
-1.940956473350525
20
-0.7960340404510498
30
0
0
SPLINE
5
DA
330
11
100
AcDbEntity
100
AcDbSpline
8
Layer_0
210
0
220
0
230
1
70
8
71
3
72
8
73
4
74
0
42
1e-7
43
1e-7
44
1e-10
40
0
40
0
40
0
40
0
40
1
40
1
40
1
40
1
10
-1.940956473350525
20
-0.7960340404510498
30
0
10
-1.9320903221766155
20
-0.8206006908416748
30
0
10
-1.917563517888387
20
-0.8394837601979573
30
0
10
-1.8973760604858398
20
-0.8526832485198974
30
0
0
SPLINE
5
DB
330
11
100
AcDbEntity
100
AcDbSpline
8
Layer_0
210
0
220
0
230
1
70
8
71
3
72
8
73
4
74
0
42
1e-7
43
1e-7
44
1e-10
40
0
40
0
40
0
40
0
40
1
40
1
40
1
40
1
10
-1.8973760604858398
20
-0.8526832485198974
30
0
10
-1.8780580361684163
20
-0.8653143469492593
30
0
10
-1.8549672365188599
20
-0.8716298961639404
30
0
10
-1.8281036615371704
20
-0.8716298961639404
30
0
0
SPLINE
5
DC
330
11
100
AcDbEntity
100
AcDbSpline
8
Layer_0
210
0
220
0
230
1
70
8
71
3
72
8
73
4
74
0
42
1e-7
43
1e-7
44
1e-10
40
0
40
0
40
0
40
0
40
1
40
1
40
1
40
1
10
-1.8281036615371704
20
-0.8716298961639404
30
0
10
-1.786255955696106
20
-0.8716298961639404
30
0
10
-1.7517211437225342
20
-0.8575876776377359
30
0
10
-1.724499225616455
20
-0.8295032405853271
30
0
0
SPLINE
5
DD
330
11
100
AcDbEntity
100
AcDbSpline
8
Layer_0
210
0
220
0
230
1
70
8
71
3
72
8
73
4
74
0
42
1e-7
43
1e-7
44
1e-10
40
0
40
0
40
0
40
0
40
1
40
1
40
1
40
1
10
-1.724499225616455
20
-0.8295032405853271
30
0
10
-1.7038621107737224
20
-0.8558944288889566
30
0
10
-1.6732035875320435
20
-0.8690900230407714
30
0
10
-1.6325236558914185
20
-0.8690900230407714
30
0
0
SPLINE
5
DE
330
11
100
AcDbEntity
100
AcDbSpline
8
Layer_0
210
0
220
0
230
1
70
8
71
3
72
8
73
4
74
0
42
1e-7
43
1e-7
44
1e-10
40
0
40
0
40
0
40
0
40
1
40
1
40
1
40
1
10
-1.6325236558914185
20
-0.8690900230407714
30
0
10
-1.613014022509257
20
-0.8690900230407714
30
0
10
-1.596659819285075
20
-0.86622439066569
30
0
10
-1.583461046218872
20
-0.8604931259155273
30
0
0
SPLINE
5
DF
330
11
100
AcDbEntity
100
AcDbSpline
8
Layer_0
210
0
220
0
230
1
70
8
71
3
72
8
73
4
74
0
42
1e-7
43
1e-7
44
1e-10
40
0
40
0
40
0
40
0
40
1
40
1
40
1
40
1
10
-1.583461046218872
20
-0.8604931259155273
30
0
10
-1.5539899667104085
20
-0.8500864728291829
30
0
10
-1.5304436683654785
20
-0.8322964731852213
30
0
10
-1.512822151184082
20
-0.8071231269836425
30
0
0
SPLINE
5
E0
330
11
100
AcDbEntity
100
AcDbSpline
8
Layer_0
210
0
220
0
230
1
70
8
71
3
72
8
73
4
74
0
42
1e-7
43
1e-7
44
1e-10
40
0
40
0
40
0
40
0
40
1
40
1
40
1
40
1
10
-1.512822151184082
20
-0.8071231269836425
30
0
10
-1.491349220275879
20
-0.7764475568135579
30
0
10
-1.486651619275411
20
-0.7429926617940267
30
0
10
-1.4987293481826782
20
-0.7067584419250488
30
0
0
SPLINE
5
E1
330
11
100
AcDbEntity
100
AcDbSpline
8
Layer_0
210
0
220
0
230
1
70
8
71
3
72
8
73
4
74
0
42
1e-7
43
1e-7
44
1e-10
40
0
40
0
40
0
40
0
40
1
40
1
40
1
40
1
10
-1.4987293481826782
20
-0.7067584419250488
30
0
10
-1.507708748181661
20
-0.679820639292399
30
0
10
-1.5238352219263713
20
-0.6593695704142252
30
0
10
-1.547108769416809
20
-0.6454052352905273
30
0
0
SPLINE
5
E2
330
11
100
AcDbEntity
100
AcDbSpline
8
Layer_0
210
0
220
0
230
1
70
8
71
3
72
8
73
4
74
0
42
1e-7
43
1e-7
44
1e-10
40
0
40
0
40
0
40
0
40
1
40
1
40
1
40
1
10
-1.547108769416809
20
-0.6454052352905273
30
0
10
-1.5677262544631958
20
-0.6330349667867025
30
0
10
-1.5911178588867188
20
-0.62684983253479
30
0
10
-1.617283582687378
20
-0.62684983253479
30
0
0
SPLINE
5
E3
330
11
100
AcDbEntity
100
AcDbSpline
8
Layer_0
210
0
220
0
230
1
70
8
71
3
72
8
73
4
74
0
42
1e-7
43
1e-7
44
1e-10
40
0
40
0
40
0
40
0
40
1
40
1
40
1
40
1
10
-1.617283582687378
20
-0.62684983253479
30
0
10
-1.6349505583445232
20
-0.62684983253479
30
0
10
-1.650246262550354
20
-0.6296207332611083
30
0
10
-1.6631706953048706
20
-0.6351625347137451
30
0
0
SPLINE
5
E4
330
11
100
AcDbEntity
100
AcDbSpline
8
Layer_0
210
0
220
0
230
1
70
8
71
3
72
8
73
4
74
0
42
1e-7
43
1e-7
44
1e-10
40
0
40
0
40
0
40
0
40
1
40
1
40
1
40
1
10
-1.6631706953048706
20
-0.6351625347137451
30
0
10
-1.6849507888158162
20
-0.6423093700408935
30
0
10
-1.7032423814137776
20
-0.6540502134958902
30
0
10
-1.7180454730987549
20
-0.6703850650787353
30
0
0
SPLINE
5
E5
330
11
100
AcDbEntity
100
AcDbSpline
8
Layer_0
210
0
220
0
230
1
70
8
71
3
72
8
73
4
74
0
42
1e-7
43
1e-7
44
1e-10
40
0
40
0
40
0
40
0
40
1
40
1
40
1
40
1
10
-2.5862859189510345
20
-1.6424526596069335
30
0
10
-2.6518541077772775
20
-1.7087575022379557
30
0
10
-2.753033330043157
20
-1.7419099235534667
30
0
10
-2.8898235857486725
20
-1.7419099235534667
30
0
0
SPLINE
5
E6
330
11
100
AcDbEntity
100
AcDbSpline
8
Layer_0
210
0
220
0
230
1
70
8
71
3
72
8
73
4
74
0
42
1e-7
43
1e-7
44
1e-10
40
0
40
0
40
0
40
0
40
1
40
1
40
1
40
1
10
-2.8898235857486725
20
-1.7419099235534667
30
0
10
-2.9393764982620874
20
-1.7419100824991862
30
0
10
-3.0008059293031693
20
-1.7353940232594807
30
0
10
-3.0741118788719177
20
-1.7223617458343505
30
0
0
SPLINE
5
E7
330
11
100
AcDbEntity
100
AcDbSpline
8
Layer_0
210
0
220
0
230
1
70
8
71
3
72
8
73
4
74
0
42
1e-7
43
1e-7
44
1e-10
40
0
40
0
40
0
40
0
40
1
40
1
40
1
40
1
10
-3.0741118788719177
20
-1.7223617458343505
30
0
10
-3.134701738754908
20
-1.710534594853719
30
0
10
-3.190523852904638
20
-1.6835985406239826
30
0
10
-3.241578221321106
20
-1.6415535831451415
30
0
0
SPLINE
5
E8
330
11
100
AcDbEntity
100
AcDbSpline
8
Layer_0
210
0
220
0
230
1
70
8
71
3
72
8
73
4
74
0
42
1e-7
43
1e-7
44
1e-10
40
0
40
0
40
0
40
0
40
1
40
1
40
1
40
1
10
-3.241578221321106
20
-1.6415535831451415
30
0
10
-3.293362319469452
20
-1.5989079697926838
30
0
10
-3.334169695774714
20
-1.5458421929677326
30
0
10
-3.3640003502368927
20
-1.482356252670288
30
0
0
SPLINE
5
E9
330
11
100
AcDbEntity
100
AcDbSpline
8
Layer_0
210
0
220
0
230
1
70
8
71
3
72
8
73
4
74
0
42
1e-7
43
1e-7
44
1e-10
40
0
40
0
40
0
40
0
40
1
40
1
40
1
40
1
10
-3.3640003502368927
20
-1.482356252670288
30
0
10
-3.393640547990799
20
-1.4192759418487548
30
0
10
-3.4085675179958344
20
-1.3527883116404216
30
0
10
-3.408781260251999
20
-1.282893362045288
30
0
0
LINE
5
EA
330
11
100
AcDbEntity
100
AcDbLine
8
Layer_0
10
-3.408781260251999
20
-1.282893362045288
30
0
11
-3.4063858091831207
21
-1.2445663833618164
31
0
0
SPLINE
5
EB
330
11
100
AcDbEntity
100
AcDbSpline
8
Layer_0
210
0
220
0
230
1
70
8
71
3
72
8
73
4
74
0
42
1e-7
43
1e-7
44
1e-10
40
0
40
0
40
0
40
0
40
1
40
1
40
1
40
1
10
-3.4063858091831207
20
-1.2445663833618164
30
0
10
-3.3984618286291757
20
-1.1583297475179035
30
0
10
-3.375359227259954
20
-1.0788831933339436
30
0
10
-3.3370780050754547
20
-1.0062267208099365
30
0
0
SPLINE
5
EC
330
11
100
AcDbEntity
100
AcDbSpline
8
Layer_0
210
0
220
0
230
1
70
8
71
3
72
8
73
4
74
0
42
1e-7
43
1e-7
44
1e-10
40
0
40
0
40
0
40
0
40
1
40
1
40
1
40
1
10
-3.3370780050754547
20
-1.0062267208099365
30
0
10
-3.299390504757563
20
-0.9346978092193603
30
0
10
-3.2521460503339767
20
-0.8792422040303548
30
0
10
-3.195344641804695
20
-0.8398599052429199
30
0
0
SPLINE
5
ED
330
11
100
AcDbEntity
100
AcDbSpline
8
Layer_0
210
0
220
0
230
1
70
8
71
3
72
8
73
4
74
0
42
1e-7
43
1e-7
44
1e-10
40
0
40
0
40
0
40
0
40
1
40
1
40
1
40
1
10
-3.195344641804695
20
-0.8398599052429199
30
0
10
-3.1411508669455848
20
-0.8022857729593912
30
0
10
-3.084995849058032
20
-0.7849159463246663
30
0
10
-3.0268795881420374
20
-0.7877504253387451
30
0
0
SPLINE
5
EE
330
11
100
AcDbEntity
100
AcDbSpline
8
Layer_0
210
0
220
0
230
1
70
8
71
3
72
8
73
4
74
0
42
1e-7
43
1e-7
44
1e-10
40
0
40
0
40
0
40
0
40
1
40
1
40
1
40
1
10
-3.0268795881420374
20
-0.7877504253387451
30
0
10
-2.9268122843156257
20
-0.7923692289988199
30
0
10
-2.8359716137250266
20
-0.8247063382466634
30
0
10
-2.7543575763702393
20
-0.8847617530822753
30
0
0
SPLINE
5
EF
330
11
100
AcDbEntity
100
AcDbSpline
8
Layer_0
210
0
220
0
230
1
70
8
71
3
72
8
73
4
74
0
42
1e-7
43
1e-7
44
1e-10
40
0
40
0
40
0
40
0
40
1
40
1
40
1
40
1
10
-2.7543575763702393
20
-0.8847617530822753
30
0
10
-2.6709337631861367
20
-0.9461491330464681
30
0
10
-2.605612725019455
20
-1.0228804969787597
30
0
10
-2.5583944618701935
20
-1.1149558448791503
30
0
0
SPLINE
5
F0
330
11
100
AcDbEntity
100
AcDbSpline
8
Layer_0
210
0
220
0
230
1
70
8
71
3
72
8
73
4
74
0
42
1e-7
43
1e-7
44
1e-10
40
0
40
0
40
0
40
0
40
1
40
1
40
1
40
1
10
-2.5583944618701935
20
-1.1149558448791503
30
0
10
-2.5112671554088593
20
-1.2068538093566894
30
0
10
-2.487703522046407
20
-1.297885201772054
30
0
10
-2.487703561782837
20
-1.388050022125244
30
0
0
SPLINE
5
F1
330
11
100
AcDbEntity
100
AcDbSpline
8
Layer_0
210
0
220
0
230
1
70
8
71
3
72
8
73
4
74
0
42
1e-7
43
1e-7
44
1e-10
40
0
40
0
40
0
40
0
40
1
40
1
40
1
40
1
10
-2.487703561782837
20
-1.388050022125244
30
0
10
-2.487703561782837
20
-1.4911918067932128
30
0
10
-2.5205643475055695
20
-1.575992685953776
30
0
10
-2.5862859189510345
20
-1.6424526596069335
30
0
0
SPLINE
5
F2
330
11
100
AcDbEntity
100
AcDbSpline
8
Layer_0
210
0
220
0
230
1
70
8
71
3
72
8
73
4
74
0
42
1e-7
43
1e-7
44
1e-10
40
0
40
0
40
0
40
0
40
1
40
1
40
1
40
1
10
-1.4758436679840088
20
-1.789370002746582
30
0
10
-1.4758436679840088
20
-1.7617557918668723
30
0
10
-1.4982294094205832
20
-1.7393700504302978
30
0
10
-1.525843620300293
20
-1.7393700504302978
30
0
0
LINE
5
F3
330
11
100
AcDbEntity
100
AcDbLine
8
Layer_0
10
-1.525843620300293
20
-1.7393700504302978
30
0
11
-1.551465392112732
21
-1.7393700504302978
31
0
0
SPLINE
5
F4
330
11
100
AcDbEntity
100
AcDbSpline
8
Layer_0
210
0
220
0
230
1
70
8
71
3
72
8
73
4
74
0
42
1e-7
43
1e-7
44
1e-10
40
0
40
0
40
0
40
0
40
1
40
1
40
1
40
1
10
-1.551465392112732
20
-1.7393700504302978
30
0
10
-1.5323522488276164
20
-1.698881648381551
30
0
10
-1.51759934425354
20
-1.65135679880778
30
0
10
-1.507206678390503
20
-1.5967955017089843
30
0
0
SPLINE
5
F5
330
11
100
AcDbEntity
100
AcDbSpline
8
Layer_0
210
0
220
0
230
1
70
8
71
3
72
8
73
4
74
0
42
1e-7
43
1e-7
44
1e-10
40
0
40
0
40
0
40
0
40
1
40
1
40
1
40
1
10
-1.507206678390503
20
-1.5967955017089843
30
0
10
-1.489719311396281
20
-1.5049859110514323
30
0
10
-1.480112632115682
20
-1.3805538241068522
30
0
10
-1.478386640548706
20
-1.223499240875244
30
0
0
SPLINE
5
F6
330
11
100
AcDbEntity
100
AcDbSpline
8
Layer_0
210
0
220
0
230
1
70
8
71
3
72
8
73
4
74
0
42
1e-7
43
1e-7
44
1e-10
40
0
40
0
40
0
40
0
40
1
40
1
40
1
40
1
10
-1.478386640548706
20
-1.223499240875244
30
0
10
-1.4783846537272136
20
-1.2059385999043781
30
0
10
-1.4845354954401653
20
-1.1910067621866862
30
0
10
-1.496839165687561
20
-1.178703727722168
30
0
0
SPLINE
5
F7
330
11
100
AcDbEntity
100
AcDbSpline
8
Layer_0
210
0
220
0
230
1
70
8
71
3
72
8
73
4
74
0
42
1e-7
43
1e-7
44
1e-10
40
0
40
0
40
0
40
0
40
1
40
1
40
1
40
1
10
-1.496839165687561
20
-1.178703727722168
30
0
10
-1.5082757075627644
20
-1.1672666295369465
30
0
10
-1.5218263864517212
20
-1.161145788828532
30
0
10
-1.5374912023544312
20
-1.1603412055969238
30
0
0
LINE
5
F8
330
11
100
AcDbEntity
100
AcDbLine
8
Layer_0
10
-1.5374912023544312
20
-1.1603412055969238
30
0
11
-1.604142189025879
21
-1.1529356861114501
31
0
0
SPLINE
5
F9
330
11
100
AcDbEntity
100
AcDbSpline
8
Layer_0
210
0
220
0
230
1
70
8
71
3
72
8
73
4
74
0
42
1e-7
43
1e-7
44
1e-10
40
0
40
0
40
0
40
0
40
1
40
1
40
1
40
1
10
-1.604142189025879
20
-1.1529356861114501
30
0
10
-1.6059755740923143
20
-1.152732073718747
30
0
10
-1.6078188647061893
20
-1.152630033493042
30
0
10
-1.6096636056900024
20
-1.152630033493042
30
0
0
SPLINE
5
FA
330
11
100
AcDbEntity
100
AcDbSpline
8
Layer_0
210
0
220
0
230
1
70
8
71
3
72
8
73
4
74
0
42
1e-7
43
1e-7
44
1e-10
40
0
40
0
40
0
40
0
40
1
40
1
40
1
40
1
10
-1.6096636056900024
20
-1.152630033493042
30
0
10
-1.6268118619918823
20
-1.152630033493042
30
0
10
-1.6412915388743083
20
-1.157551310857137
30
0
10
-1.6531026363372803
20
-1.167393865585327
30
0
0
SPLINE
5
FB
330
11
100
AcDbEntity
100
AcDbSpline
8
Layer_0
210
0
220
0
230
1
70
8
71
3
72
8
73
4
74
0
42
1e-7
43
1e-7
44
1e-10
40
0
40
0
40
0
40
0
40
1
40
1
40
1
40
1
10
-1.6531026363372803
20
-1.167393865585327
30
0
10
-1.667636553446452
20
-1.179505370457967
30
0
10
-1.6749035120010376
20
-1.1954840246836345
30
0
10
-1.6749035120010376
20
-1.215329828262329
30
0
0
SPLINE
5
FC
330
11
100
AcDbEntity
100
AcDbSpline
8
Layer_0
210
0
220
0
230
1
70
8
71
3
72
8
73
4
74
0
42
1e-7
43
1e-7
44
1e-10
40
0
40
0
40
0
40
0
40
1
40
1
40
1
40
1
10
-1.6749035120010376
20
-1.215329828262329
30
0
10
-1.67655615011851
20
-1.3688241863250732
30
0
10
-1.686286489168803
20
-1.4840207322438557
30
0
10
-1.7040945291519165
20
-1.5609194660186767
30
0
0
SPLINE
5
FD
330
11
100
AcDbEntity
100
AcDbSpline
8
Layer_0
210
0
220
0
230
1
70
8
71
3
72
8
73
4
74
0
42
1e-7
43
1e-7
44
1e-10
40
0
40
0
40
0
40
0
40
1
40
1
40
1
40
1
10
-1.7040945291519165
20
-1.5609194660186767
30
0
10
-1.7198853095372517
20
-1.629107338587443
30
0
10
-1.7451097965240479
20
-1.6756259028116862
30
0
10
-1.7797679901123047
20
-1.7004751586914062
30
0
0
SPLINE
5
FE
330
11
100
AcDbEntity
100
AcDbSpline
8
Layer_0
210
0
220
0
230
1
70
8
71
3
72
8
73
4
74
0
42
1e-7
43
1e-7
44
1e-10
40
0
40
0
40
0
40
0
40
1
40
1
40
1
40
1
10
-1.7797679901123047
20
-1.7004751586914062
30
0
10
-1.8159335454305012
20
-1.7264049275716145
30
0
10
-1.8718387683232625
20
-1.7393698914845783
30
0
10
-1.9474836587905884
20
-1.7393700504302978
30
0
0
LINE
5
FF
330
11
100
AcDbEntity
100
AcDbLine
8
Layer_0
10
-1.9474836587905884
20
-1.7393700504302978
30
0
11
-1.9551036357879639
21
-1.7393700504302978
31
0
0
SPLINE
5
100
330
11
100
AcDbEntity
100
AcDbSpline
8
Layer_0
210
0
220
0
230
1
70
8
71
3
72
8
73
4
74
0
42
1e-7
43
1e-7
44
1e-10
40
0
40
0
40
0
40
0
40
1
40
1
40
1
40
1
10
-1.9551036357879639
20
-1.7393700504302978
30
0
10
-1.9827178795864095
20
-1.7393700504302978
30
0
10
-2.005103647708893
20
-1.7617557918668723
30
0
10
-2.005103647708893
20
-1.789370002746582
30
0
0
LINE
5
101
330
11
100
AcDbEntity
100
AcDbLine
8
Layer_0
10
-2.005103647708893
20
-1.789370002746582
30
0
11
-2.005103647708893
21
-1.885889949798584
31
0
0
SPLINE
5
102
330
11
100
AcDbEntity
100
AcDbSpline
8
Layer_0
210
0
220
0
230
1
70
8
71
3
72
8
73
4
74
0
42
1e-7
43
1e-7
44
1e-10
40
0
40
0
40
0
40
0
40
1
40
1
40
1
40
1
10
-2.005103647708893
20
-1.885889949798584
30
0
10
-2.005103647708893
20
-1.9135041606782937
30
0
10
-1.9827178795864095
20
-1.935889902114868
30
0
10
-1.9551036357879639
20
-1.935889902114868
30
0
0
LINE
5
103
330
11
100
AcDbEntity
100
AcDbLine
8
Layer_0
10
-1.9551036357879639
20
-1.935889902114868
30
0
11
-1.525843620300293
21
-1.935889902114868
31
0
0
SPLINE
5
104
330
11
100
AcDbEntity
100
AcDbSpline
8
Layer_0
210
0
220
0
230
1
70
8
71
3
72
8
73
4
74
0
42
1e-7
43
1e-7
44
1e-10
40
0
40
0
40
0
40
0
40
1
40
1
40
1
40
1
10
-1.525843620300293
20
-1.935889902114868
30
0
10
-1.4982294094205832
20
-1.935889902114868
30
0
10
-1.4758436679840088
20
-1.9135041606782937
30
0
10
-1.4758436679840088
20
-1.885889949798584
30
0
0
LINE
5
105
330
11
100
AcDbEntity
100
AcDbLine
8
Layer_0
10
-1.4758436679840088
20
-1.885889949798584
30
0
11
-1.4758436679840088
21
-1.789370002746582
31
0
0
SPLINE
5
106
330
11
100
AcDbEntity
100
AcDbSpline
8
Layer_0
210
0
220
0
230
1
70
8
71
3
72
8
73
4
74
0
42
1e-7
43
1e-7
44
1e-10
40
0
40
0
40
0
40
0
40
1
40
1
40
1
40
1
10
-0.7761020660400391
20
-1.1529356861114501
30
0
10
-0.7779355305184841
20
-1.152732073718747
30
0
10
-0.779778860929639
20
-1.152630033493042
30
0
10
-0.7816236019134521
20
-1.152630033493042
30
0
0
SPLINE
5
107
330
11
100
AcDbEntity
100
AcDbSpline
8
Layer_0
210
0
220
0
230
1
70
8
71
3
72
8
73
4
74
0
42
1e-7
43
1e-7
44
1e-10
40
0
40
0
40
0
40
0
40
1
40
1
40
1
40
1
10
-0.7816236019134521
20
-1.152630033493042
30
0
10
-0.7987719376881918
20
-1.152630033493042
30
0
10
-0.8132516543070475
20
-1.157551310857137
30
0
10
-0.8250627517700195
20
-1.167393865585327
30
0
0
SPLINE
5
108
330
11
100
AcDbEntity
100
AcDbSpline
8
Layer_0
210
0
220
0
230
1
70
8
71
3
72
8
73
4
74
0
42
1e-7
43
1e-7
44
1e-10
40
0
40
0
40
0
40
0
40
1
40
1
40
1
40
1
10
-0.8250627517700195
20
-1.167393865585327
30
0
10
-0.8395965894063314
20
-1.179505370457967
30
0
10
-0.8468635082244873
20
-1.1954840246836345
30
0
10
-0.8468635082244873
20
-1.215329828262329
30
0
0
SPLINE
5
109
330
11
100
AcDbEntity
100
AcDbSpline
8
Layer_0
210
0
220
0
230
1
70
8
71
3
72
8
73
4
74
0
42
1e-7
43
1e-7
44
1e-10
40
0
40
0
40
0
40
0
40
1
40
1
40
1
40
1
10
-0.8468635082244873
20
-1.215329828262329
30
0
10
-0.8485160668691
20
-1.3688248221079509
30
0
10
-0.8582464059193929
20
-1.4840213680267333
30
0
10
-0.8760545253753662
20
-1.5609194660186767
30
0
0
SPLINE
5
10A
330
11
100
AcDbEntity
100
AcDbSpline
8
Layer_0
210
0
220
0
230
1
70
8
71
3
72
8
73
4
74
0
42
1e-7
43
1e-7
44
1e-10
40
0
40
0
40
0
40
0
40
1
40
1
40
1
40
1
10
-0.8760545253753662
20
-1.5609194660186767
30
0
10
-0.8918451468149821
20
-1.629107020696004
30
0
10
-0.917069673538208
20
-1.6756255849202473
30
0
10
-0.951728105545044
20
-1.7004751586914062
30
0
0
SPLINE
5
10B
330
11
100
AcDbEntity
100
AcDbSpline
8
Layer_0
210
0
220
0
230
1
70
8
71
3
72
8
73
4
74
0
42
1e-7
43
1e-7
44
1e-10
40
0
40
0
40
0
40
0
40
1
40
1
40
1
40
1
10
-0.951728105545044
20
-1.7004751586914062
30
0
10
-0.9878935019175211
20
-1.7264049275716145
30
0
10
-1.043798605600993
20
-1.7393698914845783
30
0
10
-1.119443416595459
20
-1.7393700504302978
30
0
0
SPLINE
5
10C
330
11
100
AcDbEntity
100
AcDbSpline
8
Layer_0
210
0
220
0
230
1
70
8
71
3
72
8
73
4
74
0
42
1e-7
43
1e-7
44
1e-10
40
0
40
0
40
0
40
0
40
1
40
1
40
1
40
1
10
-1.119443416595459
20
-1.7393700504302978
30
0
10
-1.1470577591501125
20
-1.7393700504302978
30
0
10
-1.1694436073303223
20
-1.7617557918668723
30
0
10
-1.1694436073303223
20
-1.789370002746582
30
0
0
LINE
5
10D
330
11
100
AcDbEntity
100
AcDbLine
8
Layer_0
10
-1.1694436073303223
20
-1.789370002746582
30
0
11
-1.1694436073303223
21
-1.885889949798584
31
0
0
SPLINE
5
10E
330
11
100
AcDbEntity
100
AcDbSpline
8
Layer_0
210
0
220
0
230
1
70
8
71
3
72
8
73
4
74
0
42
1e-7
43
1e-7
44
1e-10
40
0
40
0
40
0
40
0
40
1
40
1
40
1
40
1
10
-1.1694436073303223
20
-1.885889949798584
30
0
10
-1.1694436073303223
20
-1.9135041606782937
30
0
10
-1.1470578658937478
20
-1.935889902114868
30
0
10
-1.119443655014038
20
-1.935889902114868
30
0
0
SPLINE
5
10F
330
11
100
AcDbEntity
100
AcDbSpline
8
Layer_0
210
0
220
0
230
1
70
8
71
3
72
8
73
4
74
0
42
1e-7
43
1e-7
44
1e-10
40
0
40
0
40
0
40
0
40
1
40
1
40
1
40
1
10
-1.119443655014038
20
-1.935889902114868
30
0
10
-0.9962662855784098
20
-1.9358897431691486
30
0
10
-0.9013684590657552
20
-1.9146490319569904
30
0
10
-0.8347501754760742
20
-1.8721677684783935
30
0
0
SPLINE
5
110
330
11
100
AcDbEntity
100
AcDbSpline
8
Layer_0
210
0
220
0
230
1
70
8
71
3
72
8
73
4
74
0
42
1e-7
43
1e-7
44
1e-10
40
0
40
0
40
0
40
0
40
1
40
1
40
1
40
1
10
-0.8347501754760742
20
-1.8721677684783935
30
0
10
-0.765204111735026
20
-1.8278195285797119
30
0
10
-0.7169503370920817
20
-1.7526848538716633
30
0
10
-0.6899888515472412
20
-1.646763744354248
30
0
0
SPLINE
5
111
330
11
100
AcDbEntity
100
AcDbSpline
8
Layer_0
210
0
220
0
230
1
70
8
71
3
72
8
73
4
74
0
42
1e-7
43
1e-7
44
1e-10
40
0
40
0
40
0
40
0
40
1
40
1
40
1
40
1
10
-0.6899888515472412
20
-1.646763744354248
30
0
10
-0.6652913888295492
20
-1.5497366015116374
30
0
10
-0.6520770390828451
20
-1.4086210950215656
30
0
10
-0.6503458023071289
20
-1.2234172248840331
30
0
0
SPLINE
5
112
330
11
100
AcDbEntity
100
AcDbSpline
8
Layer_0
210
0
220
0
230
1
70
8
71
3
72
8
73
4
74
0
42
1e-7
43
1e-7
44
1e-10
40
0
40
0
40
0
40
0
40
1
40
1
40
1
40
1
10
-0.6503458023071289
20
-1.2234172248840331
30
0
10
-0.6503443717956543
20
-1.2059118970235188
30
0
10
-0.6564951737721761
20
-1.1910077158610026
30
0
10
-0.6687982082366943
20
-1.1787046813964843
30
0
0
SPLINE
5
113
330
11
100
AcDbEntity
100
AcDbSpline
8
Layer_0
210
0
220
0
230
1
70
8
71
3
72
8
73
4
74
0
42
1e-7
43
1e-7
44
1e-10
40
0
40
0
40
0
40
0
40
1
40
1
40
1
40
1
10
-0.6687982082366943
20
-1.1787046813964843
30
0
10
-0.6802357832590739
20
-1.1672671063741047
30
0
10
-0.6937867005666097
20
-1.1611459477742512
30
0
10
-0.7094509601593018
20
-1.1603412055969238
30
0
0
LINE
5
114
330
11
100
AcDbEntity
100
AcDbLine
8
Layer_0
10
-0.7094509601593018
20
-1.1603412055969238
30
0
11
-0.7761020660400391
21
-1.1529356861114501
31
0
0
SPLINE
5
115
330
11
100
AcDbEntity
100
AcDbSpline
8
Layer_0
210
0
220
0
230
1
70
8
71
3
72
8
73
4
74
0
42
1e-7
43
1e-7
44
1e-10
40
0
40
0
40
0
40
0
40
1
40
1
40
1
40
1
10
-0.9475958347320557
20
-2.3071612739562988
30
0
10
-0.9189167817433676
20
-2.2985572242736816
30
0
10
-0.8965898354848226
20
-2.2819109980265297
30
0
10
-0.8806149959564209
20
-2.2572225952148437
30
0
0
SPLINE
5
116
330
11
100
AcDbEntity
100
AcDbSpline
8
Layer_0
210
0
220
0
230
1
70
8
71
3
72
8
73
4
74
0
42
1e-7
43
1e-7
44
1e-10
40
0
40
0
40
0
40
0
40
1
40
1
40
1
40
1
10
-0.8806149959564209
20
-2.2572225952148437
30
0
10
-0.8659541606903076
20
-2.234564882914225
30
0
10
-0.858623743057251
20
-2.2098473135630288
30
0
10
-0.858623743057251
20
-2.183069887161255
30
0
0
SPLINE
5
117
330
11
100
AcDbEntity
100
AcDbSpline
8
Layer_0
210
0
220
0
230
1
70
8
71
3
72
8
73
4
74
0
42
1e-7
43
1e-7
44
1e-10
40
0
40
0
40
0
40
0
40
1
40
1
40
1
40
1
10
-0.858623743057251
20
-2.183069887161255
30
0
10
-0.858623743057251
20
-2.147249402999878
30
0
10
-0.871548573176066
20
-2.1164143308003744
30
0
10
-0.8973982334136963
20
-2.090564670562744
30
0
0
SPLINE
5
118
330
11
100
AcDbEntity
100
AcDbSpline
8
Layer_0
210
0
220
0
230
1
70
8
71
3
72
8
73
4
74
0
42
1e-7
43
1e-7
44
1e-10
40
0
40
0
40
0
40
0
40
1
40
1
40
1
40
1
10
-0.8973982334136963
20
-2.090564670562744
30
0
10
-0.9232480525970459
20
-2.0647148513793945
30
0
10
-0.9523898760477701
20
-2.0517899417877197
30
0
10
-0.9848237037658691
20
-2.0517899417877197
30
0
0
SPLINE
5
119
330
11
100
AcDbEntity
100
AcDbSpline
8
Layer_0
210
0
220
0
230
1
70
8
71
3
72
8
73
4
74
0
42
1e-7
43
1e-7
44
1e-10
40
0
40
0
40
0
40
0
40
1
40
1
40
1
40
1
10
-0.9848237037658691
20
-2.0517899417877197
30
0
10
-1.0202690760294597
20
-2.0517899417877197
30
0
10
-1.0488986571629841
20
-2.0642548624674477
30
0
10
-1.0707124471664429
20
-2.0891847038269042
30
0
0
SPLINE
5
11A
330
11
100
AcDbEntity
100
AcDbSpline
8
Layer_0
210
0
220
0
230
1
70
8
71
3
72
8
73
4
74
0
42
1e-7
43
1e-7
44
1e-10
40
0
40
0
40
0
40
0
40
1
40
1
40
1
40
1
10
-1.0707124471664429
20
-2.0891847038269042
30
0
10
-1.0908132791519165
20
-2.112157128651937
30
0
10
-1.1008636554082234
20
-2.1400654538472494
30
0
10
-1.1008635759353638
20
-2.1729096794128417
30
0
0
SPLINE
5
11B
330
11
100
AcDbEntity
100
AcDbSpline
8
Layer_0
210
0
220
0
230
1
70
8
71
3
72
8
73
4
74
0
42
1e-7
43
1e-7
44
1e-10
40
0
40
0
40
0
40
0
40
1
40
1
40
1
40
1
10
-1.1008635759353638
20
-2.1729096794128417
30
0
10
-1.1008634964625041
20
-2.211238168080648
30
0
10
-1.0876148144404094
20
-2.244912726084391
30
0
10
-1.0611175298690796
20
-2.273933353424072
30
0
0
SPLINE
5
11C
330
11
100
AcDbEntity
100
AcDbSpline
8
Layer_0
210
0
220
0
230
1
70
8
71
3
72
8
73
4
74
0
42
1e-7
43
1e-7
44
1e-10
40
0
40
0
40
0
40
0
40
1
40
1
40
1
40
1
10
-1.0611175298690796
20
-2.273933353424072
30
0
10
-1.0294167598088582
20
-2.308653138478597
30
0
10
-0.9915761947631836
20
-2.3197291119893393
30
0
10
-0.9475958347320557
20
-2.3071612739562988
30
0
0
SPLINE
5
11D
330
11
100
AcDbEntity
100
AcDbSpline
8
Layer_0
210
0
220
0
230
1
70
8
71
3
72
8
73
4
74
0
42
1e-7
43
1e-7
44
1e-10
40
0
40
0
40
0
40
0
40
1
40
1
40
1
40
1
10
-11.420000076293945
20
212.73500061035156
30
0
10
-11.420000076293945
20
212.65951538085938
30
0
10
-11.430411338806152
20
212.58645629882812
30
0
10
-11.449874877929688
20
212.51715087890625
30
0
0
LINE
5
11E
330
11
100
AcDbEntity
100
AcDbLine
8
Layer_0
10
-11.449874877929688
20
212.51715087890625
30
0
11
-10.197100639343262
21
212.51715087890625
31
0
0
SPLINE
5
11F
330
11
100
AcDbEntity
100
AcDbSpline
8
Layer_0
210
0
220
0
230
1
70
8
71
3
72
8
73
4
74
0
42
1e-7
43
1e-7
44
1e-10
40
0
40
0
40
0
40
0
40
1
40
1
40
1
40
1
10
-10.197100639343262
20
212.51715087890625
30
0
10
-9.969954490661621
20
212.51715087890625
30
0
10
-9.7722806930542
20
212.36178588867188
30
0
10
-9.718621253967285
20
212.1410675048828
30
0
0
SPLINE
5
120
330
11
100
AcDbEntity
100
AcDbSpline
8
Layer_0
210
0
220
0
230
1
70
8
71
3
72
8
73
4
74
0
42
1e-7
43
1e-7
44
1e-10
40
0
40
0
40
0
40
0
40
1
40
1
40
1
40
1
10
-9.718621253967285
20
212.1410675048828
30
0
10
-9.664961814880371
20
212.36178588867188
30
0
10
-9.467288970947266
20
212.51715087890625
30
0
10
-9.240141868591309
20
212.51715087890625
30
0
0
LINE
5
121
330
11
100
AcDbEntity
100
AcDbLine
8
Layer_0
10
-9.240141868591309
20
212.51715087890625
30
0
11
-8.556599617004395
21
212.51715087890625
31
0
0
SPLINE
5
122
330
11
100
AcDbEntity
100
AcDbSpline
8
Layer_0
210
0
220
0
230
1
70
8
71
3
72
8
73
4
74
0
42
1e-7
43
1e-7
44
1e-10
40
0
40
0
40
0
40
0
40
1
40
1
40
1
40
1
10
-8.556599617004395
20
212.51715087890625
30
0
10
-8.37350845336914
20
212.51715087890625
30
0
10
-8.220178604125977
20
212.50653076171875
30
0
10
-8.096611976623535
20
212.48533630371094
30
0
0
SPLINE
5
123
330
11
100
AcDbEntity
100
AcDbSpline
8
Layer_0
210
0
220
0
230
1
70
8
71
3
72
8
73
4
74
0
42
1e-7
43
1e-7
44
1e-10
40
0
40
0
40
0
40
0
40
1
40
1
40
1
40
1
10
-8.096611976623535
20
212.48533630371094
30
0
10
-7.902200698852539
20
212.45196024576822
30
0
10
-7.738783359527588
20
212.37226359049478
30
0
10
-7.606359958648682
20
212.24624633789062
30
0
0
SPLINE
5
124
330
11
100
AcDbEntity
100
AcDbSpline
8
Layer_0
210
0
220
0
230
1
70
8
71
3
72
8
73
4
74
0
42
1e-7
43
1e-7
44
1e-10
40
0
40
0
40
0
40
0
40
1
40
1
40
1
40
1
10
-7.606359958648682
20
212.24624633789062
30
0
10
-7.579323609670003
20
212.22052001953125
30
0
10
-7.554548104604085
20
212.19337463378906
30
0
10
-7.532033443450928
20
212.16481018066406
30
0
0
SPLINE
5
125
330
11
100
AcDbEntity
100
AcDbSpline
8
Layer_0
210
0
220
0
230
1
70
8
71
3
72
8
73
4
74
0
42
1e-7
43
1e-7
44
1e-10
40
0
40
0
40
0
40
0
40
1
40
1
40
1
40
1
10
-7.532033443450928
20
212.16481018066406
30
0
10
-7.4564104080200195
20
212.17825317382812
30
0
10
-7.3787922859191895
20
212.19012451171875
30
0
10
-7.299179553985596
20
212.20040893554688
30
0
0
SPLINE
5
126
330
11
100
AcDbEntity
100
AcDbSpline
8
Layer_0
210
0
220
0
230
1
70
8
71
3
72
8
73
4
74
0
42
1e-7
43
1e-7
44
1e-10
40
0
40
0
40
0
40
0
40
1
40
1
40
1
40
1
10
-7.299179553985596
20
212.20040893554688
30
0
10
-7.165726184844971
20
212.21766662597656
30
0
10
-7.043849468231201
20
212.22628784179688
30
0
10
-6.933549880981445
20
212.22628784179688
30
0
0
SPLINE
5
127
330
11
100
AcDbEntity
100
AcDbSpline
8
Layer_0
210
0
220
0
230
1
70
8
71
3
72
8
73
4
74
0
42
1e-7
43
1e-7
44
1e-10
40
0
40
0
40
0
40
0
40
1
40
1
40
1
40
1
10
-6.933549880981445
20
212.22628784179688
30
0
10
-6.748971939086914
20
212.22628784179688
30
0
10
-6.589229583740234
20
212.1983184814453
30
0
10
-6.454322814941406
20
212.14236450195312
30
0
0
SPLINE
5
128
330
11
100
AcDbEntity
100
AcDbSpline
8
Layer_0
210
0
220
0
230
1
70
8
71
3
72
8
73
4
74
0
42
1e-7
43
1e-7
44
1e-10
40
0
40
0
40
0
40
0
40
1
40
1
40
1
40
1
10
-6.454322814941406
20
212.14236450195312
30
0
10
-6.436873912811279
20
212.14926147460938
30
0
10
-6.419044494628906
20
212.1551513671875
30
0
10
-6.4009222984313965
20
212.16001892089844
30
0
0
LINE
5
129
330
11
100
AcDbEntity
100
AcDbLine
8
Layer_0
10
-6.4009222984313965
20
212.16001892089844
30
0
11
-6.379989147186279
21
212.21119689941406
31
0
0
SPLINE
5
12A
330
11
100
AcDbEntity
100
AcDbSpline
8
Layer_0
210
0
220
0
230
1
70
8
71
3
72
8
73
4
74
0
42
1e-7
43
1e-7
44
1e-10
40
0
40
0
40
0
40
0
40
1
40
1
40
1
40
1
10
-6.379989147186279
20
212.21119689941406
30
0
10
-6.3080644607543945
20
212.3870086669922
30
0
10
-6.14142370223999
20
212.5057830810547
30
0
10
-5.951760768890381
20
212.51638793945312
30
0
0
LINE
5
12B
330
11
100
AcDbEntity
100
AcDbLine
8
Layer_0
10
-5.951760768890381
20
212.51638793945312
30
0
11
-5.588174819946289
21
212.5367431640625
31
0
0
SPLINE
5
12C
330
11
100
AcDbEntity
100
AcDbSpline
8
Layer_0
210
0
220
0
230
1
70
8
71
3
72
8
73
4
74
0
42
1e-7
43
1e-7
44
1e-10
40
0
40
0
40
0
40
0
40
1
40
1
40
1
40
1
10
-5.588174819946289
20
212.5367431640625
30
0
10
-5.579008102416992
20
212.53726196289062
30
0
10
-5.569828987121582
20
212.53750610351562
30
0
10
-5.560647964477539
20
212.53750610351562
30
0
0
SPLINE
5
12D
330
11
100
AcDbEntity
100
AcDbSpline
8
Layer_0
210
0
220
0
230
1
70
8
71
3
72
8
73
4
74
0
42
1e-7
43
1e-7
44
1e-10
40
0
40
0
40
0
40
0
40
1
40
1
40
1
40
1
10
-5.560647964477539
20
212.53750610351562
30
0
10
-5.335800647735596
20
212.53750610351562
30
0
10
-5.1395111083984375
20
212.3852081298828
30
0
10
-5.083663463592529
20
212.1674041748047
30
0
0
SPLINE
5
12E
330
11
100
AcDbEntity
100
AcDbSpline
8
Layer_0
210
0
220
0
230
1
70
8
71
3
72
8
73
4
74
0
42
1e-7
43
1e-7
44
1e-10
40
0
40
0
40
0
40
0
40
1
40
1
40
1
40
1
10
-5.083663463592529
20
212.1674041748047
30
0
10
-5.0564775466918945
20
212.15750122070312
30
0
10
-5.030218124389648
20
212.1452178955078
30
0
10
-5.005190372467041
20
212.1306915283203
30
0
0
SPLINE
5
12F
330
11
100
AcDbEntity
100
AcDbSpline
8
Layer_0
210
0
220
0
230
1
70
8
71
3
72
8
73
4
74
0
42
1e-7
43
1e-7
44
1e-10
40
0
40
0
40
0
40
0
40
1
40
1
40
1
40
1
10
-5.005190372467041
20
212.1306915283203
30
0
10
-4.975874900817871
20
212.14085388183594
30
0
10
-4.9453887939453125
20
212.15029907226562
30
0
10
-4.913731575012207
20
212.1590576171875
30
0
0
SPLINE
5
130
330
11
100
AcDbEntity
100
AcDbSpline
8
Layer_0
210
0
220
0
230
1
70
8
71
3
72
8
73
4
74
0
42
1e-7
43
1e-7
44
1e-10
40
0
40
0
40
0
40
0
40
1
40
1
40
1
40
1
10
-4.913731575012207
20
212.1590576171875
30
0
10
-4.7515177726745605
20
212.20387268066406
30
0
10
-4.595813274383545
20
212.22628784179688
30
0
10
-4.446619033813477
20
212.22628784179688
30
0
0
SPLINE
5
131
330
11
100
AcDbEntity
100
AcDbSpline
8
Layer_0
210
0
220
0
230
1
70
8
71
3
72
8
73
4
74
0
42
1e-7
43
1e-7
44
1e-10
40
0
40
0
40
0
40
0
40
1
40
1
40
1
40
1
10
-4.446619033813477
20
212.22628784179688
30
0
10
-4.1331892013549805
20
212.22628784179688
30
0
10
-3.880165974299113
20
212.15948486328125
30
0
10
-3.687549352645874
20
212.02587890625
30
0
0
SPLINE
5
132
330
11
100
AcDbEntity
100
AcDbSpline
8
Layer_0
210
0
220
0
230
1
70
8
71
3
72
8
73
4
74
0
42
1e-7
43
1e-7
44
1e-10
40
0
40
0
40
0
40
0
40
1
40
1
40
1
40
1
10
-3.687549352645874
20
212.02587890625
30
0
10
-3.5995302200317383
20
212.0808563232422
30
0
10
-3.4943888187408447
20
212.125244140625
30
0
10
-3.3721253871917725
20
212.1590576171875
30
0
0
SPLINE
5
133
330
11
100
AcDbEntity
100
AcDbSpline
8
Layer_0
210
0
220
0
230
1
70
8
71
3
72
8
73
4
74
0
42
1e-7
43
1e-7
44
1e-10
40
0
40
0
40
0
40
0
40
1
40
1
40
1
40
1
10
-3.3721253871917725
20
212.1590576171875
30
0
10
-3.209911584854126
20
212.20387268066406
30
0
10
-3.0542073249816895
20
212.22628784179688
30
0
10
-2.905012845993042
20
212.22628784179688
30
0
0
SPLINE
5
134
330
11
100
AcDbEntity
100
AcDbSpline
8
Layer_0
210
0
220
0
230
1
70
8
71
3
72
8
73
4
74
0
42
1e-7
43
1e-7
44
1e-10
40
0
40
0
40
0
40
0
40
1
40
1
40
1
40
1
10
-2.905012845993042
20
212.22628784179688
30
0
10
-2.756251573562622
20
212.22628784179688
30
0
10
-2.621108373006185
20
212.21124267578125
30
0
10
-2.4995832443237305
20
212.18115234375
30
0
0
SPLINE
5
135
330
11
100
AcDbEntity
100
AcDbSpline
8
Layer_0
210
0
220
0
230
1
70
8
71
3
72
8
73
4
74
0
42
1e-7
43
1e-7
44
1e-10
40
0
40
0
40
0
40
0
40
1
40
1
40
1
40
1
10
-2.4995832443237305
20
212.18115234375
30
0
10
-2.4662201404571533
20
212.41641235351562
30
0
10
-2.269603729248047
20
212.59429931640625
30
0
10
-2.0321812629699707
20
212.60401916503906
30
0
0
LINE
5
136
330
11
100
AcDbEntity
100
AcDbLine
8
Layer_0
10
-2.0321812629699707
20
212.60401916503906
30
0
11
-1.5347951650619507
21
212.62437438964844
31
0
0
SPLINE
5
137
330
11
100
AcDbEntity
100
AcDbSpline
8
Layer_0
210
0
220
0
230
1
70
8
71
3
72
8
73
4
74
0
42
1e-7
43
1e-7
44
1e-10
40
0
40
0
40
0
40
0
40
1
40
1
40
1
40
1
10
-1.5347951650619507
20
212.62437438964844
30
0
10
-1.3579192161560059
20
212.63160705566406
30
0
10
-1.1907694339752197
20
212.54335021972656
30
0
10
-1.0969994068145752
20
212.39320373535156
30
0
0
LINE
5
138
330
11
100
AcDbEntity
100
AcDbLine
8
Layer_0
10
-1.0969994068145752
20
212.39320373535156
30
0
11
-1.0307354927062988
21
212.42633056640625
31
0
0
SPLINE
5
139
330
11
100
AcDbEntity
100
AcDbSpline
8
Layer_0
210
0
220
0
230
1
70
8
71
3
72
8
73
4
74
0
42
1e-7
43
1e-7
44
1e-10
40
0
40
0
40
0
40
0
40
1
40
1
40
1
40
1
10
-1.0307354927062988
20
212.42633056640625
30
0
10
-1.0191739797592163
20
212.43209838867188
30
0
10
-1.0073894262313843
20
212.4374237060547
30
0
10
-0.9954091906547546
20
212.44227600097656
30
0
0
SPLINE
5
13A
330
11
100
AcDbEntity
100
AcDbSpline
8
Layer_0
210
0
220
0
230
1
70
8
71
3
72
8
73
4
74
0
42
1e-7
43
1e-7
44
1e-10
40
0
40
0
40
0
40
0
40
1
40
1
40
1
40
1
10
-0.9954091906547546
20
212.44227600097656
30
0
10
-0.9799801111221313
20
212.456298828125
30
0
10
-0.9640152454376221
20
212.46975708007812
30
0
10
-0.9475146532058716
20
212.48265075683594
30
0
0
SPLINE
5
13B
330
11
100
AcDbEntity
100
AcDbSpline
8
Layer_0
210
0
220
0
230
1
70
8
71
3
72
8
73
4
74
0
42
1e-7
43
1e-7
44
1e-10
40
0
40
0
40
0
40
0
40
1
40
1
40
1
40
1
10
-0.9475146532058716
20
212.48265075683594
30
0
10
-0.7791063785552979
20
212.6142120361328
30
0
10
-0.5623340507348378
20
212.67999267578125
30
0
10
-0.2971976697444916
20
212.67999267578125
30
0
0
SPLINE
5
13C
330
11
100
AcDbEntity
100
AcDbSpline
8
Layer_0
210
0
220
0
230
1
70
8
71
3
72
8
73
4
74
0
42
1e-7
43
1e-7
44
1e-10
40
0
40
0
40
0
40
0
40
1
40
1
40
1
40
1
10
-0.2971976697444916
20
212.67999267578125
30
0
10
-0.025243699550628662
20
212.67999267578125
30
0
10
0.19521856307983398
20
212.45953369140625
30
0
10
0.19521856307983398
20
212.18759155273438
30
0
0
SPLINE
5
13D
330
11
100
AcDbEntity
100
AcDbSpline
8
Layer_0
210
0
220
0
230
1
70
8
71
3
72
8
73
4
74
0
42
1e-7
43
1e-7
44
1e-10
40
0
40
0
40
0
40
0
40
1
40
1
40
1
40
1
10
0.19521856307983398
20
212.18759155273438
30
0
10
0.19521856307983398
20
212.15792846679688
30
0
10
0.19253990054130554
20
212.1283416748047
30
0
10
0.18721522390842438
20
212.0991668701172
30
0
0
SPLINE
5
13E
330
11
100
AcDbEntity
100
AcDbSpline
8
Layer_0
210
0
220
0
230
1
70
8
71
3
72
8
73
4
74
0
42
1e-7
43
1e-7
44
1e-10
40
0
40
0
40
0
40
0
40
1
40
1
40
1
40
1
10
0.18721522390842438
20
212.0991668701172
30
0
10
0.18415023386478424
20
212.08238220214844
30
0
10
0.1808159500360489
20
212.0658416748047
30
0
10
0.17721237242221832
20
212.04954528808594
30
0
0
SPLINE
5
13F
330
11
100
AcDbEntity
100
AcDbSpline
8
Layer_0
210
0
220
0
230
1
70
8
71
3
72
8
73
4
74
0
42
1e-7
43
1e-7
44
1e-10
40
0
40
0
40
0
40
0
40
1
40
1
40
1
40
1
10
0.17721237242221832
20
212.04954528808594
30
0
10
0.2792576601107915
20
211.96092224121094
30
0
10
0.36088236172993976
20
211.8514862060547
30
0
10
0.4220864772796631
20
211.7212371826172
30
0
0
SPLINE
5
140
330
11
100
AcDbEntity
100
AcDbSpline
8
Layer_0
210
0
220
0
230
1
70
8
71
3
72
8
73
4
74
0
42
1e-7
43
1e-7
44
1e-10
40
0
40
0
40
0
40
0
40
1
40
1
40
1
40
1
10
0.4220864772796631
20
211.7212371826172
30
0
10
0.49402883648872375
20
211.568115234375
30
0
10
0.5299999713897705
20
211.3959503173828
30
0
10
0.5299999713897705
20
211.20472717285156
30
0
0
SPLINE
5
141
330
11
100
AcDbEntity
100
AcDbSpline
8
Layer_0
210
0
220
0
230
1
70
8
71
3
72
8
73
4
74
0
42
1e-7
43
1e-7
44
1e-10
40
0
40
0
40
0
40
0
40
1
40
1
40
1
40
1
10
0.5299999713897705
20
211.20472717285156
30
0
10
0.5299999713897705
20
211.04974365234375
30
0
10
0.5063264966011047
20
210.90167236328125
30
0
10
0.4589795172214508
20
210.760498046875
30
0
0
SPLINE
5
142
330
11
100
AcDbEntity
100
AcDbSpline
8
Layer_0
210
0
220
0
230
1
70
8
71
3
72
8
73
4
74
0
42
1e-7
43
1e-7
44
1e-10
40
0
40
0
40
0
40
0
40
1
40
1
40
1
40
1
10
0.4589795172214508
20
210.760498046875
30
0
10
0.4112239181995392
20
210.6180877685547
30
0
10
0.34417223930358887
20
210.49066162109375
30
0
10
0.25782451033592224
20
210.37823486328125
30
0
0
SPLINE
5
143
330
11
100
AcDbEntity
100
AcDbSpline
8
Layer_0
210
0
220
0
230
1
70
8
71
3
72
8
73
4
74
0
42
1e-7
43
1e-7
44
1e-10
40
0
40
0
40
0
40
0
40
1
40
1
40
1
40
1
10
0.25782451033592224
20
210.37823486328125
30
0
10
0.16440558433532715
20
210.25660705566406
30
0
10
0.054070375859737396
20
210.15968322753906
30
0
10
-0.07318110764026642
20
210.0874786376953
30
0
0
SPLINE
5
144
330
11
100
AcDbEntity
100
AcDbSpline
8
Layer_0
210
0
220
0
230
1
70
8
71
3
72
8
73
4
74
0
42
1e-7
43
1e-7
44
1e-10
40
0
40
0
40
0
40
0
40
1
40
1
40
1
40
1
10
-0.07318110764026642
20
210.0874786376953
30
0
10
-0.21796868741512299
20
210.00531005859375
30
0
10
-0.37254756689071655
20
209.9642333984375
30
0
10
-0.5369177460670471
20
209.9642333984375
30
0
0
SPLINE
5
145
330
11
100
AcDbEntity
100
AcDbSpline
8
Layer_0
210
0
220
0
230
1
70
8
71
3
72
8
73
4
74
0
42
1e-7
43
1e-7
44
1e-10
40
0
40
0
40
0
40
0
40
1
40
1
40
1
40
1
10
-0.5369177460670471
20
209.9642333984375
30
0
10
-0.6160668730735779
20
209.9642333984375
30
0
10
-0.6936867237091064
20
209.97451782226562
30
0
10
-0.769777238368988
20
209.99505615234375
30
0
0
SPLINE
5
146
330
11
100
AcDbEntity
100
AcDbSpline
8
Layer_0
210
0
220
0
230
1
70
8
71
3
72
8
73
4
74
0
42
1e-7
43
1e-7
44
1e-10
40
0
40
0
40
0
40
0
40
1
40
1
40
1
40
1
10
-0.769777238368988
20
209.99505615234375
30
0
10
-0.8457086682319641
20
209.97451782226562
30
0
10
-0.923493504524231
20
209.9642333984375
30
0
10
-1.0031317472457886
20
209.9642333984375
30
0
0
SPLINE
5
147
330
11
100
AcDbEntity
100
AcDbSpline
8
Layer_0
210
0
220
0
230
1
70
8
71
3
72
8
73
4
74
0
42
1e-7
43
1e-7
44
1e-10
40
0
40
0
40
0
40
0
40
1
40
1
40
1
40
1
10
-1.0031317472457886
20
209.9642333984375
30
0
10
-1.071445345878601
20
209.9642333984375
30
0
10
-1.1380804777145386
20
209.97132873535156
30
0
10
-1.2030372619628906
20
209.98553466796875
30
0
0
SPLINE
5
148
330
11
100
AcDbEntity
100
AcDbSpline
8
Layer_0
210
0
220
0
230
1
70
8
71
3
72
8
73
4
74
0
42
1e-7
43
1e-7
44
1e-10
40
0
40
0
40
0
40
0
40
1
40
1
40
1
40
1
10
-1.2030372619628906
20
209.98553466796875
30
0
10
-1.2909832000732422
20
209.9136505126953
30
0
10
-1.401074767112732
20
209.8743896484375
30
0
10
-1.5146586894989014
20
209.8743896484375
30
0
0
LINE
5
149
330
11
100
AcDbEntity
100
AcDbLine
8
Layer_0
10
-1.5146586894989014
20
209.8743896484375
30
0
11
-2.012044906616211
21
209.8743896484375
31
0
0
SPLINE
5
14A
330
11
100
AcDbEntity
100
AcDbSpline
8
Layer_0
210
0
220
0
230
1
70
8
71
3
72
8
73
4
74
0
42
1e-7
43
1e-7
44
1e-10
40
0
40
0
40
0
40
0
40
1
40
1
40
1
40
1
10
-2.012044906616211
20
209.8743896484375
30
0
10
-2.1145949363708496
20
209.8743896484375
30
0
10
-2.2145864963531494
20
209.90640258789062
30
0
10
-2.2980637550354004
20
209.96597290039062
30
0
0
SPLINE
5
14B
330
11
100
AcDbEntity
100
AcDbSpline
8
Layer_0
210
0
220
0
230
1
70
8
71
3
72
8
73
4
74
0
42
1e-7
43
1e-7
44
1e-10
40
0
40
0
40
0
40
0
40
1
40
1
40
1
40
1
10
-2.2980637550354004
20
209.96597290039062
30
0
10
-2.470583200454712
20
209.87969970703125
30
0
10
-2.6767776012420654
20
209.83657836914062
30
0
10
-2.916647434234619
20
209.83657836914062
30
0
0
SPLINE
5
14C
330
11
100
AcDbEntity
100
AcDbSpline
8
Layer_0
210
0
220
0
230
1
70
8
71
3
72
8
73
4
74
0
42
1e-7
43
1e-7
44
1e-10
40
0
40
0
40
0
40
0
40
1
40
1
40
1
40
1
10
-2.916647434234619
20
209.83657836914062
30
0
10
-3.230642795562744
20
209.83657836914062
30
0
10
-3.4875030517578125
20
209.9110107421875
30
0
10
-3.6872289180755615
20
210.05990600585938
30
0
0
SPLINE
5
14D
330
11
100
AcDbEntity
100
AcDbSpline
8
Layer_0
210
0
220
0
230
1
70
8
71
3
72
8
73
4
74
0
42
1e-7
43
1e-7
44
1e-10
40
0
40
0
40
0
40
0
40
1
40
1
40
1
40
1
10
-3.6872289180755615
20
210.05990600585938
30
0
10
-3.8861260414123535
20
209.9110107421875
30
0
10
-4.143134593963623
20
209.83657836914062
30
0
10
-4.458253860473633
20
209.83657836914062
30
0
0
SPLINE
5
14E
330
11
100
AcDbEntity
100
AcDbSpline
8
Layer_0
210
0
220
0
230
1
70
8
71
3
72
8
73
4
74
0
42
1e-7
43
1e-7
44
1e-10
40
0
40
0
40
0
40
0
40
1
40
1
40
1
40
1
10
-4.458253860473633
20
209.83657836914062
30
0
10
-4.686919212341309
20
209.83657836914062
30
0
10
-4.885282516479492
20
209.8760528564453
30
0
10
-5.053343772888184
20
209.95501708984375
30
0
0
SPLINE
5
14F
330
11
100
AcDbEntity
100
AcDbSpline
8
Layer_0
210
0
220
0
230
1
70
8
71
3
72
8
73
4
74
0
42
1e-7
43
1e-7
44
1e-10
40
0
40
0
40
0
40
0
40
1
40
1
40
1
40
1
10
-5.053343772888184
20
209.95501708984375
30
0
10
-5.069368839263916
20
209.94703674316406
30
0
10
-5.085816383361816
20
209.93994140625
30
0
10
-5.102613925933838
20
209.9337615966797
30
0
0
SPLINE
5
150
330
11
100
AcDbEntity
100
AcDbSpline
8
Layer_0
210
0
220
0
230
1
70
8
71
3
72
8
73
4
74
0
42
1e-7
43
1e-7
44
1e-10
40
0
40
0
40
0
40
0
40
1
40
1
40
1
40
1
10
-5.102613925933838
20
209.9337615966797
30
0
10
-5.168834209442139
20
209.9093983968099
30
0
10
-5.252744674682617
20
209.88886006673178
30
0
10
-5.354345321655273
20
209.8721466064453
30
0
0
SPLINE
5
151
330
11
100
AcDbEntity
100
AcDbSpline
8
Layer_0
210
0
220
0
230
1
70
8
71
3
72
8
73
4
74
0
42
1e-7
43
1e-7
44
1e-10
40
0
40
0
40
0
40
0
40
1
40
1
40
1
40
1
10
-5.354345321655273
20
209.8721466064453
30
0
10
-5.451562881469727
20
209.85618591308594
30
0
10
-5.545539379119873
20
209.84820556640625
30
0
10
-5.6362738609313965
20
209.84820556640625
30
0
0
SPLINE
5
152
330
11
100
AcDbEntity
100
AcDbSpline
8
Layer_0
210
0
220
0
230
1
70
8
71
3
72
8
73
4
74
0
42
1e-7
43
1e-7
44
1e-10
40
0
40
0
40
0
40
0
40
1
40
1
40
1
40
1
10
-5.6362738609313965
20
209.84820556640625
30
0
10
-5.821995735168457
20
209.84820556640625
30
0
10
-5.983714580535889
20
209.8846893310547
30
0
10
-6.121431350708008
20
209.95767211914062
30
0
0
SPLINE
5
153
330
11
100
AcDbEntity
100
AcDbSpline
8
Layer_0
210
0
220
0
230
1
70
8
71
3
72
8
73
4
74
0
42
1e-7
43
1e-7
44
1e-10
40
0
40
0
40
0
40
0
40
1
40
1
40
1
40
1
10
-6.121431350708008
20
209.95767211914062
30
0
10
-6.202500343322754
20
209.9033660888672
30
0
10
-6.2978715896606445
20
209.8743896484375
30
0
10
-6.395442485809326
20
209.8743896484375
30
0
0
LINE
5
154
330
11
100
AcDbEntity
100
AcDbLine
8
Layer_0
10
-6.395442485809326
20
209.8743896484375
30
0
11
-6.808475971221924
21
209.8743896484375
31
0
0
SPLINE
5
155
330
11
100
AcDbEntity
100
AcDbSpline
8
Layer_0
210
0
220
0
230
1
70
8
71
3
72
8
73
4
74
0
42
1e-7
43
1e-7
44
1e-10
40
0
40
0
40
0
40
0
40
1
40
1
40
1
40
1
10
-6.808475971221924
20
209.8743896484375
30
0
10
-6.847744941711426
20
209.8743896484375
30
0
10
-6.886873245239258
20
209.87908935546875
30
0
10
-6.9250264167785645
20
209.8883819580078
30
0
0
SPLINE
5
156
330
11
100
AcDbEntity
100
AcDbSpline
8
Layer_0
210
0
220
0
230
1
70
8
71
3
72
8
73
4
74
0
42
1e-7
43
1e-7
44
1e-10
40
0
40
0
40
0
40
0
40
1
40
1
40
1
40
1
10
-6.9250264167785645
20
209.8883819580078
30
0
10
-7.0198516845703125
20
209.85577392578125
30
0
10
-7.120619773864746
20
209.8394775390625
30
0
10
-7.227330207824707
20
209.8394775390625
30
0
0
SPLINE
5
157
330
11
100
AcDbEntity
100
AcDbSpline
8
Layer_0
210
0
220
0
230
1
70
8
71
3
72
8
73
4
74
0
42
1e-7
43
1e-7
44
1e-10
40
0
40
0
40
0
40
0
40
1
40
1
40
1
40
1
10
-7.227330207824707
20
209.8394775390625
30
0
10
-7.432771682739258
20
209.8394775390625
30
0
10
-7.612513065338135
20
209.8900909423828
30
0
10
-7.76655387878418
20
209.9913330078125
30
0
0
SPLINE
5
158
330
11
100
AcDbEntity
100
AcDbSpline
8
Layer_0
210
0
220
0
230
1
70
8
71
3
72
8
73
4
74
0
42
1e-7
43
1e-7
44
1e-10
40
0
40
0
40
0
40
0
40
1
40
1
40
1
40
1
10
-7.76655387878418
20
209.9913330078125
30
0
10
-7.8649582862854
20
209.9445343017578
30
0
10
-7.9926300048828125
20
209.9127655029297
30
0
10
-8.149569511413574
20
209.89605712890625
30
0
0
SPLINE
5
159
330
11
100
AcDbEntity
100
AcDbSpline
8
Layer_0
210
0
220
0
230
1
70
8
71
3
72
8
73
4
74
0
42
1e-7
43
1e-7
44
1e-10
40
0
40
0
40
0
40
0
40
1
40
1
40
1
40
1
10
-8.149569511413574
20
209.89605712890625
30
0
10
-8.285125732421875
20
209.88160705566406
30
0
10
-8.460555076599121
20
209.8743896484375
30
0
10
-8.675856590270996
20
209.8743896484375
30
0
0
LINE
5
15A
330
11
100
AcDbEntity
100
AcDbLine
8
Layer_0
10
-8.675856590270996
20
209.8743896484375
30
0
11
-9.240141868591309
21
209.8743896484375
31
0
0
SPLINE
5
15B
330
11
100
AcDbEntity
100
AcDbSpline
8
Layer_0
210
0
220
0
230
1
70
8
71
3
72
8
73
4
74
0
42
1e-7
43
1e-7
44
1e-10
40
0
40
0
40
0
40
0
40
1
40
1
40
1
40
1
10
-9.240141868591309
20
209.8743896484375
30
0
10
-9.311965942382812
20
209.8743896484375
30
0
10
-9.382920265197754
20
209.8900909423828
30
0
10
-9.448030471801758
20
209.92041015625
30
0
0
SPLINE
5
15C
330
11
100
AcDbEntity
100
AcDbSpline
8
Layer_0
210
0
220
0
230
1
70
8
71
3
72
8
73
4
74
0
42
1e-7
43
1e-7
44
1e-10
40
0
40
0
40
0
40
0
40
1
40
1
40
1
40
1
10
-9.448030471801758
20
209.92041015625
30
0
10
-9.548496882120768
20
209.87420654296875
30
0
10
-9.660508791605631
20
209.85110473632812
30
0
10
-9.784066200256348
20
209.85110473632812
30
0
0
SPLINE
5
15D
330
11
100
AcDbEntity
100
AcDbSpline
8
Layer_0
210
0
220
0
230
1
70
8
71
3
72
8
73
4
74
0
42
1e-7
43
1e-7
44
1e-10
40
0
40
0
40
0
40
0
40
1
40
1
40
1
40
1
10
-9.784066200256348
20
209.85110473632812
30
0
10
-9.983809471130371
20
209.85110473632812
30
0
10
-10.154207229614258
20
209.9147491455078
30
0
10
-10.29526138305664
20
210.04202270507812
30
0
0
SPLINE
5
15E
330
11
100
AcDbEntity
100
AcDbSpline
8
Layer_0
210
0
220
0
230
1
70
8
71
3
72
8
73
4
74
0
42
1e-7
43
1e-7
44
1e-10
40
0
40
0
40
0
40
0
40
1
40
1
40
1
40
1
10
-10.29526138305664
20
210.04202270507812
30
0
10
-10.38875675201416
20
209.9354705810547
30
0
10
-10.523639678955078
20
209.8743896484375
30
0
10
-10.665400505065918
20
209.8743896484375
30
0
0
LINE
5
15F
330
11
100
AcDbEntity
100
AcDbLine
8
Layer_0
10
-10.665400505065918
20
209.8743896484375
30
0
11
-11.18896484375
21
209.8743896484375
31
0
0
SPLINE
5
160
330
11
100
AcDbEntity
100
AcDbSpline
8
Layer_0
210
0
220
0
230
1
70
8
71
3
72
8
73
4
74
0
42
1e-7
43
1e-7
44
1e-10
40
0
40
0
40
0
40
0
40
1
40
1
40
1
40
1
10
-11.18896484375
20
209.8743896484375
30
0
10
-11.460919380187988
20
209.8743896484375
30
0
10
-11.681381225585938
20
210.0948486328125
30
0
10
-11.681381225585938
20
210.36679077148438
30
0
0
LINE
5
161
330
11
100
AcDbEntity
100
AcDbLine
8
Layer_0
10
-11.681381225585938
20
210.36679077148438
30
0
11
-11.681381225585938
21
211.16934204101562
31
0
0
SPLINE
5
162
330
11
100
AcDbEntity
100
AcDbSpline
8
Layer_0
210
0
220
0
230
1
70
8
71
3
72
8
73
4
74
0
42
1e-7
43
1e-7
44
1e-10
40
0
40
0
40
0
40
0
40
1
40
1
40
1
40
1
10
-11.681381225585938
20
211.16934204101562
30
0
10
-11.943645477294922
20
211.1822052001953
30
0
10
-12.149680137634277
20
211.39857482910156
30
0
10
-12.149680137634277
20
211.66116333007812
30
0
0
LINE
5
163
330
11
100
AcDbEntity
100
AcDbLine
8
Layer_0
10
-12.149680137634277
20
211.66116333007812
30
0
11
-12.149680137634277
21
211.9334716796875
31
0
0
SPLINE
5
164
330
11
100
AcDbEntity
100
AcDbSpline
8
Layer_0
210
0
220
0
230
1
70
8
71
3
72
8
73
4
74
0
42
1e-7
43
1e-7
44
1e-10
40
0
40
0
40
0
40
0
40
1
40
1
40
1
40
1
10
-12.149680137634277
20
211.9334716796875
30
0
10
-12.174479484558105
20
211.93116760253906
30
0
10
-12.199603080749512
20
211.92999267578125
30
0
10
-12.225000381469727
20
211.92999267578125
30
0
0
SPLINE
5
165
330
11
100
AcDbEntity
100
AcDbSpline
8
Layer_0
210
0
220
0
230
1
70
8
71
3
72
8
73
4
74
0
42
1e-7
43
1e-7
44
1e-10
40
0
40
0
40
0
40
0
40
1
40
1
40
1
40
1
10
-12.225000381469727
20
211.92999267578125
30
0
10
-12.669291496276855
20
211.92999267578125
30
0
10
-13.029999732971191
20
212.29071044921875
30
0
10
-13.029999732971191
20
212.73500061035156
30
0
0
SPLINE
5
166
330
11
100
AcDbEntity
100
AcDbSpline
8
Layer_0
210
0
220
0
230
1
70
8
71
3
72
8
73
4
74
0
42
1e-7
43
1e-7
44
1e-10
40
0
40
0
40
0
40
0
40
1
40
1
40
1
40
1
10
-13.029999732971191
20
212.73500061035156
30
0
10
-13.029999732971191
20
213.17929077148438
30
0
10
-12.669291496276855
20
213.5399932861328
30
0
10
-12.225000381469727
20
213.5399932861328
30
0
0
SPLINE
5
167
330
11
100
AcDbEntity
100
AcDbSpline
8
Layer_0
210
0
220
0
230
1
70
8
71
3
72
8
73
4
74
0
42
1e-7
43
1e-7
44
1e-10
40
0
40
0
40
0
40
0
40
1
40
1
40
1
40
1
10
-12.225000381469727
20
213.5399932861328
30
0
10
-11.780708312988281
20
213.5399932861328
30
0
10
-11.420000076293945
20
213.17929077148438
30
0
10
-11.420000076293945
20
212.73500061035156
30
0
0
SPLINE
5
168
330
11
100
AcDbEntity
100
AcDbSpline
8
Layer_0
210
0
220
0
230
1
70
8
71
3
72
8
73
4
74
0
42
1e-7
43
1e-7
44
1e-10
40
0
40
0
40
0
40
0
40
1
40
1
40
1
40
1
10
-12.225000381469727
20
212.23500061035156
30
0
10
-11.949042320251465
20
212.23500061035156
30
0
10
-11.725000381469727
20
212.45904541015625
30
0
10
-11.725000381469727
20
212.73500061035156
30
0
0
SPLINE
5
169
330
11
100
AcDbEntity
100
AcDbSpline
8
Layer_0
210
0
220
0
230
1
70
8
71
3
72
8
73
4
74
0
42
1e-7
43
1e-7
44
1e-10
40
0
40
0
40
0
40
0
40
1
40
1
40
1
40
1
10
-11.725000381469727
20
212.73500061035156
30
0
10
-11.725000381469727
20
213.01095581054688
30
0
10
-11.949042320251465
20
213.23500061035156
30
0
10
-12.225000381469727
20
213.23500061035156
30
0
0
SPLINE
5
16A
330
11
100
AcDbEntity
100
AcDbSpline
8
Layer_0
210
0
220
0
230
1
70
8
71
3
72
8
73
4
74
0
42
1e-7
43
1e-7
44
1e-10
40
0
40
0
40
0
40
0
40
1
40
1
40
1
40
1
10
-12.225000381469727
20
213.23500061035156
30
0
10
-12.500957489013672
20
213.23500061035156
30
0
10
-12.725000381469727
20
213.01095581054688
30
0
10
-12.725000381469727
20
212.73500061035156
30
0
0
SPLINE
5
16B
330
11
100
AcDbEntity
100
AcDbSpline
8
Layer_0
210
0
220
0
230
1
70
8
71
3
72
8
73
4
74
0
42
1e-7
43
1e-7
44
1e-10
40
0
40
0
40
0
40
0
40
1
40
1
40
1
40
1
10
-12.725000381469727
20
212.73500061035156
30
0
10
-12.725000381469727
20
212.45904541015625
30
0
10
-12.500957489013672
20
212.23500061035156
30
0
10
-12.225000381469727
20
212.23500061035156
30
0
0
SPLINE
5
16D
330
11
100
AcDbEntity
100
AcDbSpline
8
Layer_1
210
0
220
0
230
1
70
8
71
3
72
8
73
4
74
0
42
1e-7
43
1e-7
44
1e-10
40
0
40
0
40
0
40
0
40
1
40
1
40
1
40
1
10
-0.7030434844825724
20
211.85115182114055
30
0
10
-0.6982979822851597
20
211.82422508952007
30
0
10
-0.6943410594679759
20
211.7956522804294
30
0
10
-0.6911730187486331
20
211.7654333938685
30
0
0
SPLINE
5
16E
330
11
100
AcDbEntity
100
AcDbSpline
8
Layer_1
210
0
220
0
230
1
70
8
71
3
72
8
73
4
74
0
42
1e-7
43
1e-7
44
1e-10
40
0
40
0
40
0
40
0
40
1
40
1
40
1
40
1
10
-0.6911730187486331
20
211.7654333938685
30
0
10
-0.6423314155686818
20
211.79020628967697
30
0
10
-0.597274152531572
20
211.80879495056462
30
0
10
-0.556001229637304
20
211.8211993765315
30
0
0
SPLINE
5
16F
330
11
100
AcDbEntity
100
AcDbSpline
8
Layer_1
210
0
220
0
230
1
70
8
71
3
72
8
73
4
74
0
42
1e-7
43
1e-7
44
1e-10
40
0
40
0
40
0
40
0
40
1
40
1
40
1
40
1
10
-0.556001229637304
20
211.8211993765315
30
0
10
-0.505577355132775
20
211.836354076095
30
0
10
-0.4547401701814876
20
211.8439314511032
30
0
10
-0.4034896747834418
20
211.8439314511032
30
0
0
SPLINE
5
170
330
11
100
AcDbEntity
100
AcDbSpline
8
Layer_1
210
0
220
0
230
1
70
8
71
3
72
8
73
4
74
0
42
1e-7
43
1e-7
44
1e-10
40
0
40
0
40
0
40
0
40
1
40
1
40
1
40
1
10
-0.4034896747834418
20
211.8439314511032
30
0
10
-0.3059484093484513
20
211.8439314511032
30
0
10
-0.2208064573162138
20
211.8198216750423
30
0
10
-0.14806381868672935
20
211.77160212292048
30
0
0
SPLINE
5
171
330
11
100
AcDbEntity
100
AcDbSpline
8
Layer_1
210
0
220
0
230
1
70
8
71
3
72
8
73
4
74
0
42
1e-7
43
1e-7
44
1e-10
40
0
40
0
40
0
40
0
40
1
40
1
40
1
40
1
10
-0.14806381868672935
20
211.77160212292048
30
0
10
-0.07532118005724492
20
211.7233825876163
30
0
10
-0.018559811431839428
20
211.65587519782812
30
0
10
0.022220085377745558
20
211.56908000400884
30
0
0
SPLINE
5
172
330
11
100
AcDbEntity
100
AcDbSpline
8
Layer_1
210
0
220
0
230
1
70
8
71
3
72
8
73
4
74
0
42
1e-7
43
1e-7
44
1e-10
40
0
40
0
40
0
40
0
40
1
40
1
40
1
40
1
10
0.022220085377745558
20
211.56908000400884
30
0
10
0.06299998218733055
20
211.48228481018955
30
0
10
0.08339003149799373
20
211.37992155590712
30
0
10
0.08339003149799373
20
211.26199034206732
30
0
0
SPLINE
5
173
330
11
100
AcDbEntity
100
AcDbSpline
8
Layer_1
210
0
220
0
230
1
70
8
71
3
72
8
73
4
74
0
42
1e-7
43
1e-7
44
1e-10
40
0
40
0
40
0
40
0
40
1
40
1
40
1
40
1
10
0.08339003149799373
20
211.26199034206732
30
0
10
0.08339003149799373
20
211.16059154609786
30
0
10
0.06823538238743176
20
211.06470352244992
30
0
10
0.037925882354566065
20
210.97432627112346
30
0
0
SPLINE
5
174
330
11
100
AcDbEntity
100
AcDbSpline
8
Layer_1
210
0
220
0
230
1
70
8
71
3
72
8
73
4
74
0
42
1e-7
43
1e-7
44
1e-10
40
0
40
0
40
0
40
0
40
1
40
1
40
1
40
1
10
0.037925882354566065
20
210.97432627112346
30
0
10
0.007616382321700359
20
210.883949019797
30
0
10
-0.03399013538140159
20
210.80431794099212
30
0
10
-0.08689387256648118
20
210.7354328328971
30
0
0
SPLINE
5
175
330
11
100
AcDbEntity
100
AcDbSpline
8
Layer_1
210
0
220
0
230
1
70
8
71
3
72
8
73
4
74
0
42
1e-7
43
1e-7
44
1e-10
40
0
40
0
40
0
40
0
40
1
40
1
40
1
40
1
10
-0.08689387256648118
20
210.7354328328971
30
0
10
-0.13979760975156078
20
210.66654775843736
30
0
10
-0.20096755587180898
20
210.61240408991202
30
0
10
-0.2704037109272259
20
210.57300182732104
30
0
0
SPLINE
5
176
330
11
100
AcDbEntity
100
AcDbSpline
8
Layer_1
210
0
220
0
230
1
70
8
71
3
72
8
73
4
74
0
42
1e-7
43
1e-7
44
1e-10
40
0
40
0
40
0
40
0
40
1
40
1
40
1
40
1
10
-0.2704037109272259
20
210.57300182732104
30
0
10
-0.3398398659826429
20
210.53359949745948
30
0
10
-0.4134091255056442
20
210.51389843343455
30
0
10
-0.49111148949622985
20
210.51389843343455
30
0
0
SPLINE
5
177
330
11
100
AcDbEntity
100
AcDbSpline
8
Layer_1
210
0
220
0
230
1
70
8
71
3
72
8
73
4
74
0
42
1e-7
43
1e-7
44
1e-10
40
0
40
0
40
0
40
0
40
1
40
1
40
1
40
1
10
-0.49111148949622985
20
210.51389843343455
30
0
10
-0.5313403393454272
20
210.51389843343455
30
0
10
-0.5707426692069785
20
210.5198226171087
30
0
10
-0.6093182772691421
20
210.5316707826452
30
0
0
SPLINE
5
178
330
11
100
AcDbEntity
100
AcDbSpline
8
Layer_1
210
0
220
0
230
1
70
8
71
3
72
8
73
4
74
0
42
1e-7
43
1e-7
44
1e-10
40
0
40
0
40
0
40
0
40
1
40
1
40
1
40
1
10
-0.6093182772691421
20
210.5316707826452
30
0
10
-0.6478938853313058
20
210.54351894818168
30
0
10
-0.6861940203662109
20
210.56101582436503
30
0
10
-0.7242185814679869
20
210.5841612093835
30
0
0
SPLINE
5
179
330
11
100
AcDbEntity
100
AcDbSpline
8
Layer_1
210
0
220
0
230
1
70
8
71
3
72
8
73
4
74
0
42
1e-7
43
1e-7
44
1e-10
40
0
40
0
40
0
40
0
40
1
40
1
40
1
40
1
10
-0.7242185814679869
20
210.5841612093835
30
0
10
-0.7622431425697629
20
210.56101582436503
30
0
10
-0.8004054401851678
20
210.54351894818168
30
0
10
-0.8387055752200729
20
210.5316707826452
30
0
0
SPLINE
5
17A
330
11
100
AcDbEntity
100
AcDbSpline
8
Layer_1
210
0
220
0
230
1
70
8
71
3
72
8
73
4
74
0
42
1e-7
43
1e-7
44
1e-10
40
0
40
0
40
0
40
0
40
1
40
1
40
1
40
1
10
-0.8387055752200729
20
210.5316707826452
30
0
10
-0.8770057102549781
20
210.5198226171087
30
0
10
-0.9165456757242877
20
210.51389843343455
30
0
10
-0.9573256734397435
20
210.51389843343455
30
0
0
SPLINE
5
17B
330
11
100
AcDbEntity
100
AcDbSpline
8
Layer_1
210
0
220
0
230
1
70
8
71
3
72
8
73
4
74
0
42
1e-7
43
1e-7
44
1e-10
40
0
40
0
40
0
40
0
40
1
40
1
40
1
40
1
10
-0.9573256734397435
20
210.51389843343455
30
0
10
-1.0350280374303291
20
210.51389843343455
30
0
10
-1.1085972969533306
20
210.53359949745948
30
0
10
-1.1780334520087477
20
210.57300182732104
30
0
0
SPLINE
5
17C
330
11
100
AcDbEntity
100
AcDbSpline
8
Layer_1
210
0
220
0
230
1
70
8
71
3
72
8
73
4
74
0
42
1e-7
43
1e-7
44
1e-10
40
0
40
0
40
0
40
0
40
1
40
1
40
1
40
1
10
-1.1780334520087477
20
210.57300182732104
30
0
10
-1.2474696070641647
20
210.61240408991202
30
0
10
-1.3086395531844128
20
210.66654775843736
30
0
10
-1.3615432903694924
20
210.7354328328971
30
0
0
SPLINE
5
17D
330
11
100
AcDbEntity
100
AcDbSpline
8
Layer_1
210
0
220
0
230
1
70
8
71
3
72
8
73
4
74
0
42
1e-7
43
1e-7
44
1e-10
40
0
40
0
40
0
40
0
40
1
40
1
40
1
40
1
10
-1.3615432903694924
20
210.7354328328971
30
0
10
-1.414447027554572
20
210.80431790735682
30
0
10
-1.4560536125282546
20
210.88381128328336
30
0
10
-1.4863630452905399
20
210.9739129606767
30
0
0
SPLINE
5
17E
330
11
100
AcDbEntity
100
AcDbSpline
8
Layer_1
210
0
220
0
230
1
70
8
71
3
72
8
73
4
74
0
42
1e-7
43
1e-7
44
1e-10
40
0
40
0
40
0
40
0
40
1
40
1
40
1
40
1
10
-1.4863630452905399
20
210.9739129606767
30
0
10
-1.5166724696440024
20
211.06401463807003
30
0
10
-1.531827194433967
20
211.16004039823162
30
0
10
-1.531827194433967
20
211.26199034206732
30
0
0
SPLINE
5
17F
330
11
100
AcDbEntity
100
AcDbSpline
8
Layer_1
210
0
220
0
230
1
70
8
71
3
72
8
73
4
74
0
42
1e-7
43
1e-7
44
1e-10
40
0
40
0
40
0
40
0
40
1
40
1
40
1
40
1
10
-1.531827194433967
20
211.26199034206732
30
0
10
-1.531827194433967
20
211.3799215895424
30
0
10
-1.5114372123938846
20
211.48228481018955
30
0
10
-1.470657248313719
20
211.56908000400884
30
0
0
SPLINE
5
180
330
11
100
AcDbEntity
100
AcDbSpline
8
Layer_1
210
0
220
0
230
1
70
8
71
3
72
8
73
4
74
0
42
1e-7
43
1e-7
44
1e-10
40
0
40
0
40
0
40
0
40
1
40
1
40
1
40
1
10
-1.470657248313719
20
211.56908000400884
30
0
10
-1.4298772842335534
20
211.65587519782812
30
0
10
-1.3729782127298094
20
211.72338257079866
30
0
10
-1.299960033802486
20
211.77160212292048
30
0
0
SPLINE
5
181
330
11
100
AcDbEntity
100
AcDbSpline
8
Layer_1
210
0
220
0
230
1
70
8
71
3
72
8
73
4
74
0
42
1e-7
43
1e-7
44
1e-10
40
0
40
0
40
0
40
0
40
1
40
1
40
1
40
1
10
-1.299960033802486
20
211.77160212292048
30
0
10
-1.2269418716928078
20
211.81982165822467
30
0
10
-1.1419376561741992
20
211.8439314511032
30
0
10
-1.0449474881525318
20
211.8439314511032
30
0
0
SPLINE
5
182
330
11
100
AcDbEntity
100
AcDbSpline
8
Layer_1
210
0
220
0
230
1
70
8
71
3
72
8
73
4
74
0
42
1e-7
43
1e-7
44
1e-10
40
0
40
0
40
0
40
0
40
1
40
1
40
1
40
1
10
-1.0449474881525318
20
211.8439314511032
30
0
10
-0.993696992754486
20
211.8439314511032
30
0
10
-0.9428598078031983
20
211.836354076095
30
0
10
-0.8924359332986693
20
211.8211993765315
30
0
0
SPLINE
5
183
330
11
100
AcDbEntity
100
AcDbSpline
8
Layer_1
210
0
220
0
230
1
70
8
71
3
72
8
73
4
74
0
42
1e-7
43
1e-7
44
1e-10
40
0
40
0
40
0
40
0
40
1
40
1
40
1
40
1
10
-0.8924359332986693
20
211.8211993765315
30
0
10
-0.8572092229115955
20
211.81061209712112
30
0
10
-0.8192256632286511
20
211.79551975738576
30
0
10
-0.7784852542498355
20
211.77592235732544
30
0
0
SPLINE
5
184
330
11
100
AcDbEntity
100
AcDbSpline
8
Layer_1
210
0
220
0
230
1
70
8
71
3
72
8
73
4
74
0
42
1e-7
43
1e-7
44
1e-10
40
0
40
0
40
0
40
0
40
1
40
1
40
1
40
1
10
-0.7784852542498355
20
211.77592235732544
30
0
10
-0.7838001682761198
20
211.82066669443958
30
0
10
-0.7909232146011012
20
211.8605576105275
30
0
10
-0.7998543932247801
20
211.895595256948
30
0
0
SPLINE
5
185
330
11
100
AcDbEntity
100
AcDbSpline
8
Layer_1
210
0
220
0
230
1
70
8
71
3
72
8
73
4
74
0
42
1e-7
43
1e-7
44
1e-10
40
0
40
0
40
0
40
0
40
1
40
1
40
1
40
1
10
-0.7998543932247801
20
211.895595256948
30
0
10
-0.8106004648404994
20
211.93775292251738
30
0
10
-0.8242397095835278
20
211.97426201198104
30
0
10
-0.8407721274538651
20
212.005122525339
30
0
0
LINE
5
186
330
11
100
AcDbEntity
100
AcDbLine
8
Layer_1
10
-0.8407721274538651
20
212.005122525339
30
0
11
-0.7647230052503133
21
212.04314708644077
31
0
0
SPLINE
5
187
330
11
100
AcDbEntity
100
AcDbSpline
8
Layer_1
210
0
220
0
230
1
70
8
71
3
72
8
73
4
74
0
42
1e-7
43
1e-7
44
1e-10
40
0
40
0
40
0
40
0
40
1
40
1
40
1
40
1
10
-0.7647230052503133
20
212.04314708644077
30
0
10
-0.7511275536552081
20
212.01875526165335
30
0
10
-0.7392004797277554
20
211.99059162586872
30
0
10
-0.728941682562084
20
211.958656078181
30
0
0
SPLINE
5
188
330
11
100
AcDbEntity
100
AcDbSpline
8
Layer_1
210
0
220
0
230
1
70
8
71
3
72
8
73
4
74
0
42
1e-7
43
1e-7
44
1e-10
40
0
40
0
40
0
40
0
40
1
40
1
40
1
40
1
10
-0.728941682562084
20
211.958656078181
30
0
10
-0.6989560231038757
20
212.0429760173545
30
0
10
-0.6554995308009887
20
212.10737323594023
30
0
10
-0.5985722056534228
20
212.15184773393824
30
0
0
SPLINE
5
189
330
11
100
AcDbEntity
100
AcDbSpline
8
Layer_1
210
0
220
0
230
1
70
8
71
3
72
8
73
4
74
0
42
1e-7
43
1e-7
44
1e-10
40
0
40
0
40
0
40
0
40
1
40
1
40
1
40
1
10
-0.5985722056534228
20
212.15184773393824
30
0
10
-0.5192165998758035
20
212.21384430095202
30
0
10
-0.4034896747834419
20
212.24484258445887
30
0
10
-0.25139143037633804
20
212.24484258445887
30
0
0
SPLINE
5
18A
330
11
100
AcDbEntity
100
AcDbSpline
8
Layer_1
210
0
220
0
230
1
70
8
71
3
72
8
73
4
74
0
42
1e-7
43
1e-7
44
1e-10
40
0
40
0
40
0
40
0
40
1
40
1
40
1
40
1
10
-0.25139143037633804
20
212.24484258445887
30
0
10
-0.276741137777522
20
212.10597027434804
30
0
10
-0.32936933466476265
20
212.00539806563683
30
0
10
-0.40927602103805993
20
211.94312595832523
30
0
0
SPLINE
5
18B
330
11
100
AcDbEntity
100
AcDbSpline
8
Layer_1
210
0
220
0
230
1
70
8
71
3
72
8
73
4
74
0
42
1e-7
43
1e-7
44
1e-10
40
0
40
0
40
0
40
0
40
1
40
1
40
1
40
1
10
-0.40927602103805993
20
211.94312595832523
30
0
10
-0.4792818906399608
20
211.88856963524128
30
0
10
-0.577204479360669
20
211.85791160633067
30
0
10
-0.7030434844825724
20
211.85115182114055
30
0
0
ENDSEC
0
SECTION
2
OBJECTS
0
DICTIONARY
5
1
330
0
100
AcDbDictionary
281
1
3
ACAD_GROUP
350
15
0
DICTIONARY
5
15
330
1
100
AcDbDictionary
281
1
0
ENDSEC
0
EOF