0
SECTION
2
HEADER
9
$INSUNITS
70
1
9
$ACADVER
1
AC1014
9
$HANDSEED
5
FFFF
0
ENDSEC
0
SECTION
2
TABLES
0
TABLE
2
VPORT
5
8
100
AcDbSymbolTable
0
ENDTAB
0
TABLE
2
LTYPE
5
5
100
AcDbSymbolTable
0
LTYPE
5
14
100
AcDbSymbolTableRecord
100
AcDbLinetypeTableRecord
2
BYBLOCK
70
0
0
LTYPE
5
15
100
AcDbSymbolTableRecord
100
AcDbLinetypeTableRecord
2
BYLAYER
70
0
0
ENDTAB
0
TABLE
2
LAYER
5
2
100
AcDbSymbolTable
70
2
0
LAYER
5
50
100
AcDbSymbolTableRecord
100
AcDbLayerTableRecord
2
0
70
0
6
CONTINUOUS
0
ENDTAB
0
TABLE
2
STYLE
5
3
100
AcDbSymbolTable
70
1
0
STYLE
5
11
100
AcDbSymbolTableRecord
100
AcDbTextStyleTableRecord
2
STANDARD
70
0
0
ENDTAB
0
TABLE
2
VIEW
5
6
100
AcDbSymbolTable
70
0
0
ENDTAB
0
TABLE
2
UCS
5
7
100
AcDbSymbolTable
70
0
0
ENDTAB
0
TABLE
2
APPID
5
9
100
AcDbSymbolTable
70
2
0
APPID
5
12
100
AcDbSymbolTableRecord
100
AcDbRegAppTableRecord
2
ACAD
70
0
0
ENDTAB
0
TABLE
2
DIMSTYLE
5
A
100
AcDbSymbolTable
70
1
0
ENDTAB
0
TABLE
2
BLOCK_RECORD
5
1
100
AcDbSymbolTable
70
1
0
BLOCK_RECORD
5
1F
100
AcDbSymbolTableRecord
100
AcDbBlockTableRecord
2
*MODEL_SPACE
0
BLOCK_RECORD
5
1B
100
AcDbSymbolTableRecord
100
AcDbBlockTableRecord
2
*PAPER_SPACE
0
ENDTAB
0
ENDSEC
0
SECTION
2
BLOCKS
0
BLOCK
5
20
100
AcDbEntity
100
AcDbBlockBegin
2
*MODEL_SPACE
0
ENDBLK
5
21
100
AcDbEntity
100
AcDbBlockEnd
0
BLOCK
5
1C
100
AcDbEntity
100
AcDbBlockBegin
2
*PAPER_SPACE
0
ENDBLK
5
1D
100
AcDbEntity
100
AcDbBlockEnd
0
ENDSEC
0
SECTION
2
ENTITIES
0
LWPOLYLINE
5
100
100
AcDbEntity
8
0
100
AcDbPolyline
90
13
70
1
43
0.0
10
46.412873461253625
20
15.529900891016002
42
0.51116182993508863
10
50.542653389733545
20
13.825822512896101
42
0.36081076344948365
10
53.043903573064981
20
21.26077621557317
42
-0.22295227556337344
10
53.280206217812506
20
24.597215863617937
42
0.65694405495995689
10
47.561904359376854
20
32.071893141301786
42
0.3633683309301024
10
45.480130814674403
20
29.210647782562642
10
45.705933903307326
20
25.898742924083528
10
48.455456375898912
20
26.08620322053115
10
48.488128027565494
20
25.607000732450903
10
45.738605554973908
20
25.419540436003285
10
46.380201809587057
20
16.009103379096253
10
49.129724282178643
20
16.196563675543867
10
49.162395933845225
20
15.717361187463625
0
LWPOLYLINE
5
101
100
AcDbEntity
8
0
100
AcDbPolyline
90
13
70
1
43
0.0
10
46.412873461253618
20
15.529900891015997
42
0.51116182993508985
10
50.542653389733545
20
13.825822512896098
42
0.36081076344948304
10
53.043903573064981
20
21.260776215573159
42
-0.22295227556337435
10
53.280206217812506
20
24.597215863617933
42
0.65694405495995678
10
47.561904359376847
20
32.071893141301778
42
0.36336833093010096
10
45.480130814674403
20
29.210647782562628
10
45.705933903307319
20
25.898742924083518
10
48.455456375898905
20
26.086203220531143
10
48.488128027565487
20
25.607000732450899
10
45.738605554973908
20
25.419540436003285
10
46.380201809587049
20
16.009103379096242
10
49.129724282178643
20
16.196563675543867
10
49.162395933845225
20
15.717361187463617
0
LINE
5
102
100
AcDbEntity
8
0
100
AcDbLine
10
38.118115018979481
20
15.255364168492726
30
1.2238679011615898e-14
11
42.842524467798377
21
15.255364168492815
31
1.2238679011615967e-14
0
LINE
5
103
100
AcDbEntity
8
0
100
AcDbLine
10
42.842524467798377
20
15.255364168492815
30
1.2238679011615967e-14
11
42.842524467798192
21
24.66580122539985
31
1.9407048146990924e-14
0
LINE
5
104
100
AcDbEntity
8
0
100
AcDbLine
10
42.842524467798192
20
24.66580122539985
30
1.9407048146990924e-14
11
38.118115018979296
21
24.665801225399758
31
1.9581886418585366e-14
0
LINE
5
105
100
AcDbEntity
8
0
100
AcDbLine
10
38.118115018979296
20
24.665801225399758
30
1.9581886418585366e-14
11
38.118115018979289
21
25.145003713480005
31
1.996980883368576e-14
0
LINE
5
106
100
AcDbEntity
8
0
100
AcDbLine
10
38.118115018979289
20
25.145003713480005
30
1.996980883368576e-14
11
42.842524467798192
21
25.145003713480097
31
1.9931562961774533e-14
0
LINE
5
107
100
AcDbEntity
8
0
100
AcDbLine
10
42.842524467798192
20
25.145003713480097
30
1.9931562961774533e-14
11
42.842524467798114
21
29.054693091603085
31
2.3034942282577064e-14
0
ELLIPSE
5
108
100
AcDbEntity
8
0
100
AcDbEllipse
10
39.692918168585514
20
29.054693091603021
30
2.3778004936853745e-14
11
3.1496062992125982
21
-2.7546645482940299e-13
31
0.0
40
0.9976838686260906
41
1.0658141036401503e-13
42
2.6812144830899927
0
ELLIPSE
5
109
100
AcDbEntity
8
0
100
AcDbEllipse
10
45.36831535411946
20
26.246669779068423
30
2.0630916048152513e-14
11
-9.4845712395180506
21
8.2056586408808322e-15
31
0.0
40
0.99768386862609082
41
5.8228071366796996
42
6.0272875738127594
0
ELLIPSE
5
110
100
AcDbEntity
8
0
100
AcDbEllipse
10
32.383790413647297
20
29.635991158060531
30
2.342832839366472e-14
11
3.9370078740157477
21
4.5896258392007833e-14
31
0.0
40
0.99768386862609071
41
5.6651051066397198
42
6.0272875738127434
0
ELLIPSE
5
111
100
AcDbEntity
8
0
100
AcDbEllipse
10
48.195994296243867
20
18.419321132310792
30
1.4686414813939078e-14
11
-15.464649559938557
21
-6.7468112438334917e-14
31
0.0
40
0.99768386862609038
41
5.6651051066397287
42
7.0918533420379193
0
ELLIPSE
5
112
100
AcDbEntity
8
0
100
AcDbEllipse
10
39.692918168585891
20
9.531643958406379
30
7.3432074069695389e-15
11
3.1496062992125977
21
5.8152091817290196e-14
31
0.0
40
0.9976838686260906
41
3.950260688448112
42
6.2831853071795862
0
LINE
5
113
100
AcDbEntity
8
0
100
AcDbLine
10
42.842524467798484
20
9.5316439584064376
30
7.3432074069695847e-15
11
42.842524467798384
21
14.776161680412566
31
1.1889002468426873e-14
0
LINE
5
114
100
AcDbEntity
8
0
100
AcDbLine
10
42.842524467798384
20
14.776161680412566
30
1.1889002468426873e-14
11
38.118115018979488
21
14.776161680412473
31
1.1539325925237777e-14
0
LINE
5
115
100
AcDbEntity
8
0
100
AcDbLine
10
38.118115018979488
20
14.776161680412473
30
1.1539325925237777e-14
11
38.118115018979481
21
15.255364168492726
31
1.2238679011615898e-14
0
LINE
5
116
100
AcDbEntity
8
0
100
AcDbLine
10
19.521170381119589
20
20.431135913620668
30
1.6085120986695181e-14
11
19.521170381119511
21
24.986694721252061
31
1.9756724690179949e-14
0
ELLIPSE
5
117
100
AcDbEntity
8
0
100
AcDbEllipse
10
17.190800454381716
20
17.718919945116223
30
1.4336738270750053e-14
11
7.6483139026678719
21
-6.6313170315000626e-13
31
0.0
40
0.99768386862609093
41
1.2611826814814986
42
2.0708078219503427
0
LINE
5
118
100
AcDbEntity
8
0
100
AcDbLine
10
13.523926286631331
20
24.415358864637259
30
1.9852942283633511e-14
11
13.523926286631401
21
20.431135913620565
31
1.630366882618832e-14
0
LINE
5
119
100
AcDbEntity
8
0
100
AcDbLine
10
13.523926286631401
20
20.431135913620565
30
1.630366882618832e-14
11
13.043611326001477
21
20.431135913620551
31
1.6784474073073225e-14
0
LINE
5
120
100
AcDbEntity
8
0
100
AcDbLine
10
13.043611326001477
20
20.431135913620551
30
1.6784474073073225e-14
11
13.043611326001413
21
24.13035101986873
31
1.9800434258078577e-14
0
ELLIPSE
5
121
100
AcDbEntity
8
0
100
AcDbEllipse
10
17.190800454381716
20
17.718919945116223
30
1.4336738270750053e-14
11
7.6483139026678746
21
-4.8543125544268475e-13
31
0.0
40
0.99768386862609082
41
2.1438920335268876
42
2.7198933121645994
0
ELLIPSE
5
122
100
AcDbEntity
8
0
100
AcDbEllipse
10
12.008571955922749
20
20.038346988964591
30
1.6085120986695181e-14
11
-1.9685039370078734
21
-3.3699123644431509e-14
31
0.0
40
0.99768386862609104
41
5.8614859657543104
42
7.8539816339744828
0
LINE
5
123
100
AcDbEntity
8
0
100
AcDbLine
10
12.008571955922781
20
18.074402365684886
30
1.4504318995301093e-14
11
25.870132764669851
21
18.074402365685131
31
1.4686414813939277e-14
0
ELLIPSE
5
124
100
AcDbEntity
8
0
100
AcDbEllipse
10
25.870132764669815
20
20.03834698896484
30
1.6085120986695181e-14
11
1.9685039370078738
21
3.2195879205947508e-14
31
0.0
40
0.99768386862609104
41
4.7123889803846897
42
7.098819530275513
0
ELLIPSE
5
125
100
AcDbEntity
8
0
100
AcDbEllipse
10
22.324883908919642
20
16.280679002976058
30
1.3287708641182974e-14
11
7.1409785820827985
21
2.0363537171731191e-13
31
0.0
40
0.99768386862609082
41
0.81563422309591449
42
1.575508013626292
0
ELLIPSE
5
126
100
AcDbEntity
8
0
100
AcDbEllipse
10
17.190800454381716
20
17.718919945116223
30
1.4336738270750053e-14
11
7.6483139026678719
21
2.8564467153091463e-13
31
0.0
40
0.99768386862609093
41
0.84079470842498483
42
1.1944867498804177
0
LINE
5
127
100
AcDbEntity
8
0
100
AcDbLine
10
20.001485341749433
20
24.815584652858011
30
2.0047667333505719e-14
11
20.001485341749511
21
20.431135913620679
31
1.6740764505174604e-14
0
LINE
5
128
100
AcDbEntity
8
0
100
AcDbLine
10
20.001485341749511
20
20.431135913620679
30
1.6740764505174604e-14
11
19.521170381119589
21
20.431135913620668
31
1.6085120986695181e-14
0
LINE
5
129
100
AcDbEntity
8
0
100
AcDbLine
10
11.267988763013596
20
9.2036235280140151
30
7.3432074069695389e-15
11
13.8777875921689
21
9.203623528014063
31
7.3432074069695768e-15
0
ELLIPSE
5
130
100
AcDbEntity
8
0
100
AcDbEllipse
10
10.086886400808892
20
8.1434938517695947
30
6.9935308637805131e-15
11
3.9370078740157486
21
-3.0183083085846161e-13
31
0.0
40
0.99768386862609071
41
0.27328715799800718
42
2.5520678828874384
0
ELLIPSE
5
131
100
AcDbEntity
8
0
100
AcDbEllipse
10
15.345747203102361
20
4.6341592622212993
30
3.846441975079282e-15
11
-10.263799581855098
21
-6.2610882429167225e-13
31
0.0
40
0.99768386862609082
41
5.6936605364770942
42
7.0690404690803677
0
ELLIPSE
5
132
100
AcDbEntity
8
0
100
AcDbEllipse
10
5.3088499457875411
20
-5.3886478542336311
30
-4.1961185182683078e-15
11
3.9370078740157477
21
6.372436207562479e-14
31
0.0
40
0.99768386862609082
41
6.0196406582328148
42
7.0690404690804112
0
ELLIPSE
5
133
100
AcDbEntity
8
0
100
AcDbEllipse
10
18.264169408209931
20
-8.8761640772116674
30
-7.3432074069695389e-15
11
-9.4816213133883593
21
-2.6528772534157907e-13
31
0.0
40
0.99768386862609071
41
6.0196406582328024
42
6.8813120910798657
0
ELLIPSE
5
134
100
AcDbEntity
8
0
100
AcDbEllipse
10
12.05539033781716
20
-13.096967669327029
30
-1.0140619752481744e-14
11
1.9685039370078743
21
3.3789867138768937e-14
31
0.0
40
0.99768386862609071
41
3.7397194374900815
42
6.2831853071795862
0
LINE
5
135
100
AcDbEntity
8
0
100
AcDbLine
10
14.023894274825034
20
-13.096967669326995
30
-1.0140619752481717e-14
11
14.023894274824944
21
-8.2314912596138488
31
-6.1630490737065773e-15
0
LINE
5
136
100
AcDbEntity
8
0
100
AcDbLine
10
14.023894274824944
20
-8.2314912596138488
30
-6.1630490737065773e-15
11
11.267988763013921
21
-8.2314912596138985
31
-6.6438543205915282e-15
0
LINE
5
137
100
AcDbEntity
8
0
100
AcDbLine
10
11.267988763013921
20
-8.2314912596138985
30
-6.6438543205915282e-15
11
11.267988763013912
21
-7.7522887715336513
31
-6.2559319054911617e-15
0
LINE
5
138
100
AcDbEntity
8
0
100
AcDbLine
10
11.267988763013912
20
-7.7522887715336513
30
-6.2559319054911617e-15
11
14.023894274824936
21
-7.752288771533598
31
-6.2941777774024211e-15
0
LINE
5
139
100
AcDbEntity
8
0
100
AcDbLine
10
14.023894274824936
20
-7.752288771533598
30
-6.2941777774024211e-15
11
14.023894274824759
21
1.6581482853734397
31
1.5735444443506155e-15
0
LINE
5
140
100
AcDbEntity
8
0
100
AcDbLine
10
14.023894274824759
20
1.6581482853734397
30
1.5735444443506155e-15
11
11.267988763013737
21
1.6581482853733875
31
1.3987061727560626e-15
0
LINE
5
141
100
AcDbEntity
8
0
100
AcDbLine
10
11.267988763013737
20
1.6581482853733875
30
1.3987061727560626e-15
11
11.267988763013728
21
2.1373507734536359
31
2.1363051310454536e-15
0
LINE
5
142
100
AcDbEntity
8
0
100
AcDbLine
10
11.267988763013728
20
2.1373507734536359
30
2.1363051310454536e-15
11
14.023894274824752
21
2.1373507734536861
31
1.7483827159451681e-15
0
LINE
5
143
100
AcDbEntity
8
0
100
AcDbLine
10
14.023894274824752
20
2.1373507734536861
30
1.7483827159451681e-15
11
14.02389427482464
21
8.1434938517696676
31
6.5564351847942309e-15
0
ELLIPSE
5
144
100
AcDbEntity
8
0
100
AcDbEllipse
10
10.086886400808892
20
8.1434938517695947
30
6.9935308637805131e-15
11
3.9370078740157477
21
3.9541069152073776e-14
31
0.0
40
0.99768386862609082
41
8.4376949871511866e-15
42
0.14844261752804833
0
LINE
5
145
100
AcDbEntity
8
0
100
AcDbLine
10
13.980597468005019
20
8.7244210399338211
30
7.4609549149767852e-15
11
11.267988763013607
21
8.7244210399337696
31
7.3432074069694995e-15
0
LINE
5
146
100
AcDbEntity
8
0
100
AcDbLine
10
11.267988763013607
20
8.7244210399337696
30
7.3432074069694995e-15
11
11.267988763013596
21
9.2036235280140151
31
7.3432074069695389e-15
0
LINE
5
147
100
AcDbEntity
8
0
100
AcDbLine
10
33.513296365371858
20
-0.47427718826308174
30
0
11
33.513296365371794
21
3.0504000358952217
31
2.7974123455122052e-15
0
LINE
5
148
100
AcDbEntity
8
0
100
AcDbLine
10
33.513296365371794
20
3.0504000358952217
30
2.7974123455122052e-15
11
33.993611326001712
21
3.0504000358952292
31
2.7974123455122115e-15
0
LINE
5
149
100
AcDbEntity
8
0
100
AcDbLine
10
33.993611326001712
20
3.0504000358952292
30
2.7974123455122115e-15
11
33.993611326001776
21
-0.38077979377882987
31
4.3709567898628207e-17
0
ELLIPSE
5
150
100
AcDbEntity
8
0
100
AcDbEllipse
10
35.260595295027365
20
-8.1341941820431227
30
-5.9445012342134363e-15
11
-7.8740157480314936
21
-1.4033331557900719e-12
31
0.0
40
0.99768386862609115
41
4.0983989634772886
42
4.8739985028588819
0
ELLIPSE
5
151
100
AcDbEntity
8
0
100
AcDbEllipse
10
43.653088259230366
20
3.74459238306313
30
3.1470888887012311e-15
11
-6.692913385826774
21
-4.4860590883919477e-13
31
0.0
40
0.99768386862609093
41
0.9568063098876064
42
1.29819304762209
0
LINE
5
152
100
AcDbEntity
8
0
100
AcDbLine
10
41.851091640962451
20
-2.68624425621078
30
-2.0254416689216955e-15
11
41.851091640962345
21
3.0504000358953709
31
2.8411219134108334e-15
0
LINE
5
153
100
AcDbEntity
8
0
100
AcDbLine
10
41.851091640962345
20
3.0504000358953709
30
2.8411219134108334e-15
11
42.331406601592263
21
3.0504000358953802
31
2.7974123455122115e-15
0
LINE
5
154
100
AcDbEntity
8
0
100
AcDbLine
10
42.331406601592263
20
3.0504000358953802
30
2.7974123455122115e-15
11
42.33140660159237
21
-2.8013275160067699
31
-2.1854783949314102e-15
0
ELLIPSE
5
155
100
AcDbEntity
8
0
100
AcDbEllipse
10
43.653088259230366
20
3.74459238306313
30
3.1470888887012311e-15
11
-6.6929133858267713
21
2.5955225233473276e-14
31
0.0
40
0.99768386862609093
41
1.3720150141156648
42
2.349818643192731
0
LINE
5
156
100
AcDbEntity
8
0
100
AcDbLine
10
48.355422349623836
20
-1.0070590239628885
30
-7.5270361067104919e-16
11
48.355422349623765
21
3.0504000358954886
31
2.141768827032782e-15
0
LINE
5
157
100
AcDbEntity
8
0
100
AcDbLine
10
48.355422349623765
20
3.0504000358954886
30
2.141768827032782e-15
11
48.835737310253677
21
3.0504000358954975
31
2.7974123455122115e-15
0
LINE
5
158
100
AcDbEntity
8
0
100
AcDbLine
10
48.835737310253677
20
3.0504000358954975
30
2.7974123455122115e-15
11
48.835737310253741
21
-0.48060037944173423
31
-8.7419135797256413e-17
0
ELLIPSE
5
159
100
AcDbEntity
8
0
100
AcDbEllipse
10
43.653088259230366
20
3.74459238306313
30
3.1470888887012311e-15
11
6.6929133858267713
21
4.4203492740001598e-13
31
0.0
40
0.99768386862609115
41
5.5980741885682876
42
6.2191964851769708
0
ELLIPSE
5
160
100
AcDbEntity
8
0
100
AcDbEllipse
10
48.36782879685137
20
3.4431889605514296
30
3.1470888887012311e-15
11
1.9685039370078738
21
3.2696679133051319e-14
31
0.0
40
0.99768386862609104
41
6.2191964851770214
42
7.8539816339744757
0
LINE
5
161
100
AcDbEntity
8
0
100
AcDbLine
10
48.367828796851342
20
5.4071335838311363
30
4.7278908800953151e-15
11
22.890068018915059
21
5.4071335838306762
31
4.1961185182679497e-15
0
ELLIPSE
5
162
100
AcDbEntity
8
0
100
AcDbEllipse
10
22.890068018915095
20
3.4431889605509709
30
2.7974123455122052e-15
11
-1.9685039370078738
21
-1.440453462891312e-13
31
0.0
40
0.99768386862609104
41
4.7123889803846346
42
7.1720282040215011
0
ELLIPSE
5
163
100
AcDbEntity
8
0
100
AcDbEllipse
10
29.857575331880341
20
12.005071556241145
30
9.4412666661036924e-15
11
-13.022586758036603
21
-8.4799020793736305e-13
31
0.0
40
0.99768386862609082
41
0.88884289684192208
42
1.352375766640709
0
LINE
5
164
100
AcDbEntity
8
0
100
AcDbLine
10
27.035737310253751
20
-0.67866502386540462
30
-7.7599638298805281e-16
11
27.035737310253687
21
3.050400035895104
31
2.6225740739176923e-15
0
LINE
5
165
100
AcDbEntity
8
0
100
AcDbLine
10
27.035737310253687
20
3.050400035895104
30
2.6225740739176923e-15
11
27.516052270883602
21
3.0504000358951129
31
2.7974123455122115e-15
0
LINE
5
166
100
AcDbEntity
8
0
100
AcDbLine
10
27.516052270883602
20
3.0504000358951129
30
2.7974123455122115e-15
11
27.516052270883669
21
-0.77560676369941761
31
-2.1854783949314103e-16
0
ELLIPSE
5
167
100
AcDbEntity
8
0
100
AcDbEllipse
10
29.857575331880341
20
12.005071556241145
30
9.4412666661036924e-15
11
-13.022586758036606
21
-9.2859969775821869e-13
31
0.0
40
0.99768386862609082
41
1.3900083558264971
42
1.8323272645318551
0
ELLIPSE
5
168
100
AcDbEntity
8
0
100
AcDbEllipse
10
35.260595295027365
20
-8.1341941820431227
30
-5.9445012342134363e-15
11
-7.8740157480314954
21
-5.7302820602030754e-13
31
0.0
40
0.99768386862609104
41
4.9361587415834407
42
4.9739199181216485
0
LINE
5
169
100
AcDbEntity
8
0
100
AcDbLine
10
34.001485341750097
20
-10.794697152798586
30
-9.0915901229146674e-15
11
33.999782953271904
21
-14.025640613366114
31
-1.171416419683236e-14
0
ELLIPSE
5
170
100
AcDbEntity
8
0
100
AcDbEllipse
10
36.124655004325859
20
17.035047137561598
30
1.2588355554804924e-14
11
31.205224407885588
21
9.7378122498637819e-13
31
0.0
40
0.99768386862609071
41
4.6442427772985342
42
4.75475826355488
0
ELLIPSE
5
171
100
AcDbEntity
8
0
100
AcDbEllipse
10
37.529781602708226
20
-16.032143891942546
30
-1.2588355554804924e-14
11
-1.9685039370078745
21
-1.3246523329413158e-14
31
0.0
40
0.99768386862609071
41
4.3458127464928138
42
4.7547582635549146
0
ELLIPSE
5
172
100
AcDbEntity
8
0
100
AcDbEllipse
10
41.551840395214917
20
-5.5803740773626878
30
-4.8954716046463587e-15
11
9.2530930392225237
21
2.4985543660608438e-13
31
0.0
40
0.99768386862609082
41
4.3458127464927934
42
4.7453582277174213
0
LINE
5
173
100
AcDbEntity
8
0
100
AcDbLine
10
41.856852644617987
20
-14.807018916446406
30
-1.2195728385342433e-14
11
41.858964538018895
21
-10.798880785525913
31
-8.698204011827013e-15
0
LINE
5
174
100
AcDbEntity
8
0
100
AcDbLine
10
41.858964538018895
20
-10.798880785525913
30
-8.698204011827013e-15
11
42.33927943228359
21
-10.799132693124387
31
-9.091792877257946e-15
0
LINE
5
175
100
AcDbEntity
8
0
100
AcDbLine
10
42.33927943228359
20
-10.799132693124387
30
-9.091792877257946e-15
11
42.3371825794679
21
-14.778725470811631
31
-1.2238679011615898e-14
0
ELLIPSE
5
176
100
AcDbEntity
8
0
100
AcDbEllipse
10
41.551840395214917
20
-5.5803740773626878
30
-4.8954716046463587e-15
11
9.2530930392225201
21
2.978768722842618e-13
31
0.0
40
0.99768386862609071
41
4.7973646874432703
42
5.5346947357864016
0
LINE
5
177
100
AcDbEntity
8
0
100
AcDbLine
10
48.331738227354961
20
-11.862829576117809
30
-9.9406216305498833e-15
11
48.33173822735494
21
-10.794697152798323
31
-9.6379597216475188e-15
0
LINE
5
178
100
AcDbEntity
8
0
100
AcDbLine
10
48.33173822735494
20
-10.794697152798323
30
-9.6379597216475188e-15
11
48.812053187984858
21
-10.794697152798314
31
-9.0915901229146595e-15
0
LINE
5
179
100
AcDbEntity
8
0
100
AcDbLine
10
48.812053187984858
20
-10.794697152798314
30
-9.0915901229146595e-15
11
48.812053187984873
21
-11.369130483645984
31
-9.9002171290392884e-15
0
ELLIPSE
5
180
100
AcDbEntity
8
0
100
AcDbEllipse
10
50.037867969083777
20
-12.905818182670872
30
-1.0839972838859796e-14
11
-1.9685039370078734
21
-5.4559927476288325e-14
31
0.0
40
0.99768386862609082
41
4.646413722064894
42
5.3845953939100788
0
ELLIPSE
5
181
100
AcDbEntity
8
0
100
AcDbEllipse
10
50.837554680929102
20
-0.83043372420175066
30
-1.3987061727561026e-15
11
10.161302968151043
21
3.0703582045557779e-13
31
0.0
40
0.99768386862609082
41
4.6464137220648922
42
4.9095106649520508
0
ELLIPSE
5
182
100
AcDbEntity
8
0
100
AcDbEllipse
10
52.596305156488775
20
-9.6163303788304191
30
-8.3922370365366157e-15
11
1.1811023622047241
21
2.1919027803111672e-14
31
0.0
40
0.99768386862609093
41
4.9095106649520499
42
7.8539816339744828
0
LINE
5
183
100
AcDbEntity
8
0
100
AcDbLine
10
52.596305156488754
20
-8.4379636048625954
30
-7.4437558417001657e-15
11
22.418808176395721
21
-8.437963604863155
31
-7.3432074069700059e-15
0
ELLIPSE
5
184
100
AcDbEntity
8
0
100
AcDbEllipse
10
22.418808176395746
20
-9.6163303788309751
30
-8.0425604933475906e-15
11
-1.1811023622047243
21
-2.9011576517736481e-14
31
0.0
40
0.99768386862609093
41
4.7123889803846861
42
7.3799304028413193
0
ELLIPSE
5
185
100
AcDbEntity
8
0
100
AcDbEllipse
10
36.124655004325859
20
17.035047137561598
30
1.2588355554804924e-14
11
31.205224407885588
21
3.8292239929733778e-12
31
0.0
40
0.99768386862609071
41
4.2383377492514231
42
4.4171062423374536
0
LINE
5
186
100
AcDbEntity
8
0
100
AcDbLine
10
27.043611326002104
20
-12.750464751458098
30
-1.1030953539647646e-14
11
27.043611326002065
21
-10.794697152798717
31
-9.2882831784584938e-15
0
LINE
5
187
100
AcDbEntity
8
0
100
AcDbLine
10
27.043611326002065
20
-10.794697152798717
30
-9.2882831784584938e-15
11
27.523926286631987
21
-10.794697152798708
31
-9.0915901229146595e-15
0
LINE
5
188
100
AcDbEntity
8
0
100
AcDbLine
10
27.523926286631987
20
-10.794697152798708
30
-9.0915901229146595e-15
11
27.523926286632026
21
-12.892034960260503
31
-1.0752553703062539e-14
0
ELLIPSE
5
189
100
AcDbEntity
8
0
100
AcDbEllipse
10
36.124655004325859
20
17.035047137561598
30
1.2588355554804924e-14
11
31.205224407885581
21
1.1584917106228108e-12
31
0.0
40
0.99768386862609082
41
4.4331561965974533
42
4.6288608361042165
0
LINE
5
190
100
AcDbEntity
8
0
100
AcDbLine
10
33.521170381120257
20
-13.9893584734613
30
-1.1525261179694265e-14
11
33.521170381120179
21
-10.794697152798596
31
-8.9604614192187826e-15
0
LINE
5
191
100
AcDbEntity
8
0
100
AcDbLine
10
33.521170381120179
20
-10.794697152798596
30
-8.9604614192187826e-15
11
34.001485341750097
21
-10.794697152798586
31
-9.0915901229146674e-15
0
ELLIPSE
5
192
100
AcDbEntity
8
0
100
AcDbEllipse
10
69.71946760898588
20
-8.3773590938167715
30
-6.8186925921860005e-15
11
3.4749015748031491
21
5.0784914394205758e-14
31
0.0
40
0.99768386862609082
41
4.3955885627963056
42
6.2831853071795862
0
LINE
5
193
100
AcDbEntity
8
0
100
AcDbLine
10
73.194369183789021
20
-8.3773590938167217
30
-6.8186925921859595e-15
11
73.194369183789021
21
-8.0483154451490666
31
-6.5537033368005665e-15
0
LINE
5
194
100
AcDbEntity
8
0
100
AcDbLine
10
73.194369183789021
20
-8.0483154451490666
30
-6.5537033368005665e-15
11
70.438463671977999
21
-8.0483154451491075
31
-6.6438543205915188e-15
0
LINE
5
195
100
AcDbEntity
8
0
100
AcDbLine
10
70.438463671977999
20
-8.0483154451491075
30
-6.6438543205915188e-15
11
70.438463671977985
21
-7.5691129570688593
31
-6.6001447526928595e-15
0
LINE
5
196
100
AcDbEntity
8
0
100
AcDbLine
10
70.438463671977985
20
-7.5691129570688593
30
-6.6001447526928595e-15
11
73.194369183789021
21
-7.5691129570688158
31
-6.2941777774024282e-15
0
LINE
5
197
100
AcDbEntity
8
0
100
AcDbLine
10
73.194369183789021
20
-7.5691129570688158
30
-6.2941777774024282e-15
11
73.194369183788879
21
1.841324099838223
31
1.4861253085533591e-15
0
LINE
5
198
100
AcDbEntity
8
0
100
AcDbLine
10
73.194369183788879
20
1.841324099838223
30
1.4861253085533591e-15
11
70.438463671977843
21
1.8413240998381781
31
1.5735444443505818e-15
0
LINE
5
199
100
AcDbEntity
8
0
100
AcDbLine
10
70.438463671977843
20
1.8413240998381781
30
1.5735444443505818e-15
11
70.438463671977829
21
2.320526587918426
31
1.7920922838437566e-15
0
LINE
5
200
100
AcDbEntity
8
0
100
AcDbLine
10
70.438463671977829
20
2.320526587918426
30
1.7920922838437566e-15
11
73.194369183788865
21
2.3205265879184687
31
1.7483827159451618e-15
0
LINE
5
201
100
AcDbEntity
8
0
100
AcDbLine
10
73.194369183788865
20
2.3205265879184687
30
1.7483827159451618e-15
11
73.194369183788766
21
8.9075968543986033
31
6.9061117279832568e-15
0
LINE
5
202
100
AcDbEntity
8
0
100
AcDbLine
10
73.194369183788766
20
8.9075968543986033
30
6.9061117279832568e-15
11
70.438463671977729
21
8.9075968543985606
31
6.9935308637804791e-15
0
LINE
5
203
100
AcDbEntity
8
0
100
AcDbLine
10
70.438463671977729
20
8.9075968543985606
30
6.9935308637804791e-15
11
70.438463671977715
21
9.3867993424788096
31
7.7365935180571933e-15
0
LINE
5
204
100
AcDbEntity
8
0
100
AcDbLine
10
70.438463671977715
20
9.3867993424788096
30
7.7365935180571933e-15
11
73.194369183788751
21
9.3867993424788523
31
7.5180456785640846e-15
0
LINE
5
205
100
AcDbEntity
8
0
100
AcDbLine
10
73.194369183788751
20
9.3867993424788523
30
7.5180456785640846e-15
11
73.194369183788737
21
9.6161099004312067
31
7.7038113421332217e-15
0
ELLIPSE
5
206
100
AcDbEntity
8
0
100
AcDbEllipse
10
70.969467608985596
20
9.6161099004311712
30
7.692883950158564e-15
11
2.2249015748031495
21
7.561954861968407e-14
31
0.0
40
0.99768386862609071
41
6.2831853071795676
42
7.3631357622230071
0
ELLIPSE
5
207
100
AcDbEntity
8
0
100
AcDbEllipse
10
69.908234553991903
20
7.635147687461866
30
6.1193395058079488e-15
11
-4.4762718716371621
21
-2.1368278345286138e-13
31
0.0
40
0.99768386862609071
41
4.2215431086332025
42
6.6278838018888422
0
ELLIPSE
5
208
100
AcDbEntity
8
0
100
AcDbEllipse
10
60.137134609433183
20
4.1351341314036221
30
3.1470888887012311e-15
11
5.9055118110236231
21
1.9620017211298544e-13
31
0.0
40
0.99768386862609071
41
5.6311638995935702
42
6.6278838018888564
0
ELLIPSE
5
209
100
AcDbEntity
8
0
100
AcDbEllipse
10
71.089913963561585
20
-4.2068397620139946
30
-3.6716037034847695e-15
11
-7.8740157480314972
21
-2.5366136708884587e-13
31
0.0
40
0.99768386862609071
41
5.6311638995935693
42
7.5371812163860836
0
ENDSEC
0
SECTION
2
OBJECTS
0
DICTIONARY
5
C
100
AcDbDictionary
3
ACAD_GROUP
350
D
3
ACAD_MLINESTYLE
350
17
0
DICTIONARY
5
D
100
AcDbDictionary
0
DICTIONARY
5
1A
330
C
100
AcDbDictionary
0
DICTIONARY
5
17
100
AcDbDictionary
0
ENDSEC
0
EOF
