  0
SECTION
  2
HEADER
  9
$ACADVER
  1
AC1009
  9
$FILLMODE
 70
 0
  9
$SPLFRAME
 70
 1
  9
$EXTMIN
 10
0
 20
0
 30
0.0
  9
$EXTMAX
 10
1058.33
 20
1058.33
 30
0.0
  0
ENDSEC
  0
SECTION
  2
TABLES
  0
TABLE
  2
LAYER
 70
1
  0
LAYER
  2
0
 70
     0
 62
     7
  6
CONTINUOUS
  0
ENDTAB
  0
ENDSEC
  0
SECTION
  2
ENTITIES
  0
POLYLINE
  8
0
 62
     0
 66
     1
 10
0
 20
0
 30
0.0
 70
     1
 40
0.566929
 41
0.566929
  0
VERTEX
  8
0
 10
10.9747
 20
10.0004
 30
0.0
 40
0.2
 41
0.2
  0
VERTEX
  8
0
 10
110.975
 20
10.0004
 30
0.0
 40
0.2
 41
0.2
  0
VERTEX
  8
0
 10
110.975
 20
19.9995
 30
0.0
 40
0.2
 41
0.2
  0
VERTEX
  8
0
 10
10.9747
 20
19.9995
 30
0.0
 40
0.2
 41
0.2
  0
VERTEX
  8
0
 10
10.9747
 20
10.0004
 30
0.0
 40
0.2
 41
0.2
  0
SEQEND
 8
0
  0
TEXT
  8
0
 62
     1
 10
21.8492
 20
13.3923
 30
0.0
 40
8.001
  1
100mm, burn:0.10mm
 50
0
  0
POLYLINE
  8
0
 62
     5
 66
     1
 10
0
 20
0
 30
0.0
 70
     1
 40
0.566929
 41
0.566929
  0
VERTEX
  8
0
 10
44.8744
 20
53.5506
 30
0.0
 40
0.2
 41
0.2
  0
VERTEX
  8
0
 10
44.8744
 20
53.4691
 30
0.0
 40
0.2
 41
0.2
  0
VERTEX
  8
0
 10
44.8497
 20
53.2225
 30
0.0
 40
0.2
 41
0.2
  0
VERTEX
  8
0
 10
44.7809
 20
52.9029
 30
0.0
 40
0.2
 41
0.2
  0
VERTEX
  8
0
 10
44.6663
 20
52.5956
 30
0.0
 40
0.2
 41
0.2
  0
VERTEX
  8
0
 10
44.5548
 20
52.3752
 30
0.0
 40
0.2
 41
0.2
  0
VERTEX
  8
0
 10
44.5107
 20
52.3064
 30
0.0
 40
0.2
 41
0.2
  0
VERTEX
  8
0
 10
44.4652
 20
52.2372
 30
0.0
 40
0.2
 41
0.2
  0
VERTEX
  8
0
 10
44.3121
 20
52.0428
 30
0.0
 40
0.2
 41
0.2
  0
VERTEX
  8
0
 10
44.0806
 20
51.8114
 30
0.0
 40
0.2
 41
0.2
  0
VERTEX
  8
0
 10
43.8189
 20
51.616
 30
0.0
 40
0.2
 41
0.2
  0
VERTEX
  8
0
 10
43.6051
 20
51.4918
 30
0.0
 40
0.2
 41
0.2
  0
VERTEX
  8
0
 10
43.531
 20
51.4572
 30
0.0
 40
0.2
 41
0.2
  0
VERTEX
  8
0
 10
43.4301
 20
51.4117
 30
0.0
 40
0.2
 41
0.2
  0
VERTEX
  8
0
 10
42.901
 20
51.2741
 30
0.0
 40
0.2
 41
0.2
  0
VERTEX
  8
0
 10
42.3566
 20
51.259
 30
0.0
 40
0.2
 41
0.2
  0
VERTEX
  8
0
 10
42.248
 20
51.2741
 30
0.0
 40
0.2
 41
0.2
  0
VERTEX
  8
0
 10
42.1665
 20
51.2865
 30
0.0
 40
0.2
 41
0.2
  0
VERTEX
  8
0
 10
41.9255
 20
51.3443
 30
0.0
 40
0.2
 41
0.2
  0
VERTEX
  8
0
 10
41.6183
 20
51.4586
 30
0.0
 40
0.2
 41
0.2
  0
VERTEX
  8
0
 10
41.3314
 20
51.616
 30
0.0
 40
0.2
 41
0.2
  0
VERTEX
  8
0
 10
41.1289
 20
51.7592
 30
0.0
 40
0.2
 41
0.2
  0
VERTEX
  8
0
 10
41.0683
 20
51.8114
 30
0.0
 40
0.2
 41
0.2
  0
VERTEX
  8
0
 10
41.0062
 20
51.8664
 30
0.0
 40
0.2
 41
0.2
  0
VERTEX
  8
0
 10
40.8354
 20
52.0457
 30
0.0
 40
0.2
 41
0.2
  0
VERTEX
  8
0
 10
40.6396
 20
52.3074
 30
0.0
 40
0.2
 41
0.2
  0
VERTEX
  8
0
 10
40.4827
 20
52.5942
 30
0.0
 40
0.2
 41
0.2
  0
VERTEX
  8
0
 10
40.3902
 20
52.8242
 30
0.0
 40
0.2
 41
0.2
  0
VERTEX
  8
0
 10
40.3684
 20
52.9015
 30
0.0
 40
0.2
 41
0.2
  0
VERTEX
  8
0
 10
40.3366
 20
53.0077
 30
0.0
 40
0.2
 41
0.2
  0
VERTEX
  8
0
 10
40.2745
 20
53.5506
 30
0.0
 40
0.2
 41
0.2
  0
VERTEX
  8
0
 10
40.3366
 20
54.0935
 30
0.0
 40
0.2
 41
0.2
  0
VERTEX
  8
0
 10
40.3684
 20
54.1983
 30
0.0
 40
0.2
 41
0.2
  0
VERTEX
  8
0
 10
40.3902
 20
54.2766
 30
0.0
 40
0.2
 41
0.2
  0
VERTEX
  8
0
 10
40.4827
 20
54.507
 30
0.0
 40
0.2
 41
0.2
  0
VERTEX
  8
0
 10
40.6396
 20
54.7934
 30
0.0
 40
0.2
 41
0.2
  0
VERTEX
  8
0
 10
40.8354
 20
55.0556
 30
0.0
 40
0.2
 41
0.2
  0
VERTEX
  8
0
 10
41.0062
 20
55.2344
 30
0.0
 40
0.2
 41
0.2
  0
VERTEX
  8
0
 10
41.0683
 20
55.2884
 30
0.0
 40
0.2
 41
0.2
  0
VERTEX
  8
0
 10
41.1304
 20
55.342
 30
0.0
 40
0.2
 41
0.2
  0
VERTEX
  8
0
 10
41.3314
 20
55.4852
 30
0.0
 40
0.2
 41
0.2
  0
VERTEX
  8
0
 10
41.6183
 20
55.6426
 30
0.0
 40
0.2
 41
0.2
  0
VERTEX
  8
0
 10
41.9255
 20
55.7569
 30
0.0
 40
0.2
 41
0.2
  0
VERTEX
  8
0
 10
42.1665
 20
55.8161
 30
0.0
 40
0.2
 41
0.2
  0
VERTEX
  8
0
 10
42.248
 20
55.8271
 30
0.0
 40
0.2
 41
0.2
  0
VERTEX
  8
0
 10
42.3566
 20
55.8437
 30
0.0
 40
0.2
 41
0.2
  0
VERTEX
  8
0
 10
42.901
 20
55.8271
 30
0.0
 40
0.2
 41
0.2
  0
VERTEX
  8
0
 10
43.4301
 20
55.6891
 30
0.0
 40
0.2
 41
0.2
  0
VERTEX
  8
0
 10
43.531
 20
55.6426
 30
0.0
 40
0.2
 41
0.2
  0
VERTEX
  8
0
 10
43.604
 20
55.6094
 30
0.0
 40
0.2
 41
0.2
  0
VERTEX
  8
0
 10
43.8189
 20
55.4852
 30
0.0
 40
0.2
 41
0.2
  0
VERTEX
  8
0
 10
44.0806
 20
55.2884
 30
0.0
 40
0.2
 41
0.2
  0
VERTEX
  8
0
 10
44.3121
 20
55.058
 30
0.0
 40
0.2
 41
0.2
  0
VERTEX
  8
0
 10
44.4652
 20
54.864
 30
0.0
 40
0.2
 41
0.2
  0
VERTEX
  8
0
 10
44.5107
 20
54.7934
 30
0.0
 40
0.2
 41
0.2
  0
VERTEX
  8
0
 10
44.5534
 20
54.7261
 30
0.0
 40
0.2
 41
0.2
  0
VERTEX
  8
0
 10
44.6663
 20
54.5056
 30
0.0
 40
0.2
 41
0.2
  0
VERTEX
  8
0
 10
44.7809
 20
54.1997
 30
0.0
 40
0.2
 41
0.2
  0
VERTEX
  8
0
 10
44.8497
 20
53.8797
 30
0.0
 40
0.2
 41
0.2
  0
VERTEX
  8
0
 10
44.8744
 20
53.6332
 30
0.0
 40
0.2
 41
0.2
  0
VERTEX
  8
0
 10
44.8744
 20
53.5506
 30
0.0
 40
0.2
 41
0.2
  0
SEQEND
 8
0
  0
POLYLINE
  8
0
 62
     0
 66
     1
 10
0
 20
0
 30
0.0
 70
     1
 40
0.566929
 41
0.566929
  0
VERTEX
  8
0
 10
70.703
 20
51.5553
 30
0.0
 40
0.2
 41
0.2
  0
VERTEX
  8
0
 10
71.4029
 20
51.6117
 30
0.0
 40
0.2
 41
0.2
  0
VERTEX
  8
0
 10
72.1046
 20
51.7564
 30
0.0
 40
0.2
 41
0.2
  0
VERTEX
  8
0
 10
72.8059
 20
51.9617
 30
0.0
 40
0.2
 41
0.2
  0
VERTEX
  8
0
 10
73.5058
 20
52.2192
 30
0.0
 40
0.2
 41
0.2
  0
VERTEX
  8
0
 10
74.2597
 20
52.5487
 30
0.0
 40
0.2
 41
0.2
  0
VERTEX
  8
0
 10
74.2749
 20
53.5506
 30
0.0
 40
0.2
 41
0.2
  0
VERTEX
  8
0
 10
74.2597
 20
54.5511
 30
0.0
 40
0.2
 41
0.2
  0
VERTEX
  8
0
 10
73.5058
 20
54.8802
 30
0.0
 40
0.2
 41
0.2
  0
VERTEX
  8
0
 10
72.8059
 20
55.1381
 30
0.0
 40
0.2
 41
0.2
  0
VERTEX
  8
0
 10
72.1046
 20
55.3434
 30
0.0
 40
0.2
 41
0.2
  0
VERTEX
  8
0
 10
71.4029
 20
55.4881
 30
0.0
 40
0.2
 41
0.2
  0
VERTEX
  8
0
 10
70.703
 20
55.5445
 30
0.0
 40
0.2
 41
0.2
  0
VERTEX
  8
0
 10
70.2042
 20
55.5113
 30
0.0
 40
0.2
 41
0.2
  0
VERTEX
  8
0
 10
70.1227
 20
56.4459
 30
0.0
 40
0.2
 41
0.2
  0
VERTEX
  8
0
 10
70.007
 20
57.3761
 30
0.0
 40
0.2
 41
0.2
  0
VERTEX
  8
0
 10
70.5033
 20
57.4463
 30
0.0
 40
0.2
 41
0.2
  0
VERTEX
  8
0
 10
71.1757
 20
57.6474
 30
0.0
 40
0.2
 41
0.2
  0
VERTEX
  8
0
 10
71.833
 20
57.9356
 30
0.0
 40
0.2
 41
0.2
  0
VERTEX
  8
0
 10
72.475
 20
58.2814
 30
0.0
 40
0.2
 41
0.2
  0
VERTEX
  8
0
 10
73.1061
 20
58.6782
 30
0.0
 40
0.2
 41
0.2
  0
VERTEX
  8
0
 10
73.7761
 20
59.1577
 30
0.0
 40
0.2
 41
0.2
  0
VERTEX
  8
0
 10
73.5817
 20
60.1405
 30
0.0
 40
0.2
 41
0.2
  0
VERTEX
  8
0
 10
73.3598
 20
61.1173
 30
0.0
 40
0.2
 41
0.2
  0
VERTEX
  8
0
 10
72.5523
 20
61.2828
 30
0.0
 40
0.2
 41
0.2
  0
VERTEX
  8
0
 10
71.815
 20
61.389
 30
0.0
 40
0.2
 41
0.2
  0
VERTEX
  8
0
 10
71.0861
 20
61.444
 30
0.0
 40
0.2
 41
0.2
  0
VERTEX
  8
0
 10
70.3696
 20
61.4398
 30
0.0
 40
0.2
 41
0.2
  0
VERTEX
  8
0
 10
69.6736
 20
61.3488
 30
0.0
 40
0.2
 41
0.2
  0
VERTEX
  8
0
 10
69.1928
 20
61.2126
 30
0.0
 40
0.2
 41
0.2
  0
VERTEX
  8
0
 10
68.9197
 20
62.1097
 30
0.0
 40
0.2
 41
0.2
  0
VERTEX
  8
0
 10
68.6125
 20
62.9955
 30
0.0
 40
0.2
 41
0.2
  0
VERTEX
  8
0
 10
69.0824
 20
63.168
 30
0.0
 40
0.2
 41
0.2
  0
VERTEX
  8
0
 10
69.6997
 20
63.5042
 30
0.0
 40
0.2
 41
0.2
  0
VERTEX
  8
0
 10
70.2815
 20
63.9216
 30
0.0
 40
0.2
 41
0.2
  0
VERTEX
  8
0
 10
70.8381
 20
64.3943
 30
0.0
 40
0.2
 41
0.2
  0
VERTEX
  8
0
 10
71.3726
 20
64.9153
 30
0.0
 40
0.2
 41
0.2
  0
VERTEX
  8
0
 10
71.9282
 20
65.5228
 30
0.0
 40
0.2
 41
0.2
  0
VERTEX
  8
0
 10
71.5338
 20
66.4436
 30
0.0
 40
0.2
 41
0.2
  0
VERTEX
  8
0
 10
71.1137
 20
67.353
 30
0.0
 40
0.2
 41
0.2
  0
VERTEX
  8
0
 10
70.2896
 20
67.346
 30
0.0
 40
0.2
 41
0.2
  0
VERTEX
  8
0
 10
69.547
 20
67.2966
 30
0.0
 40
0.2
 41
0.2
  0
VERTEX
  8
0
 10
68.822
 20
67.1999
 30
0.0
 40
0.2
 41
0.2
  0
VERTEX
  8
0
 10
68.1221
 20
67.0472
 30
0.0
 40
0.2
 41
0.2
  0
VERTEX
  8
0
 10
67.4592
 20
66.8129
 30
0.0
 40
0.2
 41
0.2
  0
VERTEX
  8
0
 10
67.0168
 20
66.5797
 30
0.0
 40
0.2
 41
0.2
  0
VERTEX
  8
0
 10
66.5635
 20
67.4
 30
0.0
 40
0.2
 41
0.2
  0
VERTEX
  8
0
 10
66.0799
 20
68.2032
 30
0.0
 40
0.2
 41
0.2
  0
VERTEX
  8
0
 10
66.5043
 20
68.4692
 30
0.0
 40
0.2
 41
0.2
  0
VERTEX
  8
0
 10
67.0373
 20
68.9268
 30
0.0
 40
0.2
 41
0.2
  0
VERTEX
  8
0
 10
67.5199
 20
69.4559
 30
0.0
 40
0.2
 41
0.2
  0
VERTEX
  8
0
 10
67.9662
 20
70.0345
 30
0.0
 40
0.2
 41
0.2
  0
VERTEX
  8
0
 10
68.381
 20
70.6533
 30
0.0
 40
0.2
 41
0.2
  0
VERTEX
  8
0
 10
68.7973
 20
71.3645
 30
0.0
 40
0.2
 41
0.2
  0
VERTEX
  8
0
 10
68.2212
 20
72.1829
 30
0.0
 40
0.2
 41
0.2
  0
VERTEX
  8
0
 10
67.6204
 20
72.9837
 30
0.0
 40
0.2
 41
0.2
  0
VERTEX
  8
0
 10
66.8154
 20
72.8073
 30
0.0
 40
0.2
 41
0.2
  0
VERTEX
  8
0
 10
66.0989
 20
72.6048
 30
0.0
 40
0.2
 41
0.2
  0
VERTEX
  8
0
 10
65.4099
 20
72.3579
 30
0.0
 40
0.2
 41
0.2
  0
VERTEX
  8
0
 10
64.758
 20
72.063
 30
0.0
 40
0.2
 41
0.2
  0
VERTEX
  8
0
 10
64.1572
 20
71.6964
 30
0.0
 40
0.2
 41
0.2
  0
VERTEX
  8
0
 10
63.7741
 20
71.3768
 30
0.0
 40
0.2
 41
0.2
  0
VERTEX
  8
0
 10
63.1596
 20
72.0852
 30
0.0
 40
0.2
 41
0.2
  0
VERTEX
  8
0
 10
62.5203
 20
72.7699
 30
0.0
 40
0.2
 41
0.2
  0
VERTEX
  8
0
 10
62.8784
 20
73.1188
 30
0.0
 40
0.2
 41
0.2
  0
VERTEX
  8
0
 10
63.3056
 20
73.6769
 30
0.0
 40
0.2
 41
0.2
  0
VERTEX
  8
0
 10
63.6683
 20
74.2943
 30
0.0
 40
0.2
 41
0.2
  0
VERTEX
  8
0
 10
63.9837
 20
74.9529
 30
0.0
 40
0.2
 41
0.2
  0
VERTEX
  8
0
 10
64.2606
 20
75.6461
 30
0.0
 40
0.2
 41
0.2
  0
VERTEX
  8
0
 10
64.5213
 20
76.4261
 30
0.0
 40
0.2
 41
0.2
  0
VERTEX
  8
0
 10
63.7868
 20
77.1081
 30
0.0
 40
0.2
 41
0.2
  0
VERTEX
  8
0
 10
63.0329
 20
77.7667
 30
0.0
 40
0.2
 41
0.2
  0
VERTEX
  8
0
 10
62.2833
 20
77.4266
 30
0.0
 40
0.2
 41
0.2
  0
VERTEX
  8
0
 10
61.6232
 20
77.0791
 30
0.0
 40
0.2
 41
0.2
  0
VERTEX
  8
0
 10
61.0016
 20
76.6946
 30
0.0
 40
0.2
 41
0.2
  0
VERTEX
  8
0
 10
60.4241
 20
76.2702
 30
0.0
 40
0.2
 41
0.2
  0
VERTEX
  8
0
 10
59.913
 20
75.788
 30
0.0
 40
0.2
 41
0.2
  0
VERTEX
  8
0
 10
59.6043
 20
75.3953
 30
0.0
 40
0.2
 41
0.2
  0
VERTEX
  8
0
 10
58.8574
 20
75.9601
 30
0.0
 40
0.2
 41
0.2
  0
VERTEX
  8
0
 10
58.0884
 20
76.4963
 30
0.0
 40
0.2
 41
0.2
  0
VERTEX
  8
0
 10
58.3667
 20
76.9126
 30
0.0
 40
0.2
 41
0.2
  0
VERTEX
  8
0
 10
58.6687
 20
77.5462
 30
0.0
 40
0.2
 41
0.2
  0
VERTEX
  8
0
 10
58.8931
 20
78.2271
 30
0.0
 40
0.2
 41
0.2
  0
VERTEX
  8
0
 10
59.0656
 20
78.9368
 30
0.0
 40
0.2
 41
0.2
  0
VERTEX
  8
0
 10
59.1922
 20
79.6713
 30
0.0
 40
0.2
 41
0.2
  0
VERTEX
  8
0
 10
59.2847
 20
80.4898
 30
0.0
 40
0.2
 41
0.2
  0
VERTEX
  8
0
 10
58.4246
 20
81.0024
 30
0.0
 40
0.2
 41
0.2
  0
VERTEX
  8
0
 10
57.5511
 20
81.4903
 30
0.0
 40
0.2
 41
0.2
  0
VERTEX
  8
0
 10
56.8882
 20
81.0024
 30
0.0
 40
0.2
 41
0.2
  0
VERTEX
  8
0
 10
56.315
 20
80.5243
 30
0.0
 40
0.2
 41
0.2
  0
VERTEX
  8
0
 10
55.7872
 20
80.0199
 30
0.0
 40
0.2
 41
0.2
  0
VERTEX
  8
0
 10
55.3103
 20
79.4854
 30
0.0
 40
0.2
 41
0.2
  0
VERTEX
  8
0
 10
54.9106
 20
78.9065
 30
0.0
 40
0.2
 41
0.2
  0
VERTEX
  8
0
 10
54.6901
 20
78.4585
 30
0.0
 40
0.2
 41
0.2
  0
VERTEX
  8
0
 10
53.8413
 20
78.8554
 30
0.0
 40
0.2
 41
0.2
  0
VERTEX
  8
0
 10
52.9788
 20
79.2208
 30
0.0
 40
0.2
 41
0.2
  0
VERTEX
  8
0
 10
53.1647
 20
79.6851
 30
0.0
 40
0.2
 41
0.2
  0
VERTEX
  8
0
 10
53.3273
 20
80.3684
 30
0.0
 40
0.2
 41
0.2
  0
VERTEX
  8
0
 10
53.406
 20
81.0796
 30
0.0
 40
0.2
 41
0.2
  0
VERTEX
  8
0
 10
53.4278
 20
81.8099
 30
0.0
 40
0.2
 41
0.2
  0
VERTEX
  8
0
 10
53.3989
 20
82.5556
 30
0.0
 40
0.2
 41
0.2
  0
VERTEX
  8
0
 10
53.3192
 20
83.3755
 30
0.0
 40
0.2
 41
0.2
  0
VERTEX
  8
0
 10
52.3709
 20
83.6993
 30
0.0
 40
0.2
 41
0.2
  0
VERTEX
  8
0
 10
51.4131
 20
83.9943
 30
0.0
 40
0.2
 41
0.2
  0
VERTEX
  8
0
 10
50.8674
 20
83.3783
 30
0.0
 40
0.2
 41
0.2
  0
VERTEX
  8
0
 10
50.4059
 20
82.7927
 30
0.0
 40
0.2
 41
0.2
  0
VERTEX
  8
0
 10
49.9939
 20
82.1891
 30
0.0
 40
0.2
 41
0.2
  0
VERTEX
  8
0
 10
49.6397
 20
81.5661
 30
0.0
 40
0.2
 41
0.2
  0
VERTEX
  8
0
 10
49.3695
 20
80.917
 30
0.0
 40
0.2
 41
0.2
  0
VERTEX
  8
0
 10
49.2471
 20
80.4319
 30
0.0
 40
0.2
 41
0.2
  0
VERTEX
  8
0
 10
48.3348
 20
80.6443
 30
0.0
 40
0.2
 41
0.2
  0
VERTEX
  8
0
 10
47.414
 20
80.8221
 30
0.0
 40
0.2
 41
0.2
  0
VERTEX
  8
0
 10
47.4998
 20
81.3153
 30
0.0
 40
0.2
 41
0.2
  0
VERTEX
  8
0
 10
47.516
 20
82.018
 30
0.0
 40
0.2
 41
0.2
  0
VERTEX
  8
0
 10
47.4458
 20
82.7306
 30
0.0
 40
0.2
 41
0.2
  0
VERTEX
  8
0
 10
47.3149
 20
83.4499
 30
0.0
 40
0.2
 41
0.2
  0
VERTEX
  8
0
 10
47.1318
 20
84.1721
 30
0.0
 40
0.2
 41
0.2
  0
VERTEX
  8
0
 10
46.8824
 20
84.9574
 30
0.0
 40
0.2
 41
0.2
  0
VERTEX
  8
0
 10
45.8886
 20
85.0759
 30
0.0
 40
0.2
 41
0.2
  0
VERTEX
  8
0
 10
44.891
 20
85.1655
 30
0.0
 40
0.2
 41
0.2
  0
VERTEX
  8
0
 10
44.4846
 20
84.4504
 30
0.0
 40
0.2
 41
0.2
  0
VERTEX
  8
0
 10
44.1551
 20
83.7805
 30
0.0
 40
0.2
 41
0.2
  0
VERTEX
  8
0
 10
43.8781
 20
83.1053
 30
0.0
 40
0.2
 41
0.2
  0
VERTEX
  8
0
 10
43.6605
 20
82.4234
 30
0.0
 40
0.2
 41
0.2
  0
VERTEX
  8
0
 10
43.531
 20
81.733
 30
0.0
 40
0.2
 41
0.2
  0
VERTEX
  8
0
 10
43.513
 20
81.2327
 30
0.0
 40
0.2
 41
0.2
  0
VERTEX
  8
0
 10
42.5746
 20
81.2504
 30
0.0
 40
0.2
 41
0.2
  0
VERTEX
  8
0
 10
41.6373
 20
81.2327
 30
0.0
 40
0.2
 41
0.2
  0
VERTEX
  8
0
 10
41.6197
 20
81.733
 30
0.0
 40
0.2
 41
0.2
  0
VERTEX
  8
0
 10
41.4898
 20
82.4234
 30
0.0
 40
0.2
 41
0.2
  0
VERTEX
  8
0
 10
41.2722
 20
83.1053
 30
0.0
 40
0.2
 41
0.2
  0
VERTEX
  8
0
 10
40.9938
 20
83.7805
 30
0.0
 40
0.2
 41
0.2
  0
VERTEX
  8
0
 10
40.6658
 20
84.4504
 30
0.0
 40
0.2
 41
0.2
  0
VERTEX
  8
0
 10
40.2594
 20
85.1655
 30
0.0
 40
0.2
 41
0.2
  0
VERTEX
  8
0
 10
39.2617
 20
85.0759
 30
0.0
 40
0.2
 41
0.2
  0
VERTEX
  8
0
 10
38.2669
 20
84.9574
 30
0.0
 40
0.2
 41
0.2
  0
VERTEX
  8
0
 10
38.0189
 20
84.1721
 30
0.0
 40
0.2
 41
0.2
  0
VERTEX
  8
0
 10
37.8354
 20
83.4499
 30
0.0
 40
0.2
 41
0.2
  0
VERTEX
  8
0
 10
37.7045
 20
82.7306
 30
0.0
 40
0.2
 41
0.2
  0
VERTEX
  8
0
 10
37.6343
 20
82.018
 30
0.0
 40
0.2
 41
0.2
  0
VERTEX
  8
0
 10
37.6509
 20
81.3153
 30
0.0
 40
0.2
 41
0.2
  0
VERTEX
  8
0
 10
37.7363
 20
80.8221
 30
0.0
 40
0.2
 41
0.2
  0
VERTEX
  8
0
 10
36.8155
 20
80.6443
 30
0.0
 40
0.2
 41
0.2
  0
VERTEX
  8
0
 10
35.9022
 20
80.4319
 30
0.0
 40
0.2
 41
0.2
  0
VERTEX
  8
0
 10
35.7808
 20
80.917
 30
0.0
 40
0.2
 41
0.2
  0
VERTEX
  8
0
 10
35.5106
 20
81.5661
 30
0.0
 40
0.2
 41
0.2
  0
VERTEX
  8
0
 10
35.1551
 20
82.1891
 30
0.0
 40
0.2
 41
0.2
  0
VERTEX
  8
0
 10
34.7431
 20
82.7927
 30
0.0
 40
0.2
 41
0.2
  0
VERTEX
  8
0
 10
34.2828
 20
83.3783
 30
0.0
 40
0.2
 41
0.2
  0
VERTEX
  8
0
 10
33.7358
 20
83.9943
 30
0.0
 40
0.2
 41
0.2
  0
VERTEX
  8
0
 10
32.7794
 20
83.6993
 30
0.0
 40
0.2
 41
0.2
  0
VERTEX
  8
0
 10
31.8313
 20
83.3755
 30
0.0
 40
0.2
 41
0.2
  0
VERTEX
  8
0
 10
31.7514
 20
82.5556
 30
0.0
 40
0.2
 41
0.2
  0
VERTEX
  8
0
 10
31.7224
 20
81.8099
 30
0.0
 40
0.2
 41
0.2
  0
VERTEX
  8
0
 10
31.7431
 20
81.0796
 30
0.0
 40
0.2
 41
0.2
  0
VERTEX
  8
0
 10
31.823
 20
80.3684
 30
0.0
 40
0.2
 41
0.2
  0
VERTEX
  8
0
 10
31.9857
 20
79.6851
 30
0.0
 40
0.2
 41
0.2
  0
VERTEX
  8
0
 10
32.1717
 20
79.2208
 30
0.0
 40
0.2
 41
0.2
  0
VERTEX
  8
0
 10
31.3077
 20
78.8554
 30
0.0
 40
0.2
 41
0.2
  0
VERTEX
  8
0
 10
30.4588
 20
78.4585
 30
0.0
 40
0.2
 41
0.2
  0
VERTEX
  8
0
 10
30.2397
 20
78.9065
 30
0.0
 40
0.2
 41
0.2
  0
VERTEX
  8
0
 10
29.84
 20
79.4854
 30
0.0
 40
0.2
 41
0.2
  0
VERTEX
  8
0
 10
29.3632
 20
80.0199
 30
0.0
 40
0.2
 41
0.2
  0
VERTEX
  8
0
 10
28.8355
 20
80.5243
 30
0.0
 40
0.2
 41
0.2
  0
VERTEX
  8
0
 10
28.2622
 20
81.0024
 30
0.0
 40
0.2
 41
0.2
  0
VERTEX
  8
0
 10
27.5994
 20
81.4903
 30
0.0
 40
0.2
 41
0.2
  0
VERTEX
  8
0
 10
26.7257
 20
81.0024
 30
0.0
 40
0.2
 41
0.2
  0
VERTEX
  8
0
 10
25.8658
 20
80.4898
 30
0.0
 40
0.2
 41
0.2
  0
VERTEX
  8
0
 10
25.9567
 20
79.6713
 30
0.0
 40
0.2
 41
0.2
  0
VERTEX
  8
0
 10
26.0835
 20
78.9368
 30
0.0
 40
0.2
 41
0.2
  0
VERTEX
  8
0
 10
26.2571
 20
78.2271
 30
0.0
 40
0.2
 41
0.2
  0
VERTEX
  8
0
 10
26.4818
 20
77.5462
 30
0.0
 40
0.2
 41
0.2
  0
VERTEX
  8
0
 10
26.7836
 20
76.9126
 30
0.0
 40
0.2
 41
0.2
  0
VERTEX
  8
0
 10
27.0619
 20
76.4963
 30
0.0
 40
0.2
 41
0.2
  0
VERTEX
  8
0
 10
26.293
 20
75.9601
 30
0.0
 40
0.2
 41
0.2
  0
VERTEX
  8
0
 10
25.5447
 20
75.3953
 30
0.0
 40
0.2
 41
0.2
  0
VERTEX
  8
0
 10
25.236
 20
75.788
 30
0.0
 40
0.2
 41
0.2
  0
VERTEX
  8
0
 10
24.7261
 20
76.2702
 30
0.0
 40
0.2
 41
0.2
  0
VERTEX
  8
0
 10
24.1487
 20
76.6946
 30
0.0
 40
0.2
 41
0.2
  0
VERTEX
  8
0
 10
23.5272
 20
77.0791
 30
0.0
 40
0.2
 41
0.2
  0
VERTEX
  8
0
 10
22.8672
 20
77.4266
 30
0.0
 40
0.2
 41
0.2
  0
VERTEX
  8
0
 10
22.1175
 20
77.7667
 30
0.0
 40
0.2
 41
0.2
  0
VERTEX
  8
0
 10
21.3637
 20
77.1081
 30
0.0
 40
0.2
 41
0.2
  0
VERTEX
  8
0
 10
20.6292
 20
76.4261
 30
0.0
 40
0.2
 41
0.2
  0
VERTEX
  8
0
 10
20.8897
 20
75.6461
 30
0.0
 40
0.2
 41
0.2
  0
VERTEX
  8
0
 10
21.1667
 20
74.9529
 30
0.0
 40
0.2
 41
0.2
  0
VERTEX
  8
0
 10
21.4822
 20
74.2943
 30
0.0
 40
0.2
 41
0.2
  0
VERTEX
  8
0
 10
21.8447
 20
73.6769
 30
0.0
 40
0.2
 41
0.2
  0
VERTEX
  8
0
 10
22.2718
 20
73.1188
 30
0.0
 40
0.2
 41
0.2
  0
VERTEX
  8
0
 10
22.6301
 20
72.7699
 30
0.0
 40
0.2
 41
0.2
  0
VERTEX
  8
0
 10
21.9907
 20
72.0852
 30
0.0
 40
0.2
 41
0.2
  0
VERTEX
  8
0
 10
21.3761
 20
71.3768
 30
0.0
 40
0.2
 41
0.2
  0
VERTEX
  8
0
 10
20.9917
 20
71.6964
 30
0.0
 40
0.2
 41
0.2
  0
VERTEX
  8
0
 10
20.3922
 20
72.063
 30
0.0
 40
0.2
 41
0.2
  0
VERTEX
  8
0
 10
19.739
 20
72.3579
 30
0.0
 40
0.2
 41
0.2
  0
VERTEX
  8
0
 10
19.0514
 20
72.6048
 30
0.0
 40
0.2
 41
0.2
  0
VERTEX
  8
0
 10
18.3334
 20
72.8073
 30
0.0
 40
0.2
 41
0.2
  0
VERTEX
  8
0
 10
17.53
 20
72.9837
 30
0.0
 40
0.2
 41
0.2
  0
VERTEX
  8
0
 10
16.9292
 20
72.1829
 30
0.0
 40
0.2
 41
0.2
  0
VERTEX
  8
0
 10
16.3532
 20
71.3645
 30
0.0
 40
0.2
 41
0.2
  0
VERTEX
  8
0
 10
16.7694
 20
70.6533
 30
0.0
 40
0.2
 41
0.2
  0
VERTEX
  8
0
 10
17.1841
 20
70.0345
 30
0.0
 40
0.2
 41
0.2
  0
VERTEX
  8
0
 10
17.6306
 20
69.4559
 30
0.0
 40
0.2
 41
0.2
  0
VERTEX
  8
0
 10
18.113
 20
68.9268
 30
0.0
 40
0.2
 41
0.2
  0
VERTEX
  8
0
 10
18.6462
 20
68.4692
 30
0.0
 40
0.2
 41
0.2
  0
VERTEX
  8
0
 10
19.0693
 20
68.2032
 30
0.0
 40
0.2
 41
0.2
  0
VERTEX
  8
0
 10
18.5856
 20
67.4
 30
0.0
 40
0.2
 41
0.2
  0
VERTEX
  8
0
 10
18.1322
 20
66.5797
 30
0.0
 40
0.2
 41
0.2
  0
VERTEX
  8
0
 10
17.6899
 20
66.8129
 30
0.0
 40
0.2
 41
0.2
  0
VERTEX
  8
0
 10
17.0284
 20
67.0472
 30
0.0
 40
0.2
 41
0.2
  0
VERTEX
  8
0
 10
16.327
 20
67.1999
 30
0.0
 40
0.2
 41
0.2
  0
VERTEX
  8
0
 10
15.6035
 20
67.2966
 30
0.0
 40
0.2
 41
0.2
  0
VERTEX
  8
0
 10
14.8594
 20
67.346
 30
0.0
 40
0.2
 41
0.2
  0
VERTEX
  8
0
 10
14.0367
 20
67.353
 30
0.0
 40
0.2
 41
0.2
  0
VERTEX
  8
0
 10
13.615
 20
66.4436
 30
0.0
 40
0.2
 41
0.2
  0
VERTEX
  8
0
 10
13.2223
 20
65.5228
 30
0.0
 40
0.2
 41
0.2
  0
VERTEX
  8
0
 10
13.7776
 20
64.9153
 30
0.0
 40
0.2
 41
0.2
  0
VERTEX
  8
0
 10
14.3123
 20
64.3943
 30
0.0
 40
0.2
 41
0.2
  0
VERTEX
  8
0
 10
14.869
 20
63.9216
 30
0.0
 40
0.2
 41
0.2
  0
VERTEX
  8
0
 10
15.4506
 20
63.5042
 30
0.0
 40
0.2
 41
0.2
  0
VERTEX
  8
0
 10
16.0679
 20
63.168
 30
0.0
 40
0.2
 41
0.2
  0
VERTEX
  8
0
 10
16.5378
 20
62.9955
 30
0.0
 40
0.2
 41
0.2
  0
VERTEX
  8
0
 10
16.2305
 20
62.1097
 30
0.0
 40
0.2
 41
0.2
  0
VERTEX
  8
0
 10
15.9577
 20
61.2126
 30
0.0
 40
0.2
 41
0.2
  0
VERTEX
  8
0
 10
15.4767
 20
61.3488
 30
0.0
 40
0.2
 41
0.2
  0
VERTEX
  8
0
 10
14.7794
 20
61.4398
 30
0.0
 40
0.2
 41
0.2
  0
VERTEX
  8
0
 10
14.0629
 20
61.444
 30
0.0
 40
0.2
 41
0.2
  0
VERTEX
  8
0
 10
13.3353
 20
61.389
 30
0.0
 40
0.2
 41
0.2
  0
VERTEX
  8
0
 10
12.5966
 20
61.2828
 30
0.0
 40
0.2
 41
0.2
  0
VERTEX
  8
0
 10
11.7905
 20
61.1173
 30
0.0
 40
0.2
 41
0.2
  0
VERTEX
  8
0
 10
11.5673
 20
60.1405
 30
0.0
 40
0.2
 41
0.2
  0
VERTEX
  8
0
 10
11.3743
 20
59.1577
 30
0.0
 40
0.2
 41
0.2
  0
VERTEX
  8
0
 10
12.044
 20
58.6782
 30
0.0
 40
0.2
 41
0.2
  0
VERTEX
  8
0
 10
12.6752
 20
58.2814
 30
0.0
 40
0.2
 41
0.2
  0
VERTEX
  8
0
 10
13.3174
 20
57.9356
 30
0.0
 40
0.2
 41
0.2
  0
VERTEX
  8
0
 10
13.9733
 20
57.6474
 30
0.0
 40
0.2
 41
0.2
  0
VERTEX
  8
0
 10
14.6472
 20
57.4463
 30
0.0
 40
0.2
 41
0.2
  0
VERTEX
  8
0
 10
15.1419
 20
57.3761
 30
0.0
 40
0.2
 41
0.2
  0
VERTEX
  8
0
 10
15.0261
 20
56.4459
 30
0.0
 40
0.2
 41
0.2
  0
VERTEX
  8
0
 10
14.9462
 20
55.5113
 30
0.0
 40
0.2
 41
0.2
  0
VERTEX
  8
0
 10
14.4473
 20
55.5445
 30
0.0
 40
0.2
 41
0.2
  0
VERTEX
  8
0
 10
13.7473
 20
55.4881
 30
0.0
 40
0.2
 41
0.2
  0
VERTEX
  8
0
 10
13.0445
 20
55.3434
 30
0.0
 40
0.2
 41
0.2
  0
VERTEX
  8
0
 10
12.3445
 20
55.1381
 30
0.0
 40
0.2
 41
0.2
  0
VERTEX
  8
0
 10
11.6444
 20
54.8802
 30
0.0
 40
0.2
 41
0.2
  0
VERTEX
  8
0
 10
10.8893
 20
54.5511
 30
0.0
 40
0.2
 41
0.2
  0
VERTEX
  8
0
 10
10.8755
 20
53.5506
 30
0.0
 40
0.2
 41
0.2
  0
VERTEX
  8
0
 10
10.8893
 20
52.5487
 30
0.0
 40
0.2
 41
0.2
  0
VERTEX
  8
0
 10
11.6444
 20
52.2192
 30
0.0
 40
0.2
 41
0.2
  0
VERTEX
  8
0
 10
12.3445
 20
51.9617
 30
0.0
 40
0.2
 41
0.2
  0
VERTEX
  8
0
 10
13.0445
 20
51.7564
 30
0.0
 40
0.2
 41
0.2
  0
VERTEX
  8
0
 10
13.7473
 20
51.6117
 30
0.0
 40
0.2
 41
0.2
  0
VERTEX
  8
0
 10
14.4473
 20
51.5553
 30
0.0
 40
0.2
 41
0.2
  0
VERTEX
  8
0
 10
14.9462
 20
51.5881
 30
0.0
 40
0.2
 41
0.2
  0
VERTEX
  8
0
 10
15.0261
 20
50.6554
 30
0.0
 40
0.2
 41
0.2
  0
VERTEX
  8
0
 10
15.1419
 20
49.7237
 30
0.0
 40
0.2
 41
0.2
  0
VERTEX
  8
0
 10
14.6472
 20
49.6535
 30
0.0
 40
0.2
 41
0.2
  0
VERTEX
  8
0
 10
13.9733
 20
49.4524
 30
0.0
 40
0.2
 41
0.2
  0
VERTEX
  8
0
 10
13.3174
 20
49.1656
 30
0.0
 40
0.2
 41
0.2
  0
VERTEX
  8
0
 10
12.6752
 20
48.8184
 30
0.0
 40
0.2
 41
0.2
  0
VERTEX
  8
0
 10
12.044
 20
48.4216
 30
0.0
 40
0.2
 41
0.2
  0
VERTEX
  8
0
 10
11.3743
 20
47.9418
 30
0.0
 40
0.2
 41
0.2
  0
VERTEX
  8
0
 10
11.5673
 20
46.9593
 30
0.0
 40
0.2
 41
0.2
  0
VERTEX
  8
0
 10
11.7905
 20
45.9825
 30
0.0
 40
0.2
 41
0.2
  0
VERTEX
  8
0
 10
12.5966
 20
45.817
 30
0.0
 40
0.2
 41
0.2
  0
VERTEX
  8
0
 10
13.3353
 20
45.7108
 30
0.0
 40
0.2
 41
0.2
  0
VERTEX
  8
0
 10
14.0629
 20
45.6558
 30
0.0
 40
0.2
 41
0.2
  0
VERTEX
  8
0
 10
14.7794
 20
45.66
 30
0.0
 40
0.2
 41
0.2
  0
VERTEX
  8
0
 10
15.4767
 20
45.751
 30
0.0
 40
0.2
 41
0.2
  0
VERTEX
  8
0
 10
15.9577
 20
45.8872
 30
0.0
 40
0.2
 41
0.2
  0
VERTEX
  8
0
 10
16.2305
 20
44.9901
 30
0.0
 40
0.2
 41
0.2
  0
VERTEX
  8
0
 10
16.5378
 20
44.1043
 30
0.0
 40
0.2
 41
0.2
  0
VERTEX
  8
0
 10
16.0679
 20
43.9318
 30
0.0
 40
0.2
 41
0.2
  0
VERTEX
  8
0
 10
15.4506
 20
43.5956
 30
0.0
 40
0.2
 41
0.2
  0
VERTEX
  8
0
 10
14.869
 20
43.1782
 30
0.0
 40
0.2
 41
0.2
  0
VERTEX
  8
0
 10
14.3123
 20
42.7055
 30
0.0
 40
0.2
 41
0.2
  0
VERTEX
  8
0
 10
13.7776
 20
42.1845
 30
0.0
 40
0.2
 41
0.2
  0
VERTEX
  8
0
 10
13.2223
 20
41.5766
 30
0.0
 40
0.2
 41
0.2
  0
VERTEX
  8
0
 10
13.615
 20
40.6562
 30
0.0
 40
0.2
 41
0.2
  0
VERTEX
  8
0
 10
14.0367
 20
39.7482
 30
0.0
 40
0.2
 41
0.2
  0
VERTEX
  8
0
 10
14.8594
 20
39.7538
 30
0.0
 40
0.2
 41
0.2
  0
VERTEX
  8
0
 10
15.6035
 20
39.8032
 30
0.0
 40
0.2
 41
0.2
  0
VERTEX
  8
0
 10
16.327
 20
39.8999
 30
0.0
 40
0.2
 41
0.2
  0
VERTEX
  8
0
 10
17.0284
 20
40.0526
 30
0.0
 40
0.2
 41
0.2
  0
VERTEX
  8
0
 10
17.6899
 20
40.2869
 30
0.0
 40
0.2
 41
0.2
  0
VERTEX
  8
0
 10
18.1322
 20
40.5197
 30
0.0
 40
0.2
 41
0.2
  0
VERTEX
  8
0
 10
18.5856
 20
39.6998
 30
0.0
 40
0.2
 41
0.2
  0
VERTEX
  8
0
 10
19.0693
 20
38.8966
 30
0.0
 40
0.2
 41
0.2
  0
VERTEX
  8
0
 10
18.6462
 20
38.6306
 30
0.0
 40
0.2
 41
0.2
  0
VERTEX
  8
0
 10
18.113
 20
38.173
 30
0.0
 40
0.2
 41
0.2
  0
VERTEX
  8
0
 10
17.6306
 20
37.6439
 30
0.0
 40
0.2
 41
0.2
  0
VERTEX
  8
0
 10
17.1841
 20
37.065
 30
0.0
 40
0.2
 41
0.2
  0
VERTEX
  8
0
 10
16.7694
 20
36.4465
 30
0.0
 40
0.2
 41
0.2
  0
VERTEX
  8
0
 10
16.3532
 20
35.7367
 30
0.0
 40
0.2
 41
0.2
  0
VERTEX
  8
0
 10
16.9292
 20
34.9167
 30
0.0
 40
0.2
 41
0.2
  0
VERTEX
  8
0
 10
17.53
 20
34.1161
 30
0.0
 40
0.2
 41
0.2
  0
VERTEX
  8
0
 10
18.3334
 20
34.2925
 30
0.0
 40
0.2
 41
0.2
  0
VERTEX
  8
0
 10
19.0514
 20
34.4951
 30
0.0
 40
0.2
 41
0.2
  0
VERTEX
  8
0
 10
19.739
 20
34.7417
 30
0.0
 40
0.2
 41
0.2
  0
VERTEX
  8
0
 10
20.3922
 20
35.0366
 30
0.0
 40
0.2
 41
0.2
  0
VERTEX
  8
0
 10
20.9917
 20
35.403
 30
0.0
 40
0.2
 41
0.2
  0
VERTEX
  8
0
 10
21.3761
 20
35.723
 30
0.0
 40
0.2
 41
0.2
  0
VERTEX
  8
0
 10
21.9907
 20
35.0146
 30
0.0
 40
0.2
 41
0.2
  0
VERTEX
  8
0
 10
22.6301
 20
34.3297
 30
0.0
 40
0.2
 41
0.2
  0
VERTEX
  8
0
 10
22.2718
 20
33.9824
 30
0.0
 40
0.2
 41
0.2
  0
VERTEX
  8
0
 10
21.8447
 20
33.4243
 30
0.0
 40
0.2
 41
0.2
  0
VERTEX
  8
0
 10
21.4822
 20
32.8056
 30
0.0
 40
0.2
 41
0.2
  0
VERTEX
  8
0
 10
21.1667
 20
32.1469
 30
0.0
 40
0.2
 41
0.2
  0
VERTEX
  8
0
 10
20.8897
 20
31.4537
 30
0.0
 40
0.2
 41
0.2
  0
VERTEX
  8
0
 10
20.6292
 20
30.6737
 30
0.0
 40
0.2
 41
0.2
  0
VERTEX
  8
0
 10
21.3637
 20
29.993
 30
0.0
 40
0.2
 41
0.2
  0
VERTEX
  8
0
 10
22.1175
 20
29.3329
 30
0.0
 40
0.2
 41
0.2
  0
VERTEX
  8
0
 10
22.8672
 20
29.6733
 30
0.0
 40
0.2
 41
0.2
  0
VERTEX
  8
0
 10
23.5272
 20
30.022
 30
0.0
 40
0.2
 41
0.2
  0
VERTEX
  8
0
 10
24.1487
 20
30.405
 30
0.0
 40
0.2
 41
0.2
  0
VERTEX
  8
0
 10
24.7261
 20
30.8295
 30
0.0
 40
0.2
 41
0.2
  0
VERTEX
  8
0
 10
25.236
 20
31.3118
 30
0.0
 40
0.2
 41
0.2
  0
VERTEX
  8
0
 10
25.5447
 20
31.7045
 30
0.0
 40
0.2
 41
0.2
  0
VERTEX
  8
0
 10
26.293
 20
31.1395
 30
0.0
 40
0.2
 41
0.2
  0
VERTEX
  8
0
 10
27.0619
 20
30.6035
 30
0.0
 40
0.2
 41
0.2
  0
VERTEX
  8
0
 10
26.7836
 20
30.1887
 30
0.0
 40
0.2
 41
0.2
  0
VERTEX
  8
0
 10
26.4818
 20
29.5534
 30
0.0
 40
0.2
 41
0.2
  0
VERTEX
  8
0
 10
26.2571
 20
28.8741
 30
0.0
 40
0.2
 41
0.2
  0
VERTEX
  8
0
 10
26.0835
 20
28.163
 30
0.0
 40
0.2
 41
0.2
  0
VERTEX
  8
0
 10
25.9567
 20
27.4285
 30
0.0
 40
0.2
 41
0.2
  0
VERTEX
  8
0
 10
25.8658
 20
26.6099
 30
0.0
 40
0.2
 41
0.2
  0
VERTEX
  8
0
 10
26.7257
 20
26.0973
 30
0.0
 40
0.2
 41
0.2
  0
VERTEX
  8
0
 10
27.5994
 20
25.6095
 30
0.0
 40
0.2
 41
0.2
  0
VERTEX
  8
0
 10
28.2622
 20
26.0973
 30
0.0
 40
0.2
 41
0.2
  0
VERTEX
  8
0
 10
28.8355
 20
26.5755
 30
0.0
 40
0.2
 41
0.2
  0
VERTEX
  8
0
 10
29.3632
 20
27.0798
 30
0.0
 40
0.2
 41
0.2
  0
VERTEX
  8
0
 10
29.84
 20
27.6145
 30
0.0
 40
0.2
 41
0.2
  0
VERTEX
  8
0
 10
30.2397
 20
28.1933
 30
0.0
 40
0.2
 41
0.2
  0
VERTEX
  8
0
 10
30.4588
 20
28.6425
 30
0.0
 40
0.2
 41
0.2
  0
VERTEX
  8
0
 10
31.3077
 20
28.2443
 30
0.0
 40
0.2
 41
0.2
  0
VERTEX
  8
0
 10
32.1717
 20
27.8791
 30
0.0
 40
0.2
 41
0.2
  0
VERTEX
  8
0
 10
31.9857
 20
27.4161
 30
0.0
 40
0.2
 41
0.2
  0
VERTEX
  8
0
 10
31.823
 20
26.7325
 30
0.0
 40
0.2
 41
0.2
  0
VERTEX
  8
0
 10
31.7431
 20
26.0201
 30
0.0
 40
0.2
 41
0.2
  0
VERTEX
  8
0
 10
31.7224
 20
25.2898
 30
0.0
 40
0.2
 41
0.2
  0
VERTEX
  8
0
 10
31.7514
 20
24.5442
 30
0.0
 40
0.2
 41
0.2
  0
VERTEX
  8
0
 10
31.8313
 20
23.7257
 30
0.0
 40
0.2
 41
0.2
  0
VERTEX
  8
0
 10
32.7794
 20
23.4018
 30
0.0
 40
0.2
 41
0.2
  0
VERTEX
  8
0
 10
33.7358
 20
23.1056
 30
0.0
 40
0.2
 41
0.2
  0
VERTEX
  8
0
 10
34.2828
 20
23.7216
 30
0.0
 40
0.2
 41
0.2
  0
VERTEX
  8
0
 10
34.7431
 20
24.3086
 30
0.0
 40
0.2
 41
0.2
  0
VERTEX
  8
0
 10
35.1551
 20
24.9108
 30
0.0
 40
0.2
 41
0.2
  0
VERTEX
  8
0
 10
35.5106
 20
25.5337
 30
0.0
 40
0.2
 41
0.2
  0
VERTEX
  8
0
 10
35.7808
 20
26.1827
 30
0.0
 40
0.2
 41
0.2
  0
VERTEX
  8
0
 10
35.9022
 20
26.6678
 30
0.0
 40
0.2
 41
0.2
  0
VERTEX
  8
0
 10
36.8155
 20
26.4556
 30
0.0
 40
0.2
 41
0.2
  0
VERTEX
  8
0
 10
37.7363
 20
26.2778
 30
0.0
 40
0.2
 41
0.2
  0
VERTEX
  8
0
 10
37.6509
 20
25.7845
 30
0.0
 40
0.2
 41
0.2
  0
VERTEX
  8
0
 10
37.6343
 20
25.0831
 30
0.0
 40
0.2
 41
0.2
  0
VERTEX
  8
0
 10
37.7045
 20
24.3692
 30
0.0
 40
0.2
 41
0.2
  0
VERTEX
  8
0
 10
37.8354
 20
23.6513
 30
0.0
 40
0.2
 41
0.2
  0
VERTEX
  8
0
 10
38.0189
 20
22.9278
 30
0.0
 40
0.2
 41
0.2
  0
VERTEX
  8
0
 10
38.2669
 20
22.1437
 30
0.0
 40
0.2
 41
0.2
  0
VERTEX
  8
0
 10
39.2617
 20
22.0238
 30
0.0
 40
0.2
 41
0.2
  0
VERTEX
  8
0
 10
40.2594
 20
21.9342
 30
0.0
 40
0.2
 41
0.2
  0
VERTEX
  8
0
 10
40.6658
 20
22.6494
 30
0.0
 40
0.2
 41
0.2
  0
VERTEX
  8
0
 10
40.9938
 20
23.3192
 30
0.0
 40
0.2
 41
0.2
  0
VERTEX
  8
0
 10
41.2722
 20
23.9944
 30
0.0
 40
0.2
 41
0.2
  0
VERTEX
  8
0
 10
41.4898
 20
24.6765
 30
0.0
 40
0.2
 41
0.2
  0
VERTEX
  8
0
 10
41.6197
 20
25.3683
 30
0.0
 40
0.2
 41
0.2
  0
VERTEX
  8
0
 10
41.6373
 20
25.8671
 30
0.0
 40
0.2
 41
0.2
  0
VERTEX
  8
0
 10
42.5746
 20
25.8506
 30
0.0
 40
0.2
 41
0.2
  0
VERTEX
  8
0
 10
43.513
 20
25.8671
 30
0.0
 40
0.2
 41
0.2
  0
VERTEX
  8
0
 10
43.531
 20
25.3683
 30
0.0
 40
0.2
 41
0.2
  0
VERTEX
  8
0
 10
43.6605
 20
24.6765
 30
0.0
 40
0.2
 41
0.2
  0
VERTEX
  8
0
 10
43.8781
 20
23.9944
 30
0.0
 40
0.2
 41
0.2
  0
VERTEX
  8
0
 10
44.1551
 20
23.3192
 30
0.0
 40
0.2
 41
0.2
  0
VERTEX
  8
0
 10
44.4846
 20
22.6494
 30
0.0
 40
0.2
 41
0.2
  0
VERTEX
  8
0
 10
44.891
 20
21.9342
 30
0.0
 40
0.2
 41
0.2
  0
VERTEX
  8
0
 10
45.8886
 20
22.0238
 30
0.0
 40
0.2
 41
0.2
  0
VERTEX
  8
0
 10
46.8824
 20
22.1437
 30
0.0
 40
0.2
 41
0.2
  0
VERTEX
  8
0
 10
47.1318
 20
22.9278
 30
0.0
 40
0.2
 41
0.2
  0
VERTEX
  8
0
 10
47.3149
 20
23.6513
 30
0.0
 40
0.2
 41
0.2
  0
VERTEX
  8
0
 10
47.4458
 20
24.3692
 30
0.0
 40
0.2
 41
0.2
  0
VERTEX
  8
0
 10
47.516
 20
25.0831
 30
0.0
 40
0.2
 41
0.2
  0
VERTEX
  8
0
 10
47.4998
 20
25.7845
 30
0.0
 40
0.2
 41
0.2
  0
VERTEX
  8
0
 10
47.414
 20
26.2778
 30
0.0
 40
0.2
 41
0.2
  0
VERTEX
  8
0
 10
48.3348
 20
26.4556
 30
0.0
 40
0.2
 41
0.2
  0
VERTEX
  8
0
 10
49.2471
 20
26.6678
 30
0.0
 40
0.2
 41
0.2
  0
VERTEX
  8
0
 10
49.3695
 20
26.1827
 30
0.0
 40
0.2
 41
0.2
  0
VERTEX
  8
0
 10
49.6397
 20
25.5337
 30
0.0
 40
0.2
 41
0.2
  0
VERTEX
  8
0
 10
49.9939
 20
24.9108
 30
0.0
 40
0.2
 41
0.2
  0
VERTEX
  8
0
 10
50.4059
 20
24.3086
 30
0.0
 40
0.2
 41
0.2
  0
VERTEX
  8
0
 10
50.8674
 20
23.7216
 30
0.0
 40
0.2
 41
0.2
  0
VERTEX
  8
0
 10
51.4131
 20
23.1056
 30
0.0
 40
0.2
 41
0.2
  0
VERTEX
  8
0
 10
52.3709
 20
23.4018
 30
0.0
 40
0.2
 41
0.2
  0
VERTEX
  8
0
 10
53.3192
 20
23.7257
 30
0.0
 40
0.2
 41
0.2
  0
VERTEX
  8
0
 10
53.3989
 20
24.5442
 30
0.0
 40
0.2
 41
0.2
  0
VERTEX
  8
0
 10
53.4278
 20
25.2898
 30
0.0
 40
0.2
 41
0.2
  0
VERTEX
  8
0
 10
53.406
 20
26.0201
 30
0.0
 40
0.2
 41
0.2
  0
VERTEX
  8
0
 10
53.3273
 20
26.7325
 30
0.0
 40
0.2
 41
0.2
  0
VERTEX
  8
0
 10
53.1647
 20
27.4161
 30
0.0
 40
0.2
 41
0.2
  0
VERTEX
  8
0
 10
52.9788
 20
27.8791
 30
0.0
 40
0.2
 41
0.2
  0
VERTEX
  8
0
 10
53.8413
 20
28.2443
 30
0.0
 40
0.2
 41
0.2
  0
VERTEX
  8
0
 10
54.6901
 20
28.6425
 30
0.0
 40
0.2
 41
0.2
  0
VERTEX
  8
0
 10
54.9106
 20
28.1933
 30
0.0
 40
0.2
 41
0.2
  0
VERTEX
  8
0
 10
55.3103
 20
27.6145
 30
0.0
 40
0.2
 41
0.2
  0
VERTEX
  8
0
 10
55.7872
 20
27.0798
 30
0.0
 40
0.2
 41
0.2
  0
VERTEX
  8
0
 10
56.315
 20
26.5755
 30
0.0
 40
0.2
 41
0.2
  0
VERTEX
  8
0
 10
56.8882
 20
26.0973
 30
0.0
 40
0.2
 41
0.2
  0
VERTEX
  8
0
 10
57.5511
 20
25.6095
 30
0.0
 40
0.2
 41
0.2
  0
VERTEX
  8
0
 10
58.4246
 20
26.0973
 30
0.0
 40
0.2
 41
0.2
  0
VERTEX
  8
0
 10
59.2847
 20
26.6099
 30
0.0
 40
0.2
 41
0.2
  0
VERTEX
  8
0
 10
59.1922
 20
27.4285
 30
0.0
 40
0.2
 41
0.2
  0
VERTEX
  8
0
 10
59.0656
 20
28.163
 30
0.0
 40
0.2
 41
0.2
  0
VERTEX
  8
0
 10
58.8931
 20
28.8741
 30
0.0
 40
0.2
 41
0.2
  0
VERTEX
  8
0
 10
58.6687
 20
29.5534
 30
0.0
 40
0.2
 41
0.2
  0
VERTEX
  8
0
 10
58.3667
 20
30.1887
 30
0.0
 40
0.2
 41
0.2
  0
VERTEX
  8
0
 10
58.0884
 20
30.6035
 30
0.0
 40
0.2
 41
0.2
  0
VERTEX
  8
0
 10
58.8574
 20
31.1395
 30
0.0
 40
0.2
 41
0.2
  0
VERTEX
  8
0
 10
59.6043
 20
31.7045
 30
0.0
 40
0.2
 41
0.2
  0
VERTEX
  8
0
 10
59.913
 20
31.3118
 30
0.0
 40
0.2
 41
0.2
  0
VERTEX
  8
0
 10
60.4241
 20
30.8295
 30
0.0
 40
0.2
 41
0.2
  0
VERTEX
  8
0
 10
61.0016
 20
30.405
 30
0.0
 40
0.2
 41
0.2
  0
VERTEX
  8
0
 10
61.6232
 20
30.022
 30
0.0
 40
0.2
 41
0.2
  0
VERTEX
  8
0
 10
62.2833
 20
29.6733
 30
0.0
 40
0.2
 41
0.2
  0
VERTEX
  8
0
 10
63.0329
 20
29.3329
 30
0.0
 40
0.2
 41
0.2
  0
VERTEX
  8
0
 10
63.7868
 20
29.993
 30
0.0
 40
0.2
 41
0.2
  0
VERTEX
  8
0
 10
64.5213
 20
30.6737
 30
0.0
 40
0.2
 41
0.2
  0
VERTEX
  8
0
 10
64.2606
 20
31.4537
 30
0.0
 40
0.2
 41
0.2
  0
VERTEX
  8
0
 10
63.9837
 20
32.1469
 30
0.0
 40
0.2
 41
0.2
  0
VERTEX
  8
0
 10
63.6683
 20
32.8056
 30
0.0
 40
0.2
 41
0.2
  0
VERTEX
  8
0
 10
63.3056
 20
33.4243
 30
0.0
 40
0.2
 41
0.2
  0
VERTEX
  8
0
 10
62.8784
 20
33.9824
 30
0.0
 40
0.2
 41
0.2
  0
VERTEX
  8
0
 10
62.5203
 20
34.3297
 30
0.0
 40
0.2
 41
0.2
  0
VERTEX
  8
0
 10
63.1596
 20
35.0146
 30
0.0
 40
0.2
 41
0.2
  0
VERTEX
  8
0
 10
63.7741
 20
35.723
 30
0.0
 40
0.2
 41
0.2
  0
VERTEX
  8
0
 10
64.1572
 20
35.403
 30
0.0
 40
0.2
 41
0.2
  0
VERTEX
  8
0
 10
64.758
 20
35.0366
 30
0.0
 40
0.2
 41
0.2
  0
VERTEX
  8
0
 10
65.4099
 20
34.7417
 30
0.0
 40
0.2
 41
0.2
  0
VERTEX
  8
0
 10
66.0989
 20
34.4951
 30
0.0
 40
0.2
 41
0.2
  0
VERTEX
  8
0
 10
66.8154
 20
34.2925
 30
0.0
 40
0.2
 41
0.2
  0
VERTEX
  8
0
 10
67.6204
 20
34.1161
 30
0.0
 40
0.2
 41
0.2
  0
VERTEX
  8
0
 10
68.2212
 20
34.9167
 30
0.0
 40
0.2
 41
0.2
  0
VERTEX
  8
0
 10
68.7973
 20
35.7367
 30
0.0
 40
0.2
 41
0.2
  0
VERTEX
  8
0
 10
68.381
 20
36.4465
 30
0.0
 40
0.2
 41
0.2
  0
VERTEX
  8
0
 10
67.9662
 20
37.065
 30
0.0
 40
0.2
 41
0.2
  0
VERTEX
  8
0
 10
67.5199
 20
37.6439
 30
0.0
 40
0.2
 41
0.2
  0
VERTEX
  8
0
 10
67.0373
 20
38.173
 30
0.0
 40
0.2
 41
0.2
  0
VERTEX
  8
0
 10
66.5043
 20
38.6306
 30
0.0
 40
0.2
 41
0.2
  0
VERTEX
  8
0
 10
66.0799
 20
38.8966
 30
0.0
 40
0.2
 41
0.2
  0
VERTEX
  8
0
 10
66.5635
 20
39.6998
 30
0.0
 40
0.2
 41
0.2
  0
VERTEX
  8
0
 10
67.0168
 20
40.5197
 30
0.0
 40
0.2
 41
0.2
  0
VERTEX
  8
0
 10
67.4592
 20
40.2869
 30
0.0
 40
0.2
 41
0.2
  0
VERTEX
  8
0
 10
68.1221
 20
40.0526
 30
0.0
 40
0.2
 41
0.2
  0
VERTEX
  8
0
 10
68.822
 20
39.8999
 30
0.0
 40
0.2
 41
0.2
  0
VERTEX
  8
0
 10
69.547
 20
39.8032
 30
0.0
 40
0.2
 41
0.2
  0
VERTEX
  8
0
 10
70.2896
 20
39.7538
 30
0.0
 40
0.2
 41
0.2
  0
VERTEX
  8
0
 10
71.1137
 20
39.7482
 30
0.0
 40
0.2
 41
0.2
  0
VERTEX
  8
0
 10
71.5338
 20
40.6562
 30
0.0
 40
0.2
 41
0.2
  0
VERTEX
  8
0
 10
71.9282
 20
41.5766
 30
0.0
 40
0.2
 41
0.2
  0
VERTEX
  8
0
 10
71.3726
 20
42.1845
 30
0.0
 40
0.2
 41
0.2
  0
VERTEX
  8
0
 10
70.8381
 20
42.7055
 30
0.0
 40
0.2
 41
0.2
  0
VERTEX
  8
0
 10
70.2815
 20
43.1782
 30
0.0
 40
0.2
 41
0.2
  0
VERTEX
  8
0
 10
69.6997
 20
43.5956
 30
0.0
 40
0.2
 41
0.2
  0
VERTEX
  8
0
 10
69.0824
 20
43.9318
 30
0.0
 40
0.2
 41
0.2
  0
VERTEX
  8
0
 10
68.6125
 20
44.1043
 30
0.0
 40
0.2
 41
0.2
  0
VERTEX
  8
0
 10
68.9197
 20
44.9901
 30
0.0
 40
0.2
 41
0.2
  0
VERTEX
  8
0
 10
69.1928
 20
45.8872
 30
0.0
 40
0.2
 41
0.2
  0
VERTEX
  8
0
 10
69.6736
 20
45.751
 30
0.0
 40
0.2
 41
0.2
  0
VERTEX
  8
0
 10
70.3696
 20
45.66
 30
0.0
 40
0.2
 41
0.2
  0
VERTEX
  8
0
 10
71.0861
 20
45.6558
 30
0.0
 40
0.2
 41
0.2
  0
VERTEX
  8
0
 10
71.815
 20
45.7108
 30
0.0
 40
0.2
 41
0.2
  0
VERTEX
  8
0
 10
72.5523
 20
45.817
 30
0.0
 40
0.2
 41
0.2
  0
VERTEX
  8
0
 10
73.3598
 20
45.9825
 30
0.0
 40
0.2
 41
0.2
  0
VERTEX
  8
0
 10
73.5817
 20
46.9593
 30
0.0
 40
0.2
 41
0.2
  0
VERTEX
  8
0
 10
73.7761
 20
47.9418
 30
0.0
 40
0.2
 41
0.2
  0
VERTEX
  8
0
 10
73.1061
 20
48.4216
 30
0.0
 40
0.2
 41
0.2
  0
VERTEX
  8
0
 10
72.475
 20
48.8184
 30
0.0
 40
0.2
 41
0.2
  0
VERTEX
  8
0
 10
71.833
 20
49.1656
 30
0.0
 40
0.2
 41
0.2
  0
VERTEX
  8
0
 10
71.1757
 20
49.4524
 30
0.0
 40
0.2
 41
0.2
  0
VERTEX
  8
0
 10
70.5033
 20
49.6535
 30
0.0
 40
0.2
 41
0.2
  0
VERTEX
  8
0
 10
70.007
 20
49.7237
 30
0.0
 40
0.2
 41
0.2
  0
VERTEX
  8
0
 10
70.1227
 20
50.6554
 30
0.0
 40
0.2
 41
0.2
  0
VERTEX
  8
0
 10
70.2042
 20
51.5881
 30
0.0
 40
0.2
 41
0.2
  0
VERTEX
  8
0
 10
70.703
 20
51.5553
 30
0.0
 40
0.2
 41
0.2
  0
SEQEND
 8
0
  0
POLYLINE
  8
0
 62
     0
 66
     1
 10
0
 20
0
 30
0.0
 40
0.566929
 41
0.566929
  0
VERTEX
  8
0
 10
50.9076
 20
56.0504
 30
0.0
 40
0.2
 41
0.2
  0
VERTEX
  8
0
 10
65.0363
 20
56.0504
 30
0.0
 40
0.2
 41
0.2
  0
VERTEX
  8
0
 10
65.0543
 20
56.0504
 30
0.0
 40
0.2
 41
0.2
  0
VERTEX
  8
0
 10
65.1108
 20
56.0836
 30
0.0
 40
0.2
 41
0.2
  0
VERTEX
  8
0
 10
65.1372
 20
56.1467
 30
0.0
 40
0.2
 41
0.2
  0
VERTEX
  8
0
 10
65.1358
 20
56.1605
 30
0.0
 40
0.2
 41
0.2
  0
VERTEX
  8
0
 10
65.0861
 20
56.6028
 30
0.0
 40
0.2
 41
0.2
  0
VERTEX
  8
0
 10
64.8684
 20
57.9219
 30
0.0
 40
0.2
 41
0.2
  0
VERTEX
  8
0
 10
64.4673
 20
59.6484
 30
0.0
 40
0.2
 41
0.2
  0
VERTEX
  8
0
 10
63.9353
 20
61.3322
 30
0.0
 40
0.2
 41
0.2
  0
VERTEX
  8
0
 10
63.2739
 20
62.968
 30
0.0
 40
0.2
 41
0.2
  0
VERTEX
  8
0
 10
62.4872
 20
64.5474
 30
0.0
 40
0.2
 41
0.2
  0
VERTEX
  8
0
 10
61.5805
 20
66.0633
 30
0.0
 40
0.2
 41
0.2
  0
VERTEX
  8
0
 10
60.5536
 20
67.5072
 30
0.0
 40
0.2
 41
0.2
  0
VERTEX
  8
0
 10
59.7105
 20
68.5437
 30
0.0
 40
0.2
 41
0.2
  0
VERTEX
  8
0
 10
59.4127
 20
68.8728
 30
0.0
 40
0.2
 41
0.2
  0
VERTEX
  8
0
 10
59.1136
 20
69.2037
 30
0.0
 40
0.2
 41
0.2
  0
VERTEX
  8
0
 10
58.1671
 20
70.1463
 30
0.0
 40
0.2
 41
0.2
  0
VERTEX
  8
0
 10
56.8332
 20
71.3133
 30
0.0
 40
0.2
 41
0.2
  0
VERTEX
  8
0
 10
55.4164
 20
72.3692
 30
0.0
 40
0.2
 41
0.2
  0
VERTEX
  8
0
 10
53.9238
 20
73.309
 30
0.0
 40
0.2
 41
0.2
  0
VERTEX
  8
0
 10
52.3642
 20
74.1317
 30
0.0
 40
0.2
 41
0.2
  0
VERTEX
  8
0
 10
50.7407
 20
74.8302
 30
0.0
 40
0.2
 41
0.2
  0
VERTEX
  8
0
 10
49.0636
 20
75.4034
 30
0.0
 40
0.2
 41
0.2
  0
VERTEX
  8
0
 10
47.7739
 20
75.752
 30
0.0
 40
0.2
 41
0.2
  0
VERTEX
  8
0
 10
47.3396
 20
75.8444
 30
0.0
 40
0.2
 41
0.2
  0
VERTEX
  8
0
 10
46.9043
 20
75.9382
 30
0.0
 40
0.2
 41
0.2
  0
VERTEX
  8
0
 10
45.5856
 20
76.1503
 30
0.0
 40
0.2
 41
0.2
  0
VERTEX
  8
0
 10
43.8203
 20
76.3157
 30
0.0
 40
0.2
 41
0.2
  0
VERTEX
  8
0
 10
42.0536
 20
76.3446
 30
0.0
 40
0.2
 41
0.2
  0
VERTEX
  8
0
 10
40.2939
 20
76.236
 30
0.0
 40
0.2
 41
0.2
  0
VERTEX
  8
0
 10
38.5466
 20
75.9905
 30
0.0
 40
0.2
 41
0.2
  0
VERTEX
  8
0
 10
36.8212
 20
75.6087
 30
0.0
 40
0.2
 41
0.2
  0
VERTEX
  8
0
 10
35.1262
 20
75.0933
 30
0.0
 40
0.2
 41
0.2
  0
VERTEX
  8
0
 10
33.8763
 20
74.622
 30
0.0
 40
0.2
 41
0.2
  0
VERTEX
  8
0
 10
33.4698
 20
74.4432
 30
0.0
 40
0.2
 41
0.2
  0
VERTEX
  8
0
 10
33.456
 20
74.4375
 30
0.0
 40
0.2
 41
0.2
  0
VERTEX
  8
0
 10
33.4133
 20
74.3839
 30
0.0
 40
0.2
 41
0.2
  0
VERTEX
  8
0
 10
33.4147
 20
74.3162
 30
0.0
 40
0.2
 41
0.2
  0
VERTEX
  8
0
 10
33.4229
 20
74.3024
 30
0.0
 40
0.2
 41
0.2
  0
VERTEX
  8
0
 10
40.4869
 20
62.067
 30
0.0
 40
0.2
 41
0.2
  0
VERTEX
  8
0
 10
40.4922
 20
62.0571
 30
0.0
 40
0.2
 41
0.2
  0
VERTEX
  8
0
 10
40.5335
 20
62.0254
 30
0.0
 40
0.2
 41
0.2
  0
VERTEX
  8
0
 10
40.586
 20
62.0173
 30
0.0
 40
0.2
 41
0.2
  0
VERTEX
  8
0
 10
40.597
 20
62.0201
 30
0.0
 40
0.2
 41
0.2
  0
VERTEX
  8
0
 10
40.8587
 20
62.0818
 30
0.0
 40
0.2
 41
0.2
  0
VERTEX
  8
0
 10
41.6648
 20
62.2032
 30
0.0
 40
0.2
 41
0.2
  0
VERTEX
  8
0
 10
42.744
 20
62.2487
 30
0.0
 40
0.2
 41
0.2
  0
VERTEX
  8
0
 10
43.8217
 20
62.1605
 30
0.0
 40
0.2
 41
0.2
  0
VERTEX
  8
0
 10
44.6222
 20
62.0078
 30
0.0
 40
0.2
 41
0.2
  0
VERTEX
  8
0
 10
44.8829
 20
61.9347
 30
0.0
 40
0.2
 41
0.2
  0
VERTEX
  8
0
 10
45.1432
 20
61.8628
 30
0.0
 40
0.2
 41
0.2
  0
VERTEX
  8
0
 10
45.9066
 20
61.5791
 30
0.0
 40
0.2
 41
0.2
  0
VERTEX
  8
0
 10
46.8739
 20
61.0979
 30
0.0
 40
0.2
 41
0.2
  0
VERTEX
  8
0
 10
47.7739
 20
60.5
 30
0.0
 40
0.2
 41
0.2
  0
VERTEX
  8
0
 10
48.4022
 20
59.9803
 30
0.0
 40
0.2
 41
0.2
  0
VERTEX
  8
0
 10
48.5965
 20
59.7902
 30
0.0
 40
0.2
 41
0.2
  0
VERTEX
  8
0
 10
48.7881
 20
59.6015
 30
0.0
 40
0.2
 41
0.2
  0
VERTEX
  8
0
 10
49.3201
 20
58.9855
 30
0.0
 40
0.2
 41
0.2
  0
VERTEX
  8
0
 10
49.936
 20
58.0969
 30
0.0
 40
0.2
 41
0.2
  0
VERTEX
  8
0
 10
50.4349
 20
57.1391
 30
0.0
 40
0.2
 41
0.2
  0
VERTEX
  8
0
 10
50.734
 20
56.3809
 30
0.0
 40
0.2
 41
0.2
  0
VERTEX
  8
0
 10
50.8123
 20
56.1206
 30
0.0
 40
0.2
 41
0.2
  0
VERTEX
  8
0
 10
50.8166
 20
56.1068
 30
0.0
 40
0.2
 41
0.2
  0
VERTEX
  8
0
 10
50.8649
 20
56.0599
 30
0.0
 40
0.2
 41
0.2
  0
VERTEX
  8
0
 10
50.9337
 20
56.0532
 30
0.0
 40
0.2
 41
0.2
  0
VERTEX
  8
0
 10
50.9475
 20
56.0585
 30
0.0
 40
0.2
 41
0.2
  0
SEQEND
 8
0
  0
POLYLINE
  8
0
 62
     0
 66
     1
 10
0
 20
0
 30
0.0
 40
0.566929
 41
0.566929
  0
VERTEX
  8
0
 10
36.2437
 20
59.5161
 30
0.0
 40
0.2
 41
0.2
  0
VERTEX
  8
0
 10
29.1799
 20
71.7518
 30
0.0
 40
0.2
 41
0.2
  0
VERTEX
  8
0
 10
29.1717
 20
71.7656
 30
0.0
 40
0.2
 41
0.2
  0
VERTEX
  8
0
 10
29.1124
 20
71.7998
 30
0.0
 40
0.2
 41
0.2
  0
VERTEX
  8
0
 10
29.0449
 20
71.7917
 30
0.0
 40
0.2
 41
0.2
  0
VERTEX
  8
0
 10
29.0339
 20
71.7822
 30
0.0
 40
0.2
 41
0.2
  0
VERTEX
  8
0
 10
28.6756
 20
71.5186
 30
0.0
 40
0.2
 41
0.2
  0
VERTEX
  8
0
 10
27.6421
 20
70.6727
 30
0.0
 40
0.2
 41
0.2
  0
VERTEX
  8
0
 10
26.3467
 20
69.4612
 30
0.0
 40
0.2
 41
0.2
  0
VERTEX
  8
0
 10
25.1547
 20
68.1577
 30
0.0
 40
0.2
 41
0.2
  0
VERTEX
  8
0
 10
24.0688
 20
66.7674
 30
0.0
 40
0.2
 41
0.2
  0
VERTEX
  8
0
 10
23.0945
 20
65.297
 30
0.0
 40
0.2
 41
0.2
  0
VERTEX
  8
0
 10
22.236
 20
63.7536
 30
0.0
 40
0.2
 41
0.2
  0
VERTEX
  8
0
 10
21.4974
 20
62.1425
 30
0.0
 40
0.2
 41
0.2
  0
VERTEX
  8
0
 10
21.022
 20
60.894
 30
0.0
 40
0.2
 41
0.2
  0
VERTEX
  8
0
 10
20.8855
 20
60.4711
 30
0.0
 40
0.2
 41
0.2
  0
VERTEX
  8
0
 10
20.7491
 20
60.0481
 30
0.0
 40
0.2
 41
0.2
  0
VERTEX
  8
0
 10
20.4046
 20
58.7569
 30
0.0
 40
0.2
 41
0.2
  0
VERTEX
  8
0
 10
20.0629
 20
57.0191
 30
0.0
 40
0.2
 41
0.2
  0
VERTEX
  8
0
 10
19.8562
 20
55.2633
 30
0.0
 40
0.2
 41
0.2
  0
VERTEX
  8
0
 10
19.7886
 20
53.5009
 30
0.0
 40
0.2
 41
0.2
  0
VERTEX
  8
0
 10
19.8562
 20
51.7384
 30
0.0
 40
0.2
 41
0.2
  0
VERTEX
  8
0
 10
20.0629
 20
49.983
 30
0.0
 40
0.2
 41
0.2
  0
VERTEX
  8
0
 10
20.4046
 20
48.2452
 30
0.0
 40
0.2
 41
0.2
  0
VERTEX
  8
0
 10
20.7491
 20
46.954
 30
0.0
 40
0.2
 41
0.2
  0
VERTEX
  8
0
 10
20.8855
 20
46.5296
 30
0.0
 40
0.2
 41
0.2
  0
VERTEX
  8
0
 10
21.022
 20
46.1063
 30
0.0
 40
0.2
 41
0.2
  0
VERTEX
  8
0
 10
21.4974
 20
44.8578
 30
0.0
 40
0.2
 41
0.2
  0
VERTEX
  8
0
 10
22.236
 20
43.247
 30
0.0
 40
0.2
 41
0.2
  0
VERTEX
  8
0
 10
23.0945
 20
41.7036
 30
0.0
 40
0.2
 41
0.2
  0
VERTEX
  8
0
 10
24.0688
 20
40.2332
 30
0.0
 40
0.2
 41
0.2
  0
VERTEX
  8
0
 10
25.1547
 20
38.8426
 30
0.0
 40
0.2
 41
0.2
  0
VERTEX
  8
0
 10
26.3467
 20
37.5391
 30
0.0
 40
0.2
 41
0.2
  0
VERTEX
  8
0
 10
27.6421
 20
36.328
 30
0.0
 40
0.2
 41
0.2
  0
VERTEX
  8
0
 10
28.6756
 20
35.4817
 30
0.0
 40
0.2
 41
0.2
  0
VERTEX
  8
0
 10
29.0339
 20
35.2171
 30
0.0
 40
0.2
 41
0.2
  0
VERTEX
  8
0
 10
29.0449
 20
35.2089
 30
0.0
 40
0.2
 41
0.2
  0
VERTEX
  8
0
 10
29.1124
 20
35.2006
 30
0.0
 40
0.2
 41
0.2
  0
VERTEX
  8
0
 10
29.1717
 20
35.2351
 30
0.0
 40
0.2
 41
0.2
  0
VERTEX
  8
0
 10
29.1799
 20
35.2475
 30
0.0
 40
0.2
 41
0.2
  0
VERTEX
  8
0
 10
36.2437
 20
47.4832
 30
0.0
 40
0.2
 41
0.2
  0
VERTEX
  8
0
 10
36.2493
 20
47.4927
 30
0.0
 40
0.2
 41
0.2
  0
VERTEX
  8
0
 10
36.237
 20
47.5947
 30
0.0
 40
0.2
 41
0.2
  0
VERTEX
  8
0
 10
36.2299
 20
47.6017
 30
0.0
 40
0.2
 41
0.2
  0
VERTEX
  8
0
 10
36.044
 20
47.7986
 30
0.0
 40
0.2
 41
0.2
  0
VERTEX
  8
0
 10
35.5367
 20
48.4367
 30
0.0
 40
0.2
 41
0.2
  0
VERTEX
  8
0
 10
34.9567
 20
49.349
 30
0.0
 40
0.2
 41
0.2
  0
VERTEX
  8
0
 10
34.4951
 20
50.3259
 30
0.0
 40
0.2
 41
0.2
  0
VERTEX
  8
0
 10
34.2263
 20
51.0949
 30
0.0
 40
0.2
 41
0.2
  0
VERTEX
  8
0
 10
34.1602
 20
51.3567
 30
0.0
 40
0.2
 41
0.2
  0
VERTEX
  8
0
 10
34.0927
 20
51.6184
 30
0.0
 40
0.2
 41
0.2
  0
VERTEX
  8
0
 10
33.9562
 20
52.4221
 30
0.0
 40
0.2
 41
0.2
  0
VERTEX
  8
0
 10
33.8873
 20
53.5009
 30
0.0
 40
0.2
 41
0.2
  0
VERTEX
  8
0
 10
33.9562
 20
54.5786
 30
0.0
 40
0.2
 41
0.2
  0
VERTEX
  8
0
 10
34.0927
 20
55.3819
 30
0.0
 40
0.2
 41
0.2
  0
VERTEX
  8
0
 10
34.1602
 20
55.6436
 30
0.0
 40
0.2
 41
0.2
  0
VERTEX
  8
0
 10
34.2263
 20
55.9072
 30
0.0
 40
0.2
 41
0.2
  0
VERTEX
  8
0
 10
34.4951
 20
56.6759
 30
0.0
 40
0.2
 41
0.2
  0
VERTEX
  8
0
 10
34.9567
 20
57.6531
 30
0.0
 40
0.2
 41
0.2
  0
VERTEX
  8
0
 10
35.5367
 20
58.5639
 30
0.0
 40
0.2
 41
0.2
  0
VERTEX
  8
0
 10
36.044
 20
59.2018
 30
0.0
 40
0.2
 41
0.2
  0
VERTEX
  8
0
 10
36.2299
 20
59.3975
 30
0.0
 40
0.2
 41
0.2
  0
VERTEX
  8
0
 10
36.2398
 20
59.4085
 30
0.0
 40
0.2
 41
0.2
  0
VERTEX
  8
0
 10
36.256
 20
59.4762
 30
0.0
 40
0.2
 41
0.2
  0
VERTEX
  8
0
 10
36.2271
 20
59.5383
 30
0.0
 40
0.2
 41
0.2
  0
VERTEX
  8
0
 10
36.2162
 20
59.5464
 30
0.0
 40
0.2
 41
0.2
  0
SEQEND
 8
0
  0
POLYLINE
  8
0
 62
     0
 66
     1
 10
0
 20
0
 30
0.0
 40
0.566929
 41
0.566929
  0
VERTEX
  8
0
 10
40.5737
 20
45.0839
 30
0.0
 40
0.2
 41
0.2
  0
VERTEX
  8
0
 10
33.5098
 20
32.8483
 30
0.0
 40
0.2
 41
0.2
  0
VERTEX
  8
0
 10
33.5015
 20
32.8359
 30
0.0
 40
0.2
 41
0.2
  0
VERTEX
  8
0
 10
33.5001
 20
32.767
 30
0.0
 40
0.2
 41
0.2
  0
VERTEX
  8
0
 10
33.5414
 20
32.7133
 30
0.0
 40
0.2
 41
0.2
  0
VERTEX
  8
0
 10
33.5552
 20
32.7063
 30
0.0
 40
0.2
 41
0.2
  0
VERTEX
  8
0
 10
33.9617
 20
32.5286
 30
0.0
 40
0.2
 41
0.2
  0
VERTEX
  8
0
 10
35.2116
 20
32.0573
 30
0.0
 40
0.2
 41
0.2
  0
VERTEX
  8
0
 10
36.908
 20
31.5419
 30
0.0
 40
0.2
 41
0.2
  0
VERTEX
  8
0
 10
38.6334
 20
31.1616
 30
0.0
 40
0.2
 41
0.2
  0
VERTEX
  8
0
 10
40.3807
 20
30.9149
 30
0.0
 40
0.2
 41
0.2
  0
VERTEX
  8
0
 10
42.1404
 20
30.806
 30
0.0
 40
0.2
 41
0.2
  0
VERTEX
  8
0
 10
43.9071
 20
30.835
 30
0.0
 40
0.2
 41
0.2
  0
VERTEX
  8
0
 10
45.6724
 20
31.0017
 30
0.0
 40
0.2
 41
0.2
  0
VERTEX
  8
0
 10
46.9911
 20
31.214
 30
0.0
 40
0.2
 41
0.2
  0
VERTEX
  8
0
 10
47.4267
 20
31.3063
 30
0.0
 40
0.2
 41
0.2
  0
VERTEX
  8
0
 10
47.8607
 20
31.4
 30
0.0
 40
0.2
 41
0.2
  0
VERTEX
  8
0
 10
49.1504
 20
31.7486
 30
0.0
 40
0.2
 41
0.2
  0
VERTEX
  8
0
 10
50.8275
 20
32.3205
 30
0.0
 40
0.2
 41
0.2
  0
VERTEX
  8
0
 10
52.451
 20
33.0206
 30
0.0
 40
0.2
 41
0.2
  0
VERTEX
  8
0
 10
54.011
 20
33.8419
 30
0.0
 40
0.2
 41
0.2
  0
VERTEX
  8
0
 10
55.5032
 20
34.7831
 30
0.0
 40
0.2
 41
0.2
  0
VERTEX
  8
0
 10
56.92
 20
35.8387
 30
0.0
 40
0.2
 41
0.2
  0
VERTEX
  8
0
 10
58.2538
 20
37.0046
 30
0.0
 40
0.2
 41
0.2
  0
VERTEX
  8
0
 10
59.2007
 20
37.9469
 30
0.0
 40
0.2
 41
0.2
  0
VERTEX
  8
0
 10
59.4995
 20
38.2764
 30
0.0
 40
0.2
 41
0.2
  0
VERTEX
  8
0
 10
59.7972
 20
38.6073
 30
0.0
 40
0.2
 41
0.2
  0
VERTEX
  8
0
 10
60.6407
 20
39.6434
 30
0.0
 40
0.2
 41
0.2
  0
VERTEX
  8
0
 10
61.6673
 20
41.0877
 30
0.0
 40
0.2
 41
0.2
  0
VERTEX
  8
0
 10
62.574
 20
42.6036
 30
0.0
 40
0.2
 41
0.2
  0
VERTEX
  8
0
 10
63.3607
 20
44.1826
 30
0.0
 40
0.2
 41
0.2
  0
VERTEX
  8
0
 10
64.0221
 20
45.8184
 30
0.0
 40
0.2
 41
0.2
  0
VERTEX
  8
0
 10
64.5541
 20
47.5036
 30
0.0
 40
0.2
 41
0.2
  0
VERTEX
  8
0
 10
64.9552
 20
49.2291
 30
0.0
 40
0.2
 41
0.2
  0
VERTEX
  8
0
 10
65.1729
 20
50.5478
 30
0.0
 40
0.2
 41
0.2
  0
VERTEX
  8
0
 10
65.2226
 20
50.9887
 30
0.0
 40
0.2
 41
0.2
  0
VERTEX
  8
0
 10
65.224
 20
51.0039
 30
0.0
 40
0.2
 41
0.2
  0
VERTEX
  8
0
 10
65.1979
 20
51.0674
 30
0.0
 40
0.2
 41
0.2
  0
VERTEX
  8
0
 10
65.1411
 20
51.1006
 30
0.0
 40
0.2
 41
0.2
  0
VERTEX
  8
0
 10
65.1235
 20
51.1006
 30
0.0
 40
0.2
 41
0.2
  0
VERTEX
  8
0
 10
50.9944
 20
51.1006
 30
0.0
 40
0.2
 41
0.2
  0
VERTEX
  8
0
 10
50.9792
 20
51.1006
 30
0.0
 40
0.2
 41
0.2
  0
VERTEX
  8
0
 10
50.9337
 20
51.0812
 30
0.0
 40
0.2
 41
0.2
  0
VERTEX
  8
0
 10
50.902
 20
51.0399
 30
0.0
 40
0.2
 41
0.2
  0
VERTEX
  8
0
 10
50.8991
 20
51.0286
 30
0.0
 40
0.2
 41
0.2
  0
VERTEX
  8
0
 10
50.8208
 20
50.7711
 30
0.0
 40
0.2
 41
0.2
  0
VERTEX
  8
0
 10
50.5217
 20
50.0133
 30
0.0
 40
0.2
 41
0.2
  0
VERTEX
  8
0
 10
50.0228
 20
49.0541
 30
0.0
 40
0.2
 41
0.2
  0
VERTEX
  8
0
 10
49.4069
 20
48.1665
 30
0.0
 40
0.2
 41
0.2
  0
VERTEX
  8
0
 10
48.8749
 20
47.5492
 30
0.0
 40
0.2
 41
0.2
  0
VERTEX
  8
0
 10
48.6819
 20
47.359
 30
0.0
 40
0.2
 41
0.2
  0
VERTEX
  8
0
 10
48.489
 20
47.1703
 30
0.0
 40
0.2
 41
0.2
  0
VERTEX
  8
0
 10
47.8607
 20
46.6506
 30
0.0
 40
0.2
 41
0.2
  0
VERTEX
  8
0
 10
46.9607
 20
46.0527
 30
0.0
 40
0.2
 41
0.2
  0
VERTEX
  8
0
 10
45.9934
 20
45.5732
 30
0.0
 40
0.2
 41
0.2
  0
VERTEX
  8
0
 10
45.23
 20
45.2893
 30
0.0
 40
0.2
 41
0.2
  0
VERTEX
  8
0
 10
44.9696
 20
45.2162
 30
0.0
 40
0.2
 41
0.2
  0
VERTEX
  8
0
 10
44.7075
 20
45.1446
 30
0.0
 40
0.2
 41
0.2
  0
VERTEX
  8
0
 10
43.9071
 20
44.9915
 30
0.0
 40
0.2
 41
0.2
  0
VERTEX
  8
0
 10
42.8308
 20
44.9033
 30
0.0
 40
0.2
 41
0.2
  0
VERTEX
  8
0
 10
41.752
 20
44.9488
 30
0.0
 40
0.2
 41
0.2
  0
VERTEX
  8
0
 10
40.9455
 20
45.0688
 30
0.0
 40
0.2
 41
0.2
  0
VERTEX
  8
0
 10
40.6823
 20
45.1309
 30
0.0
 40
0.2
 41
0.2
  0
VERTEX
  8
0
 10
40.6672
 20
45.1347
 30
0.0
 40
0.2
 41
0.2
  0
VERTEX
  8
0
 10
40.6026
 20
45.1157
 30
0.0
 40
0.2
 41
0.2
  0
VERTEX
  8
0
 10
40.5624
 20
45.0603
 30
0.0
 40
0.2
 41
0.2
  0
VERTEX
  8
0
 10
40.5613
 20
45.0455
 30
0.0
 40
0.2
 41
0.2
  0
SEQEND
 8
0
  0
POLYLINE
  8
0
 62
     5
 66
     1
 10
0
 20
0
 30
0.0
 70
     1
 40
0.566929
 41
0.566929
  0
VERTEX
  8
0
 10
26.8745
 20
100.7
 30
0.0
 40
0.2
 41
0.2
  0
VERTEX
  8
0
 10
26.8745
 20
100.619
 30
0.0
 40
0.2
 41
0.2
  0
VERTEX
  8
0
 10
26.8497
 20
100.372
 30
0.0
 40
0.2
 41
0.2
  0
VERTEX
  8
0
 10
26.7808
 20
100.052
 30
0.0
 40
0.2
 41
0.2
  0
VERTEX
  8
0
 10
26.6664
 20
99.7465
 30
0.0
 40
0.2
 41
0.2
  0
VERTEX
  8
0
 10
26.5534
 20
99.526
 30
0.0
 40
0.2
 41
0.2
  0
VERTEX
  8
0
 10
26.5093
 20
99.4572
 30
0.0
 40
0.2
 41
0.2
  0
VERTEX
  8
0
 10
26.4652
 20
99.3881
 30
0.0
 40
0.2
 41
0.2
  0
VERTEX
  8
0
 10
26.3122
 20
99.1941
 30
0.0
 40
0.2
 41
0.2
  0
VERTEX
  8
0
 10
26.0808
 20
98.9623
 30
0.0
 40
0.2
 41
0.2
  0
VERTEX
  8
0
 10
25.8189
 20
98.7668
 30
0.0
 40
0.2
 41
0.2
  0
VERTEX
  8
0
 10
25.6053
 20
98.6427
 30
0.0
 40
0.2
 41
0.2
  0
VERTEX
  8
0
 10
25.5309
 20
98.6084
 30
0.0
 40
0.2
 41
0.2
  0
VERTEX
  8
0
 10
25.4303
 20
98.5629
 30
0.0
 40
0.2
 41
0.2
  0
VERTEX
  8
0
 10
24.9025
 20
98.4236
 30
0.0
 40
0.2
 41
0.2
  0
VERTEX
  8
0
 10
24.3568
 20
98.4084
 30
0.0
 40
0.2
 41
0.2
  0
VERTEX
  8
0
 10
24.248
 20
98.4236
 30
0.0
 40
0.2
 41
0.2
  0
VERTEX
  8
0
 10
24.1667
 20
98.4359
 30
0.0
 40
0.2
 41
0.2
  0
VERTEX
  8
0
 10
23.9255
 20
98.4938
 30
0.0
 40
0.2
 41
0.2
  0
VERTEX
  8
0
 10
23.6182
 20
98.6084
 30
0.0
 40
0.2
 41
0.2
  0
VERTEX
  8
0
 10
23.3316
 20
98.7654
 30
0.0
 40
0.2
 41
0.2
  0
VERTEX
  8
0
 10
23.129
 20
98.9101
 30
0.0
 40
0.2
 41
0.2
  0
VERTEX
  8
0
 10
23.0684
 20
98.9623
 30
0.0
 40
0.2
 41
0.2
  0
VERTEX
  8
0
 10
23.0063
 20
99.0163
 30
0.0
 40
0.2
 41
0.2
  0
VERTEX
  8
0
 10
22.8355
 20
99.1955
 30
0.0
 40
0.2
 41
0.2
  0
VERTEX
  8
0
 10
22.6398
 20
99.4572
 30
0.0
 40
0.2
 41
0.2
  0
VERTEX
  8
0
 10
22.4827
 20
99.7451
 30
0.0
 40
0.2
 41
0.2
  0
VERTEX
  8
0
 10
22.3904
 20
99.9755
 30
0.0
 40
0.2
 41
0.2
  0
VERTEX
  8
0
 10
22.3683
 20
100.052
 30
0.0
 40
0.2
 41
0.2
  0
VERTEX
  8
0
 10
22.3366
 20
100.159
 30
0.0
 40
0.2
 41
0.2
  0
VERTEX
  8
0
 10
22.2746
 20
100.7
 30
0.0
 40
0.2
 41
0.2
  0
VERTEX
  8
0
 10
22.3366
 20
101.243
 30
0.0
 40
0.2
 41
0.2
  0
VERTEX
  8
0
 10
22.3683
 20
101.348
 30
0.0
 40
0.2
 41
0.2
  0
VERTEX
  8
0
 10
22.3904
 20
101.426
 30
0.0
 40
0.2
 41
0.2
  0
VERTEX
  8
0
 10
22.4827
 20
101.656
 30
0.0
 40
0.2
 41
0.2
  0
VERTEX
  8
0
 10
22.6398
 20
101.945
 30
0.0
 40
0.2
 41
0.2
  0
VERTEX
  8
0
 10
22.8355
 20
102.206
 30
0.0
 40
0.2
 41
0.2
  0
VERTEX
  8
0
 10
23.0063
 20
102.386
 30
0.0
 40
0.2
 41
0.2
  0
VERTEX
  8
0
 10
23.0684
 20
102.438
 30
0.0
 40
0.2
 41
0.2
  0
VERTEX
  8
0
 10
23.1304
 20
102.491
 30
0.0
 40
0.2
 41
0.2
  0
VERTEX
  8
0
 10
23.3316
 20
102.636
 30
0.0
 40
0.2
 41
0.2
  0
VERTEX
  8
0
 10
23.6182
 20
102.792
 30
0.0
 40
0.2
 41
0.2
  0
VERTEX
  8
0
 10
23.9255
 20
102.908
 30
0.0
 40
0.2
 41
0.2
  0
VERTEX
  8
0
 10
24.1667
 20
102.966
 30
0.0
 40
0.2
 41
0.2
  0
VERTEX
  8
0
 10
24.248
 20
102.977
 30
0.0
 40
0.2
 41
0.2
  0
VERTEX
  8
0
 10
24.3568
 20
102.993
 30
0.0
 40
0.2
 41
0.2
  0
VERTEX
  8
0
 10
24.9025
 20
102.977
 30
0.0
 40
0.2
 41
0.2
  0
VERTEX
  8
0
 10
25.4303
 20
102.839
 30
0.0
 40
0.2
 41
0.2
  0
VERTEX
  8
0
 10
25.5309
 20
102.792
 30
0.0
 40
0.2
 41
0.2
  0
VERTEX
  8
0
 10
25.6039
 20
102.759
 30
0.0
 40
0.2
 41
0.2
  0
VERTEX
  8
0
 10
25.8189
 20
102.635
 30
0.0
 40
0.2
 41
0.2
  0
VERTEX
  8
0
 10
26.0808
 20
102.438
 30
0.0
 40
0.2
 41
0.2
  0
VERTEX
  8
0
 10
26.3122
 20
102.208
 30
0.0
 40
0.2
 41
0.2
  0
VERTEX
  8
0
 10
26.4638
 20
102.012
 30
0.0
 40
0.2
 41
0.2
  0
VERTEX
  8
0
 10
26.5093
 20
101.943
 30
0.0
 40
0.2
 41
0.2
  0
VERTEX
  8
0
 10
26.5534
 20
101.876
 30
0.0
 40
0.2
 41
0.2
  0
VERTEX
  8
0
 10
26.6664
 20
101.655
 30
0.0
 40
0.2
 41
0.2
  0
VERTEX
  8
0
 10
26.7808
 20
101.349
 30
0.0
 40
0.2
 41
0.2
  0
VERTEX
  8
0
 10
26.8497
 20
101.03
 30
0.0
 40
0.2
 41
0.2
  0
VERTEX
  8
0
 10
26.8745
 20
100.783
 30
0.0
 40
0.2
 41
0.2
  0
VERTEX
  8
0
 10
26.8745
 20
100.7
 30
0.0
 40
0.2
 41
0.2
  0
SEQEND
 8
0
  0
POLYLINE
  8
0
 62
     0
 66
     1
 10
0
 20
0
 30
0.0
 70
     1
 40
0.566929
 41
0.566929
  0
VERTEX
  8
0
 10
35.7244
 20
98.9623
 30
0.0
 40
0.2
 41
0.2
  0
VERTEX
  8
0
 10
35.9488
 20
98.9584
 30
0.0
 40
0.2
 41
0.2
  0
VERTEX
  8
0
 10
36.1735
 20
98.9789
 30
0.0
 40
0.2
 41
0.2
  0
VERTEX
  8
0
 10
36.3982
 20
99.0163
 30
0.0
 40
0.2
 41
0.2
  0
VERTEX
  8
0
 10
36.6229
 20
99.0671
 30
0.0
 40
0.2
 41
0.2
  0
VERTEX
  8
0
 10
36.8487
 20
99.1291
 30
0.0
 40
0.2
 41
0.2
  0
VERTEX
  8
0
 10
37.0734
 20
99.205
 30
0.0
 40
0.2
 41
0.2
  0
VERTEX
  8
0
 10
37.2992
 20
99.2904
 30
0.0
 40
0.2
 41
0.2
  0
VERTEX
  8
0
 10
37.5239
 20
99.3856
 30
0.0
 40
0.2
 41
0.2
  0
VERTEX
  8
0
 10
37.75
 20
99.4915
 30
0.0
 40
0.2
 41
0.2
  0
VERTEX
  8
0
 10
37.9734
 20
99.6075
 30
0.0
 40
0.2
 41
0.2
  0
VERTEX
  8
0
 10
38.2432
 20
99.7589
 30
0.0
 40
0.2
 41
0.2
  0
VERTEX
  8
0
 10
38.2683
 20
100.256
 30
0.0
 40
0.2
 41
0.2
  0
VERTEX
  8
0
 10
38.275
 20
100.7
 30
0.0
 40
0.2
 41
0.2
  0
VERTEX
  8
0
 10
38.2683
 20
101.144
 30
0.0
 40
0.2
 41
0.2
  0
VERTEX
  8
0
 10
38.2432
 20
101.64
 30
0.0
 40
0.2
 41
0.2
  0
VERTEX
  8
0
 10
37.9734
 20
101.793
 30
0.0
 40
0.2
 41
0.2
  0
VERTEX
  8
0
 10
37.75
 20
101.909
 30
0.0
 40
0.2
 41
0.2
  0
VERTEX
  8
0
 10
37.5239
 20
102.015
 30
0.0
 40
0.2
 41
0.2
  0
VERTEX
  8
0
 10
37.2992
 20
102.11
 30
0.0
 40
0.2
 41
0.2
  0
VERTEX
  8
0
 10
37.0734
 20
102.195
 30
0.0
 40
0.2
 41
0.2
  0
VERTEX
  8
0
 10
36.8487
 20
102.27
 30
0.0
 40
0.2
 41
0.2
  0
VERTEX
  8
0
 10
36.6229
 20
102.333
 30
0.0
 40
0.2
 41
0.2
  0
VERTEX
  8
0
 10
36.3982
 20
102.384
 30
0.0
 40
0.2
 41
0.2
  0
VERTEX
  8
0
 10
36.1735
 20
102.421
 30
0.0
 40
0.2
 41
0.2
  0
VERTEX
  8
0
 10
35.9488
 20
102.442
 30
0.0
 40
0.2
 41
0.2
  0
VERTEX
  8
0
 10
35.7244
 20
102.438
 30
0.0
 40
0.2
 41
0.2
  0
VERTEX
  8
0
 10
34.1547
 20
102.208
 30
0.0
 40
0.2
 41
0.2
  0
VERTEX
  8
0
 10
34.0747
 20
102.664
 30
0.0
 40
0.2
 41
0.2
  0
VERTEX
  8
0
 10
33.9452
 20
103.211
 30
0.0
 40
0.2
 41
0.2
  0
VERTEX
  8
0
 10
33.784
 20
103.75
 30
0.0
 40
0.2
 41
0.2
  0
VERTEX
  8
0
 10
33.6255
 20
104.184
 30
0.0
 40
0.2
 41
0.2
  0
VERTEX
  8
0
 10
35.0986
 20
104.769
 30
0.0
 40
0.2
 41
0.2
  0
VERTEX
  8
0
 10
35.2958
 20
104.878
 30
0.0
 40
0.2
 41
0.2
  0
VERTEX
  8
0
 10
35.4803
 20
105.009
 30
0.0
 40
0.2
 41
0.2
  0
VERTEX
  8
0
 10
35.6567
 20
105.152
 30
0.0
 40
0.2
 41
0.2
  0
VERTEX
  8
0
 10
35.8263
 20
105.31
 30
0.0
 40
0.2
 41
0.2
  0
VERTEX
  8
0
 10
35.989
 20
105.476
 30
0.0
 40
0.2
 41
0.2
  0
VERTEX
  8
0
 10
36.1474
 20
105.654
 30
0.0
 40
0.2
 41
0.2
  0
VERTEX
  8
0
 10
36.2991
 20
105.841
 30
0.0
 40
0.2
 41
0.2
  0
VERTEX
  8
0
 10
36.4465
 20
106.036
 30
0.0
 40
0.2
 41
0.2
  0
VERTEX
  8
0
 10
36.5883
 20
106.241
 30
0.0
 40
0.2
 41
0.2
  0
VERTEX
  8
0
 10
36.7249
 20
106.454
 30
0.0
 40
0.2
 41
0.2
  0
VERTEX
  8
0
 10
36.8833
 20
106.72
 30
0.0
 40
0.2
 41
0.2
  0
VERTEX
  8
0
 10
36.6557
 20
107.162
 30
0.0
 40
0.2
 41
0.2
  0
VERTEX
  8
0
 10
36.4395
 20
107.55
 30
0.0
 40
0.2
 41
0.2
  0
VERTEX
  8
0
 10
36.2119
 20
107.931
 30
0.0
 40
0.2
 41
0.2
  0
VERTEX
  8
0
 10
35.9421
 20
108.35
 30
0.0
 40
0.2
 41
0.2
  0
VERTEX
  8
0
 10
35.632
 20
108.345
 30
0.0
 40
0.2
 41
0.2
  0
VERTEX
  8
0
 10
35.3797
 20
108.333
 30
0.0
 40
0.2
 41
0.2
  0
VERTEX
  8
0
 10
35.1331
 20
108.312
 30
0.0
 40
0.2
 41
0.2
  0
VERTEX
  8
0
 10
34.8892
 20
108.283
 30
0.0
 40
0.2
 41
0.2
  0
VERTEX
  8
0
 10
34.6522
 20
108.245
 30
0.0
 40
0.2
 41
0.2
  0
VERTEX
  8
0
 10
34.4193
 20
108.197
 30
0.0
 40
0.2
 41
0.2
  0
VERTEX
  8
0
 10
34.1919
 20
108.139
 30
0.0
 40
0.2
 41
0.2
  0
VERTEX
  8
0
 10
33.9728
 20
108.07
 30
0.0
 40
0.2
 41
0.2
  0
VERTEX
  8
0
 10
33.7592
 20
107.99
 30
0.0
 40
0.2
 41
0.2
  0
VERTEX
  8
0
 10
33.5539
 20
107.895
 30
0.0
 40
0.2
 41
0.2
  0
VERTEX
  8
0
 10
33.3609
 20
107.779
 30
0.0
 40
0.2
 41
0.2
  0
VERTEX
  8
0
 10
32.1166
 20
106.795
 30
0.0
 40
0.2
 41
0.2
  0
VERTEX
  8
0
 10
31.8203
 20
107.149
 30
0.0
 40
0.2
 41
0.2
  0
VERTEX
  8
0
 10
31.4344
 20
107.559
 30
0.0
 40
0.2
 41
0.2
  0
VERTEX
  8
0
 10
31.0251
 20
107.944
 30
0.0
 40
0.2
 41
0.2
  0
VERTEX
  8
0
 10
30.671
 20
108.242
 30
0.0
 40
0.2
 41
0.2
  0
VERTEX
  8
0
 10
31.6549
 20
109.486
 30
0.0
 40
0.2
 41
0.2
  0
VERTEX
  8
0
 10
31.7707
 20
109.678
 30
0.0
 40
0.2
 41
0.2
  0
VERTEX
  8
0
 10
31.8644
 20
109.885
 30
0.0
 40
0.2
 41
0.2
  0
VERTEX
  8
0
 10
31.9457
 20
110.097
 30
0.0
 40
0.2
 41
0.2
  0
VERTEX
  8
0
 10
32.0132
 20
110.317
 30
0.0
 40
0.2
 41
0.2
  0
VERTEX
  8
0
 10
32.0711
 20
110.544
 30
0.0
 40
0.2
 41
0.2
  0
VERTEX
  8
0
 10
32.1193
 20
110.776
 30
0.0
 40
0.2
 41
0.2
  0
VERTEX
  8
0
 10
32.1579
 20
111.015
 30
0.0
 40
0.2
 41
0.2
  0
VERTEX
  8
0
 10
32.1882
 20
111.257
 30
0.0
 40
0.2
 41
0.2
  0
VERTEX
  8
0
 10
32.2089
 20
111.505
 30
0.0
 40
0.2
 41
0.2
  0
VERTEX
  8
0
 10
32.2199
 20
111.758
 30
0.0
 40
0.2
 41
0.2
  0
VERTEX
  8
0
 10
32.2241
 20
112.068
 30
0.0
 40
0.2
 41
0.2
  0
VERTEX
  8
0
 10
31.8051
 20
112.336
 30
0.0
 40
0.2
 41
0.2
  0
VERTEX
  8
0
 10
31.4248
 20
112.565
 30
0.0
 40
0.2
 41
0.2
  0
VERTEX
  8
0
 10
31.0376
 20
112.78
 30
0.0
 40
0.2
 41
0.2
  0
VERTEX
  8
0
 10
30.5952
 20
113.007
 30
0.0
 40
0.2
 41
0.2
  0
VERTEX
  8
0
 10
30.3279
 20
112.85
 30
0.0
 40
0.2
 41
0.2
  0
VERTEX
  8
0
 10
30.1157
 20
112.714
 30
0.0
 40
0.2
 41
0.2
  0
VERTEX
  8
0
 10
29.9117
 20
112.572
 30
0.0
 40
0.2
 41
0.2
  0
VERTEX
  8
0
 10
29.716
 20
112.425
 30
0.0
 40
0.2
 41
0.2
  0
VERTEX
  8
0
 10
29.5286
 20
112.272
 30
0.0
 40
0.2
 41
0.2
  0
VERTEX
  8
0
 10
29.3522
 20
112.115
 30
0.0
 40
0.2
 41
0.2
  0
VERTEX
  8
0
 10
29.1841
 20
111.95
 30
0.0
 40
0.2
 41
0.2
  0
VERTEX
  8
0
 10
29.0284
 20
111.781
 30
0.0
 40
0.2
 41
0.2
  0
VERTEX
  8
0
 10
28.8837
 20
111.604
 30
0.0
 40
0.2
 41
0.2
  0
VERTEX
  8
0
 10
28.7528
 20
111.421
 30
0.0
 40
0.2
 41
0.2
  0
VERTEX
  8
0
 10
28.6439
 20
111.224
 30
0.0
 40
0.2
 41
0.2
  0
VERTEX
  8
0
 10
28.0583
 20
109.75
 30
0.0
 40
0.2
 41
0.2
  0
VERTEX
  8
0
 10
27.6242
 20
109.908
 30
0.0
 40
0.2
 41
0.2
  0
VERTEX
  8
0
 10
27.0853
 20
110.069
 30
0.0
 40
0.2
 41
0.2
  0
VERTEX
  8
0
 10
26.5383
 20
110.199
 30
0.0
 40
0.2
 41
0.2
  0
VERTEX
  8
0
 10
26.0835
 20
110.28
 30
0.0
 40
0.2
 41
0.2
  0
VERTEX
  8
0
 10
26.3136
 20
111.849
 30
0.0
 40
0.2
 41
0.2
  0
VERTEX
  8
0
 10
26.3164
 20
112.073
 30
0.0
 40
0.2
 41
0.2
  0
VERTEX
  8
0
 10
26.2957
 20
112.299
 30
0.0
 40
0.2
 41
0.2
  0
VERTEX
  8
0
 10
26.2585
 20
112.524
 30
0.0
 40
0.2
 41
0.2
  0
VERTEX
  8
0
 10
26.2075
 20
112.748
 30
0.0
 40
0.2
 41
0.2
  0
VERTEX
  8
0
 10
26.1455
 20
112.973
 30
0.0
 40
0.2
 41
0.2
  0
VERTEX
  8
0
 10
26.0711
 20
113.199
 30
0.0
 40
0.2
 41
0.2
  0
VERTEX
  8
0
 10
25.9843
 20
113.424
 30
0.0
 40
0.2
 41
0.2
  0
VERTEX
  8
0
 10
25.8892
 20
113.649
 30
0.0
 40
0.2
 41
0.2
  0
VERTEX
  8
0
 10
25.7831
 20
113.874
 30
0.0
 40
0.2
 41
0.2
  0
VERTEX
  8
0
 10
25.6673
 20
114.099
 30
0.0
 40
0.2
 41
0.2
  0
VERTEX
  8
0
 10
25.5157
 20
114.369
 30
0.0
 40
0.2
 41
0.2
  0
VERTEX
  8
0
 10
25.0183
 20
114.392
 30
0.0
 40
0.2
 41
0.2
  0
VERTEX
  8
0
 10
24.5746
 20
114.401
 30
0.0
 40
0.2
 41
0.2
  0
VERTEX
  8
0
 10
24.1308
 20
114.392
 30
0.0
 40
0.2
 41
0.2
  0
VERTEX
  8
0
 10
23.6347
 20
114.369
 30
0.0
 40
0.2
 41
0.2
  0
VERTEX
  8
0
 10
23.4831
 20
114.099
 30
0.0
 40
0.2
 41
0.2
  0
VERTEX
  8
0
 10
23.3674
 20
113.874
 30
0.0
 40
0.2
 41
0.2
  0
VERTEX
  8
0
 10
23.2613
 20
113.649
 30
0.0
 40
0.2
 41
0.2
  0
VERTEX
  8
0
 10
23.1648
 20
113.424
 30
0.0
 40
0.2
 41
0.2
  0
VERTEX
  8
0
 10
23.0794
 20
113.199
 30
0.0
 40
0.2
 41
0.2
  0
VERTEX
  8
0
 10
23.005
 20
112.973
 30
0.0
 40
0.2
 41
0.2
  0
VERTEX
  8
0
 10
22.9416
 20
112.748
 30
0.0
 40
0.2
 41
0.2
  0
VERTEX
  8
0
 10
22.8906
 20
112.524
 30
0.0
 40
0.2
 41
0.2
  0
VERTEX
  8
0
 10
22.8534
 20
112.299
 30
0.0
 40
0.2
 41
0.2
  0
VERTEX
  8
0
 10
22.8327
 20
112.073
 30
0.0
 40
0.2
 41
0.2
  0
VERTEX
  8
0
 10
22.8369
 20
111.849
 30
0.0
 40
0.2
 41
0.2
  0
VERTEX
  8
0
 10
23.067
 20
110.28
 30
0.0
 40
0.2
 41
0.2
  0
VERTEX
  8
0
 10
22.6122
 20
110.199
 30
0.0
 40
0.2
 41
0.2
  0
VERTEX
  8
0
 10
22.0652
 20
110.069
 30
0.0
 40
0.2
 41
0.2
  0
VERTEX
  8
0
 10
21.5249
 20
109.908
 30
0.0
 40
0.2
 41
0.2
  0
VERTEX
  8
0
 10
21.0909
 20
109.75
 30
0.0
 40
0.2
 41
0.2
  0
VERTEX
  8
0
 10
20.5066
 20
111.224
 30
0.0
 40
0.2
 41
0.2
  0
VERTEX
  8
0
 10
20.3963
 20
111.421
 30
0.0
 40
0.2
 41
0.2
  0
VERTEX
  8
0
 10
20.2654
 20
111.604
 30
0.0
 40
0.2
 41
0.2
  0
VERTEX
  8
0
 10
20.1221
 20
111.781
 30
0.0
 40
0.2
 41
0.2
  0
VERTEX
  8
0
 10
19.965
 20
111.95
 30
0.0
 40
0.2
 41
0.2
  0
VERTEX
  8
0
 10
19.7983
 20
112.115
 30
0.0
 40
0.2
 41
0.2
  0
VERTEX
  8
0
 10
19.6205
 20
112.272
 30
0.0
 40
0.2
 41
0.2
  0
VERTEX
  8
0
 10
19.4345
 20
112.425
 30
0.0
 40
0.2
 41
0.2
  0
VERTEX
  8
0
 10
19.2388
 20
112.572
 30
0.0
 40
0.2
 41
0.2
  0
VERTEX
  8
0
 10
19.0335
 20
112.714
 30
0.0
 40
0.2
 41
0.2
  0
VERTEX
  8
0
 10
18.8213
 20
112.85
 30
0.0
 40
0.2
 41
0.2
  0
VERTEX
  8
0
 10
18.5553
 20
113.007
 30
0.0
 40
0.2
 41
0.2
  0
VERTEX
  8
0
 10
18.113
 20
112.78
 30
0.0
 40
0.2
 41
0.2
  0
VERTEX
  8
0
 10
17.7243
 20
112.565
 30
0.0
 40
0.2
 41
0.2
  0
VERTEX
  8
0
 10
17.344
 20
112.336
 30
0.0
 40
0.2
 41
0.2
  0
VERTEX
  8
0
 10
16.9265
 20
112.068
 30
0.0
 40
0.2
 41
0.2
  0
VERTEX
  8
0
 10
16.9292
 20
111.758
 30
0.0
 40
0.2
 41
0.2
  0
VERTEX
  8
0
 10
16.9416
 20
111.505
 30
0.0
 40
0.2
 41
0.2
  0
VERTEX
  8
0
 10
16.9623
 20
111.257
 30
0.0
 40
0.2
 41
0.2
  0
VERTEX
  8
0
 10
16.9912
 20
111.015
 30
0.0
 40
0.2
 41
0.2
  0
VERTEX
  8
0
 10
17.0298
 20
110.776
 30
0.0
 40
0.2
 41
0.2
  0
VERTEX
  8
0
 10
17.078
 20
110.544
 30
0.0
 40
0.2
 41
0.2
  0
VERTEX
  8
0
 10
17.1359
 20
110.317
 30
0.0
 40
0.2
 41
0.2
  0
VERTEX
  8
0
 10
17.2048
 20
110.097
 30
0.0
 40
0.2
 41
0.2
  0
VERTEX
  8
0
 10
17.2847
 20
109.885
 30
0.0
 40
0.2
 41
0.2
  0
VERTEX
  8
0
 10
17.3798
 20
109.678
 30
0.0
 40
0.2
 41
0.2
  0
VERTEX
  8
0
 10
17.4956
 20
109.486
 30
0.0
 40
0.2
 41
0.2
  0
VERTEX
  8
0
 10
18.4795
 20
108.242
 30
0.0
 40
0.2
 41
0.2
  0
VERTEX
  8
0
 10
18.1253
 20
107.944
 30
0.0
 40
0.2
 41
0.2
  0
VERTEX
  8
0
 10
17.7161
 20
107.559
 30
0.0
 40
0.2
 41
0.2
  0
VERTEX
  8
0
 10
17.3302
 20
107.149
 30
0.0
 40
0.2
 41
0.2
  0
VERTEX
  8
0
 10
17.0326
 20
106.795
 30
0.0
 40
0.2
 41
0.2
  0
VERTEX
  8
0
 10
15.7896
 20
107.779
 30
0.0
 40
0.2
 41
0.2
  0
VERTEX
  8
0
 10
15.5966
 20
107.895
 30
0.0
 40
0.2
 41
0.2
  0
VERTEX
  8
0
 10
15.3913
 20
107.99
 30
0.0
 40
0.2
 41
0.2
  0
VERTEX
  8
0
 10
15.1777
 20
108.07
 30
0.0
 40
0.2
 41
0.2
  0
VERTEX
  8
0
 10
14.9572
 20
108.139
 30
0.0
 40
0.2
 41
0.2
  0
VERTEX
  8
0
 10
14.7312
 20
108.197
 30
0.0
 40
0.2
 41
0.2
  0
VERTEX
  8
0
 10
14.4984
 20
108.245
 30
0.0
 40
0.2
 41
0.2
  0
VERTEX
  8
0
 10
14.2613
 20
108.283
 30
0.0
 40
0.2
 41
0.2
  0
VERTEX
  8
0
 10
14.0174
 20
108.312
 30
0.0
 40
0.2
 41
0.2
  0
VERTEX
  8
0
 10
13.7694
 20
108.333
 30
0.0
 40
0.2
 41
0.2
  0
VERTEX
  8
0
 10
13.5172
 20
108.345
 30
0.0
 40
0.2
 41
0.2
  0
VERTEX
  8
0
 10
13.2085
 20
108.35
 30
0.0
 40
0.2
 41
0.2
  0
VERTEX
  8
0
 10
12.9384
 20
107.931
 30
0.0
 40
0.2
 41
0.2
  0
VERTEX
  8
0
 10
12.711
 20
107.55
 30
0.0
 40
0.2
 41
0.2
  0
VERTEX
  8
0
 10
12.4947
 20
107.162
 30
0.0
 40
0.2
 41
0.2
  0
VERTEX
  8
0
 10
12.2673
 20
106.72
 30
0.0
 40
0.2
 41
0.2
  0
VERTEX
  8
0
 10
12.4258
 20
106.454
 30
0.0
 40
0.2
 41
0.2
  0
VERTEX
  8
0
 10
12.5622
 20
106.241
 30
0.0
 40
0.2
 41
0.2
  0
VERTEX
  8
0
 10
12.7041
 20
106.036
 30
0.0
 40
0.2
 41
0.2
  0
VERTEX
  8
0
 10
12.8502
 20
105.841
 30
0.0
 40
0.2
 41
0.2
  0
VERTEX
  8
0
 10
13.0032
 20
105.654
 30
0.0
 40
0.2
 41
0.2
  0
VERTEX
  8
0
 10
13.1616
 20
105.476
 30
0.0
 40
0.2
 41
0.2
  0
VERTEX
  8
0
 10
13.3242
 20
105.31
 30
0.0
 40
0.2
 41
0.2
  0
VERTEX
  8
0
 10
13.4938
 20
105.152
 30
0.0
 40
0.2
 41
0.2
  0
VERTEX
  8
0
 10
13.6701
 20
105.009
 30
0.0
 40
0.2
 41
0.2
  0
VERTEX
  8
0
 10
13.8548
 20
104.878
 30
0.0
 40
0.2
 41
0.2
  0
VERTEX
  8
0
 10
14.0505
 20
104.769
 30
0.0
 40
0.2
 41
0.2
  0
VERTEX
  8
0
 10
15.525
 20
104.184
 30
0.0
 40
0.2
 41
0.2
  0
VERTEX
  8
0
 10
15.3665
 20
103.75
 30
0.0
 40
0.2
 41
0.2
  0
VERTEX
  8
0
 10
15.2053
 20
103.211
 30
0.0
 40
0.2
 41
0.2
  0
VERTEX
  8
0
 10
15.0757
 20
102.664
 30
0.0
 40
0.2
 41
0.2
  0
VERTEX
  8
0
 10
14.9958
 20
102.208
 30
0.0
 40
0.2
 41
0.2
  0
VERTEX
  8
0
 10
13.4262
 20
102.438
 30
0.0
 40
0.2
 41
0.2
  0
VERTEX
  8
0
 10
13.2016
 20
102.442
 30
0.0
 40
0.2
 41
0.2
  0
VERTEX
  8
0
 10
12.977
 20
102.421
 30
0.0
 40
0.2
 41
0.2
  0
VERTEX
  8
0
 10
12.7524
 20
102.384
 30
0.0
 40
0.2
 41
0.2
  0
VERTEX
  8
0
 10
12.5264
 20
102.333
 30
0.0
 40
0.2
 41
0.2
  0
VERTEX
  8
0
 10
12.3017
 20
102.27
 30
0.0
 40
0.2
 41
0.2
  0
VERTEX
  8
0
 10
12.0758
 20
102.195
 30
0.0
 40
0.2
 41
0.2
  0
VERTEX
  8
0
 10
11.8511
 20
102.11
 30
0.0
 40
0.2
 41
0.2
  0
VERTEX
  8
0
 10
11.6251
 20
102.015
 30
0.0
 40
0.2
 41
0.2
  0
VERTEX
  8
0
 10
11.4005
 20
101.909
 30
0.0
 40
0.2
 41
0.2
  0
VERTEX
  8
0
 10
11.1759
 20
101.793
 30
0.0
 40
0.2
 41
0.2
  0
VERTEX
  8
0
 10
10.9058
 20
101.64
 30
0.0
 40
0.2
 41
0.2
  0
VERTEX
  8
0
 10
10.8824
 20
101.144
 30
0.0
 40
0.2
 41
0.2
  0
VERTEX
  8
0
 10
10.8755
 20
100.7
 30
0.0
 40
0.2
 41
0.2
  0
VERTEX
  8
0
 10
10.8824
 20
100.256
 30
0.0
 40
0.2
 41
0.2
  0
VERTEX
  8
0
 10
10.9058
 20
99.7589
 30
0.0
 40
0.2
 41
0.2
  0
VERTEX
  8
0
 10
11.1759
 20
99.6075
 30
0.0
 40
0.2
 41
0.2
  0
VERTEX
  8
0
 10
11.4005
 20
99.4915
 30
0.0
 40
0.2
 41
0.2
  0
VERTEX
  8
0
 10
11.6251
 20
99.3856
 30
0.0
 40
0.2
 41
0.2
  0
VERTEX
  8
0
 10
11.8511
 20
99.2904
 30
0.0
 40
0.2
 41
0.2
  0
VERTEX
  8
0
 10
12.0758
 20
99.205
 30
0.0
 40
0.2
 41
0.2
  0
VERTEX
  8
0
 10
12.3017
 20
99.1291
 30
0.0
 40
0.2
 41
0.2
  0
VERTEX
  8
0
 10
12.5264
 20
99.0671
 30
0.0
 40
0.2
 41
0.2
  0
VERTEX
  8
0
 10
12.7524
 20
99.0163
 30
0.0
 40
0.2
 41
0.2
  0
VERTEX
  8
0
 10
12.977
 20
98.9789
 30
0.0
 40
0.2
 41
0.2
  0
VERTEX
  8
0
 10
13.2016
 20
98.9584
 30
0.0
 40
0.2
 41
0.2
  0
VERTEX
  8
0
 10
13.4262
 20
98.9623
 30
0.0
 40
0.2
 41
0.2
  0
VERTEX
  8
0
 10
14.9958
 20
99.1926
 30
0.0
 40
0.2
 41
0.2
  0
VERTEX
  8
0
 10
15.0757
 20
98.7365
 30
0.0
 40
0.2
 41
0.2
  0
VERTEX
  8
0
 10
15.2053
 20
98.1893
 30
0.0
 40
0.2
 41
0.2
  0
VERTEX
  8
0
 10
15.3665
 20
97.6507
 30
0.0
 40
0.2
 41
0.2
  0
VERTEX
  8
0
 10
15.525
 20
97.2164
 30
0.0
 40
0.2
 41
0.2
  0
VERTEX
  8
0
 10
14.0505
 20
96.6308
 30
0.0
 40
0.2
 41
0.2
  0
VERTEX
  8
0
 10
13.8548
 20
96.5218
 30
0.0
 40
0.2
 41
0.2
  0
VERTEX
  8
0
 10
13.6701
 20
96.3909
 30
0.0
 40
0.2
 41
0.2
  0
VERTEX
  8
0
 10
13.4938
 20
96.2462
 30
0.0
 40
0.2
 41
0.2
  0
VERTEX
  8
0
 10
13.3242
 20
96.0907
 30
0.0
 40
0.2
 41
0.2
  0
VERTEX
  8
0
 10
13.1616
 20
95.9224
 30
0.0
 40
0.2
 41
0.2
  0
VERTEX
  8
0
 10
13.0032
 20
95.746
 30
0.0
 40
0.2
 41
0.2
  0
VERTEX
  8
0
 10
12.8502
 20
95.5587
 30
0.0
 40
0.2
 41
0.2
  0
VERTEX
  8
0
 10
12.7041
 20
95.3629
 30
0.0
 40
0.2
 41
0.2
  0
VERTEX
  8
0
 10
12.5622
 20
95.159
 30
0.0
 40
0.2
 41
0.2
  0
VERTEX
  8
0
 10
12.4258
 20
94.947
 30
0.0
 40
0.2
 41
0.2
  0
VERTEX
  8
0
 10
12.2673
 20
94.681
 30
0.0
 40
0.2
 41
0.2
  0
VERTEX
  8
0
 10
12.4947
 20
94.2386
 30
0.0
 40
0.2
 41
0.2
  0
VERTEX
  8
0
 10
12.711
 20
93.8498
 30
0.0
 40
0.2
 41
0.2
  0
VERTEX
  8
0
 10
12.9384
 20
93.4695
 30
0.0
 40
0.2
 41
0.2
  0
VERTEX
  8
0
 10
13.2085
 20
93.0508
 30
0.0
 40
0.2
 41
0.2
  0
VERTEX
  8
0
 10
13.5172
 20
93.0547
 30
0.0
 40
0.2
 41
0.2
  0
VERTEX
  8
0
 10
13.7694
 20
93.0674
 30
0.0
 40
0.2
 41
0.2
  0
VERTEX
  8
0
 10
14.0174
 20
93.0864
 30
0.0
 40
0.2
 41
0.2
  0
VERTEX
  8
0
 10
14.2613
 20
93.1168
 30
0.0
 40
0.2
 41
0.2
  0
VERTEX
  8
0
 10
14.4984
 20
93.1556
 30
0.0
 40
0.2
 41
0.2
  0
VERTEX
  8
0
 10
14.7312
 20
93.2035
 30
0.0
 40
0.2
 41
0.2
  0
VERTEX
  8
0
 10
14.9572
 20
93.2614
 30
0.0
 40
0.2
 41
0.2
  0
VERTEX
  8
0
 10
15.1777
 20
93.3305
 30
0.0
 40
0.2
 41
0.2
  0
VERTEX
  8
0
 10
15.3913
 20
93.4103
 30
0.0
 40
0.2
 41
0.2
  0
VERTEX
  8
0
 10
15.5966
 20
93.5055
 30
0.0
 40
0.2
 41
0.2
  0
VERTEX
  8
0
 10
15.7896
 20
93.6212
 30
0.0
 40
0.2
 41
0.2
  0
VERTEX
  8
0
 10
17.0326
 20
94.6051
 30
0.0
 40
0.2
 41
0.2
  0
VERTEX
  8
0
 10
17.3302
 20
94.2495
 30
0.0
 40
0.2
 41
0.2
  0
VERTEX
  8
0
 10
17.7161
 20
93.8417
 30
0.0
 40
0.2
 41
0.2
  0
VERTEX
  8
0
 10
18.1253
 20
93.4544
 30
0.0
 40
0.2
 41
0.2
  0
VERTEX
  8
0
 10
18.4795
 20
93.158
 30
0.0
 40
0.2
 41
0.2
  0
VERTEX
  8
0
 10
17.4956
 20
91.9138
 30
0.0
 40
0.2
 41
0.2
  0
VERTEX
  8
0
 10
17.3798
 20
91.7208
 30
0.0
 40
0.2
 41
0.2
  0
VERTEX
  8
0
 10
17.2847
 20
91.5155
 30
0.0
 40
0.2
 41
0.2
  0
VERTEX
  8
0
 10
17.2048
 20
91.3035
 30
0.0
 40
0.2
 41
0.2
  0
VERTEX
  8
0
 10
17.1359
 20
91.083
 30
0.0
 40
0.2
 41
0.2
  0
VERTEX
  8
0
 10
17.078
 20
90.8569
 30
0.0
 40
0.2
 41
0.2
  0
VERTEX
  8
0
 10
17.0298
 20
90.624
 30
0.0
 40
0.2
 41
0.2
  0
VERTEX
  8
0
 10
16.9912
 20
90.3855
 30
0.0
 40
0.2
 41
0.2
  0
VERTEX
  8
0
 10
16.9623
 20
90.1428
 30
0.0
 40
0.2
 41
0.2
  0
VERTEX
  8
0
 10
16.9416
 20
89.8948
 30
0.0
 40
0.2
 41
0.2
  0
VERTEX
  8
0
 10
16.9292
 20
89.6426
 30
0.0
 40
0.2
 41
0.2
  0
VERTEX
  8
0
 10
16.9265
 20
89.3329
 30
0.0
 40
0.2
 41
0.2
  0
VERTEX
  8
0
 10
17.344
 20
89.064
 30
0.0
 40
0.2
 41
0.2
  0
VERTEX
  8
0
 10
17.7243
 20
88.8351
 30
0.0
 40
0.2
 41
0.2
  0
VERTEX
  8
0
 10
18.113
 20
88.6202
 30
0.0
 40
0.2
 41
0.2
  0
VERTEX
  8
0
 10
18.5553
 20
88.3931
 30
0.0
 40
0.2
 41
0.2
  0
VERTEX
  8
0
 10
18.8213
 20
88.55
 30
0.0
 40
0.2
 41
0.2
  0
VERTEX
  8
0
 10
19.0335
 20
88.6866
 30
0.0
 40
0.2
 41
0.2
  0
VERTEX
  8
0
 10
19.2388
 20
88.8284
 30
0.0
 40
0.2
 41
0.2
  0
VERTEX
  8
0
 10
19.4345
 20
88.9758
 30
0.0
 40
0.2
 41
0.2
  0
VERTEX
  8
0
 10
19.6205
 20
89.1275
 30
0.0
 40
0.2
 41
0.2
  0
VERTEX
  8
0
 10
19.7983
 20
89.2859
 30
0.0
 40
0.2
 41
0.2
  0
VERTEX
  8
0
 10
19.965
 20
89.45
 30
0.0
 40
0.2
 41
0.2
  0
VERTEX
  8
0
 10
20.1221
 20
89.6193
 30
0.0
 40
0.2
 41
0.2
  0
VERTEX
  8
0
 10
20.2654
 20
89.7943
 30
0.0
 40
0.2
 41
0.2
  0
VERTEX
  8
0
 10
20.3963
 20
89.9791
 30
0.0
 40
0.2
 41
0.2
  0
VERTEX
  8
0
 10
20.5066
 20
90.176
 30
0.0
 40
0.2
 41
0.2
  0
VERTEX
  8
0
 10
21.0909
 20
91.6506
 30
0.0
 40
0.2
 41
0.2
  0
VERTEX
  8
0
 10
21.5249
 20
91.4922
 30
0.0
 40
0.2
 41
0.2
  0
VERTEX
  8
0
 10
22.0652
 20
91.331
 30
0.0
 40
0.2
 41
0.2
  0
VERTEX
  8
0
 10
22.6122
 20
91.2012
 30
0.0
 40
0.2
 41
0.2
  0
VERTEX
  8
0
 10
23.067
 20
91.12
 30
0.0
 40
0.2
 41
0.2
  0
VERTEX
  8
0
 10
22.8369
 20
89.5519
 30
0.0
 40
0.2
 41
0.2
  0
VERTEX
  8
0
 10
22.8327
 20
89.3258
 30
0.0
 40
0.2
 41
0.2
  0
VERTEX
  8
0
 10
22.8534
 20
89.1011
 30
0.0
 40
0.2
 41
0.2
  0
VERTEX
  8
0
 10
22.8906
 20
88.8767
 30
0.0
 40
0.2
 41
0.2
  0
VERTEX
  8
0
 10
22.9416
 20
88.652
 30
0.0
 40
0.2
 41
0.2
  0
VERTEX
  8
0
 10
23.005
 20
88.4259
 30
0.0
 40
0.2
 41
0.2
  0
VERTEX
  8
0
 10
23.0794
 20
88.2015
 30
0.0
 40
0.2
 41
0.2
  0
VERTEX
  8
0
 10
23.1648
 20
87.9754
 30
0.0
 40
0.2
 41
0.2
  0
VERTEX
  8
0
 10
23.2613
 20
87.7507
 30
0.0
 40
0.2
 41
0.2
  0
VERTEX
  8
0
 10
23.3674
 20
87.5259
 30
0.0
 40
0.2
 41
0.2
  0
VERTEX
  8
0
 10
23.4831
 20
87.3016
 30
0.0
 40
0.2
 41
0.2
  0
VERTEX
  8
0
 10
23.6347
 20
87.0313
 30
0.0
 40
0.2
 41
0.2
  0
VERTEX
  8
0
 10
24.1308
 20
87.0081
 30
0.0
 40
0.2
 41
0.2
  0
VERTEX
  8
0
 10
24.5746
 20
86.9996
 30
0.0
 40
0.2
 41
0.2
  0
VERTEX
  8
0
 10
25.0183
 20
87.0081
 30
0.0
 40
0.2
 41
0.2
  0
VERTEX
  8
0
 10
25.5157
 20
87.0313
 30
0.0
 40
0.2
 41
0.2
  0
VERTEX
  8
0
 10
25.6673
 20
87.3016
 30
0.0
 40
0.2
 41
0.2
  0
VERTEX
  8
0
 10
25.7831
 20
87.5259
 30
0.0
 40
0.2
 41
0.2
  0
VERTEX
  8
0
 10
25.8892
 20
87.7507
 30
0.0
 40
0.2
 41
0.2
  0
VERTEX
  8
0
 10
25.9843
 20
87.9754
 30
0.0
 40
0.2
 41
0.2
  0
VERTEX
  8
0
 10
26.0711
 20
88.2015
 30
0.0
 40
0.2
 41
0.2
  0
VERTEX
  8
0
 10
26.1455
 20
88.4259
 30
0.0
 40
0.2
 41
0.2
  0
VERTEX
  8
0
 10
26.2075
 20
88.652
 30
0.0
 40
0.2
 41
0.2
  0
VERTEX
  8
0
 10
26.2585
 20
88.8767
 30
0.0
 40
0.2
 41
0.2
  0
VERTEX
  8
0
 10
26.2957
 20
89.1011
 30
0.0
 40
0.2
 41
0.2
  0
VERTEX
  8
0
 10
26.3164
 20
89.3258
 30
0.0
 40
0.2
 41
0.2
  0
VERTEX
  8
0
 10
26.3136
 20
89.5519
 30
0.0
 40
0.2
 41
0.2
  0
VERTEX
  8
0
 10
26.0835
 20
91.12
 30
0.0
 40
0.2
 41
0.2
  0
VERTEX
  8
0
 10
26.5383
 20
91.2012
 30
0.0
 40
0.2
 41
0.2
  0
VERTEX
  8
0
 10
27.0853
 20
91.331
 30
0.0
 40
0.2
 41
0.2
  0
VERTEX
  8
0
 10
27.6242
 20
91.4922
 30
0.0
 40
0.2
 41
0.2
  0
VERTEX
  8
0
 10
28.0583
 20
91.6506
 30
0.0
 40
0.2
 41
0.2
  0
VERTEX
  8
0
 10
28.6439
 20
90.176
 30
0.0
 40
0.2
 41
0.2
  0
VERTEX
  8
0
 10
28.7528
 20
89.9791
 30
0.0
 40
0.2
 41
0.2
  0
VERTEX
  8
0
 10
28.8837
 20
89.7943
 30
0.0
 40
0.2
 41
0.2
  0
VERTEX
  8
0
 10
29.0284
 20
89.6193
 30
0.0
 40
0.2
 41
0.2
  0
VERTEX
  8
0
 10
29.1841
 20
89.45
 30
0.0
 40
0.2
 41
0.2
  0
VERTEX
  8
0
 10
29.3522
 20
89.2859
 30
0.0
 40
0.2
 41
0.2
  0
VERTEX
  8
0
 10
29.5286
 20
89.1275
 30
0.0
 40
0.2
 41
0.2
  0
VERTEX
  8
0
 10
29.716
 20
88.9758
 30
0.0
 40
0.2
 41
0.2
  0
VERTEX
  8
0
 10
29.9117
 20
88.8284
 30
0.0
 40
0.2
 41
0.2
  0
VERTEX
  8
0
 10
30.1157
 20
88.6866
 30
0.0
 40
0.2
 41
0.2
  0
VERTEX
  8
0
 10
30.3279
 20
88.55
 30
0.0
 40
0.2
 41
0.2
  0
VERTEX
  8
0
 10
30.5952
 20
88.3931
 30
0.0
 40
0.2
 41
0.2
  0
VERTEX
  8
0
 10
31.0376
 20
88.6202
 30
0.0
 40
0.2
 41
0.2
  0
VERTEX
  8
0
 10
31.4248
 20
88.8351
 30
0.0
 40
0.2
 41
0.2
  0
VERTEX
  8
0
 10
31.8051
 20
89.064
 30
0.0
 40
0.2
 41
0.2
  0
VERTEX
  8
0
 10
32.2241
 20
89.3329
 30
0.0
 40
0.2
 41
0.2
  0
VERTEX
  8
0
 10
32.2199
 20
89.6426
 30
0.0
 40
0.2
 41
0.2
  0
VERTEX
  8
0
 10
32.2089
 20
89.8948
 30
0.0
 40
0.2
 41
0.2
  0
VERTEX
  8
0
 10
32.1882
 20
90.1428
 30
0.0
 40
0.2
 41
0.2
  0
VERTEX
  8
0
 10
32.1579
 20
90.3855
 30
0.0
 40
0.2
 41
0.2
  0
VERTEX
  8
0
 10
32.1193
 20
90.624
 30
0.0
 40
0.2
 41
0.2
  0
VERTEX
  8
0
 10
32.0711
 20
90.8569
 30
0.0
 40
0.2
 41
0.2
  0
VERTEX
  8
0
 10
32.0132
 20
91.083
 30
0.0
 40
0.2
 41
0.2
  0
VERTEX
  8
0
 10
31.9457
 20
91.3035
 30
0.0
 40
0.2
 41
0.2
  0
VERTEX
  8
0
 10
31.8644
 20
91.5155
 30
0.0
 40
0.2
 41
0.2
  0
VERTEX
  8
0
 10
31.7707
 20
91.7208
 30
0.0
 40
0.2
 41
0.2
  0
VERTEX
  8
0
 10
31.6549
 20
91.9138
 30
0.0
 40
0.2
 41
0.2
  0
VERTEX
  8
0
 10
30.671
 20
93.158
 30
0.0
 40
0.2
 41
0.2
  0
VERTEX
  8
0
 10
31.0251
 20
93.4544
 30
0.0
 40
0.2
 41
0.2
  0
VERTEX
  8
0
 10
31.4344
 20
93.8417
 30
0.0
 40
0.2
 41
0.2
  0
VERTEX
  8
0
 10
31.8203
 20
94.2495
 30
0.0
 40
0.2
 41
0.2
  0
VERTEX
  8
0
 10
32.1166
 20
94.6051
 30
0.0
 40
0.2
 41
0.2
  0
VERTEX
  8
0
 10
33.3609
 20
93.6212
 30
0.0
 40
0.2
 41
0.2
  0
VERTEX
  8
0
 10
33.5539
 20
93.5055
 30
0.0
 40
0.2
 41
0.2
  0
VERTEX
  8
0
 10
33.7592
 20
93.4103
 30
0.0
 40
0.2
 41
0.2
  0
VERTEX
  8
0
 10
33.9728
 20
93.3305
 30
0.0
 40
0.2
 41
0.2
  0
VERTEX
  8
0
 10
34.1919
 20
93.2614
 30
0.0
 40
0.2
 41
0.2
  0
VERTEX
  8
0
 10
34.4193
 20
93.2035
 30
0.0
 40
0.2
 41
0.2
  0
VERTEX
  8
0
 10
34.6522
 20
93.1556
 30
0.0
 40
0.2
 41
0.2
  0
VERTEX
  8
0
 10
34.8892
 20
93.1168
 30
0.0
 40
0.2
 41
0.2
  0
VERTEX
  8
0
 10
35.1331
 20
93.0864
 30
0.0
 40
0.2
 41
0.2
  0
VERTEX
  8
0
 10
35.3797
 20
93.0674
 30
0.0
 40
0.2
 41
0.2
  0
VERTEX
  8
0
 10
35.632
 20
93.0547
 30
0.0
 40
0.2
 41
0.2
  0
VERTEX
  8
0
 10
35.9421
 20
93.0508
 30
0.0
 40
0.2
 41
0.2
  0
VERTEX
  8
0
 10
36.2119
 20
93.4695
 30
0.0
 40
0.2
 41
0.2
  0
VERTEX
  8
0
 10
36.4395
 20
93.8498
 30
0.0
 40
0.2
 41
0.2
  0
VERTEX
  8
0
 10
36.6557
 20
94.2386
 30
0.0
 40
0.2
 41
0.2
  0
VERTEX
  8
0
 10
36.8833
 20
94.681
 30
0.0
 40
0.2
 41
0.2
  0
VERTEX
  8
0
 10
36.7249
 20
94.947
 30
0.0
 40
0.2
 41
0.2
  0
VERTEX
  8
0
 10
36.5883
 20
95.159
 30
0.0
 40
0.2
 41
0.2
  0
VERTEX
  8
0
 10
36.4465
 20
95.3629
 30
0.0
 40
0.2
 41
0.2
  0
VERTEX
  8
0
 10
36.2991
 20
95.5587
 30
0.0
 40
0.2
 41
0.2
  0
VERTEX
  8
0
 10
36.1474
 20
95.746
 30
0.0
 40
0.2
 41
0.2
  0
VERTEX
  8
0
 10
35.989
 20
95.9224
 30
0.0
 40
0.2
 41
0.2
  0
VERTEX
  8
0
 10
35.8263
 20
96.0907
 30
0.0
 40
0.2
 41
0.2
  0
VERTEX
  8
0
 10
35.6567
 20
96.2462
 30
0.0
 40
0.2
 41
0.2
  0
VERTEX
  8
0
 10
35.4803
 20
96.3909
 30
0.0
 40
0.2
 41
0.2
  0
VERTEX
  8
0
 10
35.2958
 20
96.5218
 30
0.0
 40
0.2
 41
0.2
  0
VERTEX
  8
0
 10
35.0986
 20
96.6308
 30
0.0
 40
0.2
 41
0.2
  0
VERTEX
  8
0
 10
33.6255
 20
97.2164
 30
0.0
 40
0.2
 41
0.2
  0
VERTEX
  8
0
 10
33.784
 20
97.6507
 30
0.0
 40
0.2
 41
0.2
  0
VERTEX
  8
0
 10
33.9452
 20
98.1893
 30
0.0
 40
0.2
 41
0.2
  0
VERTEX
  8
0
 10
34.0747
 20
98.7365
 30
0.0
 40
0.2
 41
0.2
  0
VERTEX
  8
0
 10
34.1547
 20
99.1926
 30
0.0
 40
0.2
 41
0.2
  0
VERTEX
  8
0
 10
35.7244
 20
98.9623
 30
0.0
 40
0.2
 41
0.2
  0
SEQEND
 8
0
  0
POLYLINE
  8
0
 62
     5
 66
     1
 10
0
 20
0
 30
0.0
 70
     1
 40
0.566929
 41
0.566929
  0
VERTEX
  8
0
 10
18.1997
 20
121.175
 30
0.0
 40
0.2
 41
0.2
  0
VERTEX
  8
0
 10
18.1997
 20
121.094
 30
0.0
 40
0.2
 41
0.2
  0
VERTEX
  8
0
 10
18.1749
 20
120.847
 30
0.0
 40
0.2
 41
0.2
  0
VERTEX
  8
0
 10
18.106
 20
120.527
 30
0.0
 40
0.2
 41
0.2
  0
VERTEX
  8
0
 10
17.9917
 20
120.221
 30
0.0
 40
0.2
 41
0.2
  0
VERTEX
  8
0
 10
17.8787
 20
120.001
 30
0.0
 40
0.2
 41
0.2
  0
VERTEX
  8
0
 10
17.8346
 20
119.932
 30
0.0
 40
0.2
 41
0.2
  0
VERTEX
  8
0
 10
17.7905
 20
119.863
 30
0.0
 40
0.2
 41
0.2
  0
VERTEX
  8
0
 10
17.6361
 20
119.669
 30
0.0
 40
0.2
 41
0.2
  0
VERTEX
  8
0
 10
17.4046
 20
119.437
 30
0.0
 40
0.2
 41
0.2
  0
VERTEX
  8
0
 10
17.1428
 20
119.242
 30
0.0
 40
0.2
 41
0.2
  0
VERTEX
  8
0
 10
16.9292
 20
119.118
 30
0.0
 40
0.2
 41
0.2
  0
VERTEX
  8
0
 10
16.8548
 20
119.083
 30
0.0
 40
0.2
 41
0.2
  0
VERTEX
  8
0
 10
16.7542
 20
119.038
 30
0.0
 40
0.2
 41
0.2
  0
VERTEX
  8
0
 10
16.2264
 20
118.898
 30
0.0
 40
0.2
 41
0.2
  0
VERTEX
  8
0
 10
15.6821
 20
118.883
 30
0.0
 40
0.2
 41
0.2
  0
VERTEX
  8
0
 10
15.5732
 20
118.898
 30
0.0
 40
0.2
 41
0.2
  0
VERTEX
  8
0
 10
15.4919
 20
118.911
 30
0.0
 40
0.2
 41
0.2
  0
VERTEX
  8
0
 10
15.2508
 20
118.969
 30
0.0
 40
0.2
 41
0.2
  0
VERTEX
  8
0
 10
14.9435
 20
119.083
 30
0.0
 40
0.2
 41
0.2
  0
VERTEX
  8
0
 10
14.6568
 20
119.24
 30
0.0
 40
0.2
 41
0.2
  0
VERTEX
  8
0
 10
14.4543
 20
119.385
 30
0.0
 40
0.2
 41
0.2
  0
VERTEX
  8
0
 10
14.3936
 20
119.437
 30
0.0
 40
0.2
 41
0.2
  0
VERTEX
  8
0
 10
14.3316
 20
119.491
 30
0.0
 40
0.2
 41
0.2
  0
VERTEX
  8
0
 10
14.1607
 20
119.67
 30
0.0
 40
0.2
 41
0.2
  0
VERTEX
  8
0
 10
13.965
 20
119.932
 30
0.0
 40
0.2
 41
0.2
  0
VERTEX
  8
0
 10
13.8079
 20
120.22
 30
0.0
 40
0.2
 41
0.2
  0
VERTEX
  8
0
 10
13.7156
 20
120.45
 30
0.0
 40
0.2
 41
0.2
  0
VERTEX
  8
0
 10
13.6936
 20
120.527
 30
0.0
 40
0.2
 41
0.2
  0
VERTEX
  8
0
 10
13.6619
 20
120.633
 30
0.0
 40
0.2
 41
0.2
  0
VERTEX
  8
0
 10
13.5999
 20
121.175
 30
0.0
 40
0.2
 41
0.2
  0
VERTEX
  8
0
 10
13.6619
 20
121.718
 30
0.0
 40
0.2
 41
0.2
  0
VERTEX
  8
0
 10
13.6936
 20
121.823
 30
0.0
 40
0.2
 41
0.2
  0
VERTEX
  8
0
 10
13.7156
 20
121.901
 30
0.0
 40
0.2
 41
0.2
  0
VERTEX
  8
0
 10
13.8079
 20
122.131
 30
0.0
 40
0.2
 41
0.2
  0
VERTEX
  8
0
 10
13.965
 20
122.42
 30
0.0
 40
0.2
 41
0.2
  0
VERTEX
  8
0
 10
14.1607
 20
122.681
 30
0.0
 40
0.2
 41
0.2
  0
VERTEX
  8
0
 10
14.3316
 20
122.861
 30
0.0
 40
0.2
 41
0.2
  0
VERTEX
  8
0
 10
14.3936
 20
122.913
 30
0.0
 40
0.2
 41
0.2
  0
VERTEX
  8
0
 10
14.4556
 20
122.966
 30
0.0
 40
0.2
 41
0.2
  0
VERTEX
  8
0
 10
14.6568
 20
123.111
 30
0.0
 40
0.2
 41
0.2
  0
VERTEX
  8
0
 10
14.9435
 20
123.268
 30
0.0
 40
0.2
 41
0.2
  0
VERTEX
  8
0
 10
15.2508
 20
123.383
 30
0.0
 40
0.2
 41
0.2
  0
VERTEX
  8
0
 10
15.4919
 20
123.44
 30
0.0
 40
0.2
 41
0.2
  0
VERTEX
  8
0
 10
15.5732
 20
123.451
 30
0.0
 40
0.2
 41
0.2
  0
VERTEX
  8
0
 10
15.6821
 20
123.468
 30
0.0
 40
0.2
 41
0.2
  0
VERTEX
  8
0
 10
16.2264
 20
123.451
 30
0.0
 40
0.2
 41
0.2
  0
VERTEX
  8
0
 10
16.7542
 20
123.314
 30
0.0
 40
0.2
 41
0.2
  0
VERTEX
  8
0
 10
16.8548
 20
123.267
 30
0.0
 40
0.2
 41
0.2
  0
VERTEX
  8
0
 10
16.9278
 20
123.234
 30
0.0
 40
0.2
 41
0.2
  0
VERTEX
  8
0
 10
17.1428
 20
123.11
 30
0.0
 40
0.2
 41
0.2
  0
VERTEX
  8
0
 10
17.4046
 20
122.913
 30
0.0
 40
0.2
 41
0.2
  0
VERTEX
  8
0
 10
17.6361
 20
122.683
 30
0.0
 40
0.2
 41
0.2
  0
VERTEX
  8
0
 10
17.7891
 20
122.488
 30
0.0
 40
0.2
 41
0.2
  0
VERTEX
  8
0
 10
17.8346
 20
122.418
 30
0.0
 40
0.2
 41
0.2
  0
VERTEX
  8
0
 10
17.8787
 20
122.35
 30
0.0
 40
0.2
 41
0.2
  0
VERTEX
  8
0
 10
17.9917
 20
122.13
 30
0.0
 40
0.2
 41
0.2
  0
VERTEX
  8
0
 10
18.106
 20
121.824
 30
0.0
 40
0.2
 41
0.2
  0
VERTEX
  8
0
 10
18.1749
 20
121.504
 30
0.0
 40
0.2
 41
0.2
  0
VERTEX
  8
0
 10
18.1997
 20
121.258
 30
0.0
 40
0.2
 41
0.2
  0
VERTEX
  8
0
 10
18.1997
 20
121.175
 30
0.0
 40
0.2
 41
0.2
  0
SEQEND
 8
0
  0
POLYLINE
  8
0
 62
     5
 66
     1
 10
0
 20
0
 30
0.0
 70
     1
 40
0.566929
 41
0.566929
  0
VERTEX
  8
0
 10
60.1998
 20
121.175
 30
0.0
 40
0.2
 41
0.2
  0
VERTEX
  8
0
 10
60.1998
 20
121.094
 30
0.0
 40
0.2
 41
0.2
  0
VERTEX
  8
0
 10
60.1747
 20
120.847
 30
0.0
 40
0.2
 41
0.2
  0
VERTEX
  8
0
 10
60.1059
 20
120.527
 30
0.0
 40
0.2
 41
0.2
  0
VERTEX
  8
0
 10
59.9916
 20
120.221
 30
0.0
 40
0.2
 41
0.2
  0
VERTEX
  8
0
 10
59.8784
 20
120.001
 30
0.0
 40
0.2
 41
0.2
  0
VERTEX
  8
0
 10
59.8343
 20
119.932
 30
0.0
 40
0.2
 41
0.2
  0
VERTEX
  8
0
 10
59.7902
 20
119.863
 30
0.0
 40
0.2
 41
0.2
  0
VERTEX
  8
0
 10
59.6374
 20
119.669
 30
0.0
 40
0.2
 41
0.2
  0
VERTEX
  8
0
 10
59.406
 20
119.437
 30
0.0
 40
0.2
 41
0.2
  0
VERTEX
  8
0
 10
59.1439
 20
119.242
 30
0.0
 40
0.2
 41
0.2
  0
VERTEX
  8
0
 10
58.9305
 20
119.118
 30
0.0
 40
0.2
 41
0.2
  0
VERTEX
  8
0
 10
58.856
 20
119.083
 30
0.0
 40
0.2
 41
0.2
  0
VERTEX
  8
0
 10
58.7555
 20
119.038
 30
0.0
 40
0.2
 41
0.2
  0
VERTEX
  8
0
 10
58.2263
 20
118.898
 30
0.0
 40
0.2
 41
0.2
  0
VERTEX
  8
0
 10
57.682
 20
118.883
 30
0.0
 40
0.2
 41
0.2
  0
VERTEX
  8
0
 10
57.573
 20
118.898
 30
0.0
 40
0.2
 41
0.2
  0
VERTEX
  8
0
 10
57.4918
 20
118.911
 30
0.0
 40
0.2
 41
0.2
  0
VERTEX
  8
0
 10
57.2505
 20
118.969
 30
0.0
 40
0.2
 41
0.2
  0
VERTEX
  8
0
 10
56.9433
 20
119.083
 30
0.0
 40
0.2
 41
0.2
  0
VERTEX
  8
0
 10
56.6568
 20
119.24
 30
0.0
 40
0.2
 41
0.2
  0
VERTEX
  8
0
 10
56.454
 20
119.385
 30
0.0
 40
0.2
 41
0.2
  0
VERTEX
  8
0
 10
56.3933
 20
119.437
 30
0.0
 40
0.2
 41
0.2
  0
VERTEX
  8
0
 10
56.3316
 20
119.491
 30
0.0
 40
0.2
 41
0.2
  0
VERTEX
  8
0
 10
56.1605
 20
119.67
 30
0.0
 40
0.2
 41
0.2
  0
VERTEX
  8
0
 10
55.965
 20
119.932
 30
0.0
 40
0.2
 41
0.2
  0
VERTEX
  8
0
 10
55.8077
 20
120.22
 30
0.0
 40
0.2
 41
0.2
  0
VERTEX
  8
0
 10
55.7156
 20
120.45
 30
0.0
 40
0.2
 41
0.2
  0
VERTEX
  8
0
 10
55.6934
 20
120.527
 30
0.0
 40
0.2
 41
0.2
  0
VERTEX
  8
0
 10
55.6616
 20
120.633
 30
0.0
 40
0.2
 41
0.2
  0
VERTEX
  8
0
 10
55.5995
 20
121.175
 30
0.0
 40
0.2
 41
0.2
  0
VERTEX
  8
0
 10
55.6616
 20
121.718
 30
0.0
 40
0.2
 41
0.2
  0
VERTEX
  8
0
 10
55.6934
 20
121.823
 30
0.0
 40
0.2
 41
0.2
  0
VERTEX
  8
0
 10
55.7156
 20
121.901
 30
0.0
 40
0.2
 41
0.2
  0
VERTEX
  8
0
 10
55.8077
 20
122.131
 30
0.0
 40
0.2
 41
0.2
  0
VERTEX
  8
0
 10
55.965
 20
122.42
 30
0.0
 40
0.2
 41
0.2
  0
VERTEX
  8
0
 10
56.1605
 20
122.681
 30
0.0
 40
0.2
 41
0.2
  0
VERTEX
  8
0
 10
56.3316
 20
122.861
 30
0.0
 40
0.2
 41
0.2
  0
VERTEX
  8
0
 10
56.3933
 20
122.913
 30
0.0
 40
0.2
 41
0.2
  0
VERTEX
  8
0
 10
56.4554
 20
122.966
 30
0.0
 40
0.2
 41
0.2
  0
VERTEX
  8
0
 10
56.6568
 20
123.111
 30
0.0
 40
0.2
 41
0.2
  0
VERTEX
  8
0
 10
56.9433
 20
123.268
 30
0.0
 40
0.2
 41
0.2
  0
VERTEX
  8
0
 10
57.2505
 20
123.383
 30
0.0
 40
0.2
 41
0.2
  0
VERTEX
  8
0
 10
57.4918
 20
123.44
 30
0.0
 40
0.2
 41
0.2
  0
VERTEX
  8
0
 10
57.573
 20
123.451
 30
0.0
 40
0.2
 41
0.2
  0
VERTEX
  8
0
 10
57.682
 20
123.468
 30
0.0
 40
0.2
 41
0.2
  0
VERTEX
  8
0
 10
58.2263
 20
123.451
 30
0.0
 40
0.2
 41
0.2
  0
VERTEX
  8
0
 10
58.7555
 20
123.314
 30
0.0
 40
0.2
 41
0.2
  0
VERTEX
  8
0
 10
58.856
 20
123.267
 30
0.0
 40
0.2
 41
0.2
  0
VERTEX
  8
0
 10
58.9291
 20
123.234
 30
0.0
 40
0.2
 41
0.2
  0
VERTEX
  8
0
 10
59.1439
 20
123.11
 30
0.0
 40
0.2
 41
0.2
  0
VERTEX
  8
0
 10
59.406
 20
122.913
 30
0.0
 40
0.2
 41
0.2
  0
VERTEX
  8
0
 10
59.6374
 20
122.683
 30
0.0
 40
0.2
 41
0.2
  0
VERTEX
  8
0
 10
59.7888
 20
122.487
 30
0.0
 40
0.2
 41
0.2
  0
VERTEX
  8
0
 10
59.8343
 20
122.418
 30
0.0
 40
0.2
 41
0.2
  0
VERTEX
  8
0
 10
59.8784
 20
122.35
 30
0.0
 40
0.2
 41
0.2
  0
VERTEX
  8
0
 10
59.9916
 20
122.13
 30
0.0
 40
0.2
 41
0.2
  0
VERTEX
  8
0
 10
60.1059
 20
121.824
 30
0.0
 40
0.2
 41
0.2
  0
VERTEX
  8
0
 10
60.1747
 20
121.504
 30
0.0
 40
0.2
 41
0.2
  0
VERTEX
  8
0
 10
60.1998
 20
121.258
 30
0.0
 40
0.2
 41
0.2
  0
VERTEX
  8
0
 10
60.1998
 20
121.175
 30
0.0
 40
0.2
 41
0.2
  0
SEQEND
 8
0
  0
TEXT
  8
0
 62
     0
 10
9.99984
 20
140.565
 30
0.0
 40
10.0013
  1
Axis distance: 42.0mm
 50
0
  0
TEXT
  8
0
 62
     0
 10
9.99984
 20
154.565
 30
0.0
 40
10.0013
  1
Outer diameter 2: 63.2mm
 50
0
  0
TEXT
  8
0
 62
     0
 10
9.99984
 20
168.565
 30
0.0
 40
10.0013
  1
Pitch radius 2: 30.0mm
 50
0
  0
TEXT
  8
0
 62
     0
 10
9.99984
 20
182.565
 30
0.0
 40
10.0013
  1
Outer diameter 1: 27.2mm
 50
0
  0
TEXT
  8
0
 62
     0
 10
9.99984
 20
196.566
 30
0.0
 40
10.0013
  1
Pitch radius 1: 12.0mm
 50
0
  0
ENDSEC
  0
EOF
