0
SECTION
2
HEADER
9
$INSUNITS
70
4
9
$ACADVER
1
AC1014
9
$HANDSEED
5
FFFF
0
ENDSEC
0
SECTION
2
TABLES
0
TABLE
2
VPORT
5
8
100
AcDbSymbolTable
0
ENDTAB
0
TABLE
2
LTYPE
5
5
100
AcDbSymbolTable
0
LTYPE
5
14
100
AcDbSymbolTableRecord
100
AcDbLinetypeTableRecord
2
BYBLOCK
70
0
0
LTYPE
5
15
100
AcDbSymbolTableRecord
100
AcDbLinetypeTableRecord
2
BYLAYER
70
0
0
ENDTAB
0
TABLE
2
LAYER
5
2
100
AcDbSymbolTable
70
2
0
LAYER
5
50
100
AcDbSymbolTableRecord
100
AcDbLayerTableRecord
2
0
70
0
6
CONTINUOUS
0
ENDTAB
0
TABLE
2
STYLE
5
3
100
AcDbSymbolTable
70
1
0
STYLE
5
11
100
AcDbSymbolTableRecord
100
AcDbTextStyleTableRecord
2
STANDARD
70
0
0
ENDTAB
0
TABLE
2
VIEW
5
6
100
AcDbSymbolTable
70
0
0
ENDTAB
0
TABLE
2
UCS
5
7
100
AcDbSymbolTable
70
0
0
ENDTAB
0
TABLE
2
APPID
5
9
100
AcDbSymbolTable
70
2
0
APPID
5
12
100
AcDbSymbolTableRecord
100
AcDbRegAppTableRecord
2
ACAD
70
0
0
ENDTAB
0
TABLE
2
DIMSTYLE
5
A
100
AcDbSymbolTable
70
1
0
ENDTAB
0
TABLE
2
BLOCK_RECORD
5
1
100
AcDbSymbolTable
70
1
0
BLOCK_RECORD
5
1F
100
AcDbSymbolTableRecord
100
AcDbBlockTableRecord
2
*MODEL_SPACE
0
BLOCK_RECORD
5
1B
100
AcDbSymbolTableRecord
100
AcDbBlockTableRecord
2
*PAPER_SPACE
0
ENDTAB
0
ENDSEC
0
SECTION
2
BLOCKS
0
BLOCK
5
20
100
AcDbEntity
100
AcDbBlockBegin
2
*MODEL_SPACE
0
ENDBLK
5
21
100
AcDbEntity
100
AcDbBlockEnd
0
BLOCK
5
1C
100
AcDbEntity
100
AcDbBlockBegin
2
*PAPER_SPACE
0
ENDBLK
5
1D
100
AcDbEntity
100
AcDbBlockEnd
0
ENDSEC
0
SECTION
2
ENTITIES
0
LINE
5
100
100
AcDbEntity
8
0
100
AcDbLine
10
279.00000000000006
20
237.3345113041928
30
0
11
279.00000000000006
21
130.04786848002863
31
0
0
LINE
5
101
100
AcDbEntity
8
0
100
AcDbLine
10
267.00000000000006
20
130.0478684800286
30
0
11
267
21
241.80856027858073
31
0
0
LINE
5
102
100
AcDbEntity
8
0
100
AcDbLine
10
-267
20
130.04786848002854
30
0
11
-267
21
241.80856027858073
31
0
0
LINE
5
103
100
AcDbEntity
8
0
100
AcDbLine
10
-279.00000000000006
20
237.3345113041928
30
0
11
-279.00000000000006
21
130.04786848002854
31
0
0
ELLIPSE
5
104
100
AcDbEntity
8
0
100
AcDbEllipse
10
0
20
0
30
0
11
-500
21
-4.9256723768570468e-14
31
0.0
40
0.57199999999999995
41
4.1490644294517365
42
5.275713531317642
0
ELLIPSE
5
105
100
AcDbEntity
8
0
100
AcDbEllipse
10
0
20
0
30
0
11
-499.99999999999829
21
-8.3586763173615142e-14
31
0.0
40
0.57200000000000295
41
5.3043627215771396
42
10.403600546371825
0
LINE
5
106
100
AcDbEntity
8
0
100
AcDbLine
10
1570.8613909035544
20
196.57737263434717
30
0
11
1570.8613909035544
21
0.85934978818408325
31
0
0
LINE
5
107
100
AcDbEntity
8
0
100
AcDbLine
10
1829.8613909035544
20
196.57737263434717
30
0
11
1829.8613909035544
21
-0.94116094531505823
31
0
0
LINE
5
108
100
AcDbEntity
8
0
100
AcDbLine
10
1483.8613909035544
20
201.02847119790647
30
0
11
1483.8613909035544
21
-0.94116094531513506
31
0
0
LINE
5
109
100
AcDbEntity
8
0
100
AcDbLine
10
1338.6391535719165
20
252.37518920566242
30
0
11
1726.2204562282625
21
-421.95325606634867
31
0
0
LINE
5
110
100
AcDbEntity
8
0
100
AcDbLine
10
2405.5551597284625
20
130.0581347320728
30
0
11
900.37897572683187
21
-214.36469643320373
31
0
0
LINE
5
111
100
AcDbEntity
8
0
100
AcDbLine
10
1570.8613909035544
20
-60.941160945315019
30
0
11
1617.8578939037543
21
-60.941160945315019
31
0
0
LINE
5
112
100
AcDbEntity
8
0
100
AcDbLine
10
1571.0265860191769
20
-151.94115667818537
30
0
11
1513.3915296436726
21
-151.94116094531503
31
0
0
LINE
5
113
100
AcDbEntity
8
0
100
AcDbLine
10
1332.1072469941307
20
251.69916157950385
30
0
11
1409.844992407548
21
116.44812484396256
31
0
0
LINE
5
114
100
AcDbEntity
8
0
100
AcDbLine
10
1409.844992407548
20
116.44812484396256
30
0
11
1420.2489183102821
21
122.42795141422553
31
0
0
LINE
5
115
100
AcDbEntity
8
0
100
AcDbLine
10
1420.2489183102821
20
122.42795141422553
30
0
11
1342.511172896865
21
257.67898814976695
31
0
0
LINE
5
116
100
AcDbEntity
8
0
100
AcDbLine
10
1332.6269426325418
20
250.50755876470839
30
0
11
1410.3646880459601
21
115.25652202916768
31
0
0
LINE
5
117
100
AcDbEntity
8
0
100
AcDbLine
10
1410.3646880459601
20
115.25652202916768
30
0
11
1420.7686139486941
21
121.23634859943053
31
0
0
LINE
5
118
100
AcDbEntity
8
0
100
AcDbLine
10
1420.7686139486941
20
121.23634859943053
30
0
11
1343.0308685352761
21
256.48738533497141
31
0
0
LINE
5
119
100
AcDbEntity
8
0
100
AcDbLine
10
2064.8644722955114
20
45.94430721585227
30
0
11
1839.6845960325245
21
-5.582611246113272
31
0
0
LINE
5
120
100
AcDbEntity
8
0
100
AcDbLine
10
2061.3002582065446
20
57.438882460373847
30
0
11
1837.0078729955392
21
6.1150446636527356
31
0
0
LINE
5
121
100
AcDbEntity
8
0
100
AcDbLine
10
1837.0078729955392
20
6.1150446636527356
30
0
11
1839.6845960325245
21
-5.582611246113272
31
0
0
ELLIPSE
5
122
100
AcDbEntity
8
0
100
AcDbEllipse
10
1570.8613909035544
20
0.85934978818408325
30
0
11
-499.99805515167611
21
-1.3945768323968999
31
0.0
40
0.57200000000000006
41
5.2086116067384181
42
9.5782005815349311
0
ELLIPSE
5
123
100
AcDbEntity
8
0
100
AcDbEllipse
10
1570.8613909035544
20
0.85934978818408325
30
0
11
-499.99805515167611
21
-1.3945768323968999
31
0.0
40
0.57200000000000006
41
3.3358591332141567
42
5.181967756258973
0
ELLIPSE
5
124
100
AcDbEntity
8
0
100
AcDbEllipse
10
3.3163204775655686
20
-741.72933554155429
30
0
11
-500
21
-4.9256723768570468e-14
31
0.0
40
0.57199999999999995
41
4.1490644294517365
42
5.275713531317642
0
LINE
5
125
100
AcDbEntity
8
0
100
AcDbLine
10
-275.68367952243449
20
-504.39482423736149
30
0
11
-275.68367952243449
21
-611.68146706152584
31
0
0
LINE
5
126
100
AcDbEntity
8
0
100
AcDbLine
10
282.31632047756563
20
-504.39482423736149
30
0
11
282.31632047756563
21
-611.68146706152572
31
0
0
ELLIPSE
5
127
100
AcDbEntity
8
0
100
AcDbEllipse
10
3.3163204775655686
20
-741.72933554155429
30
0
11
-500
21
-4.9256723768570468e-14
31
0.0
40
0.57199999999999995
41
5.3043627215771378
42
10.403600546371827
0
LINE
5
128
100
AcDbEntity
8
0
100
AcDbLine
10
-263.68367952243443
20
-611.68146706152584
30
0
11
-263.68367952243443
21
-499.92077526297362
31
0
0
LINE
5
129
100
AcDbEntity
8
0
100
AcDbLine
10
282.31632047756563
20
-611.68146706152572
30
0
11
270.31632047756563
21
-611.68146706152572
31
0
0
LINE
5
130
100
AcDbEntity
8
0
100
AcDbLine
10
270.31632047756563
20
-611.68146706152572
30
0
11
270.31632047756557
21
-499.92077526297362
31
0
0
LINE
5
131
100
AcDbEntity
8
0
100
AcDbLine
10
-263.68367952243443
20
-611.68146706152584
30
0
11
-275.68367952243449
21
-611.68146706152584
31
0
0
LINE
5
132
100
AcDbEntity
8
0
100
AcDbLine
10
1549.0204386940441
20
-589.69690690785069
30
0
11
1549.0204386940441
21
-785.41492975401343
31
0
0
LINE
5
133
100
AcDbEntity
8
0
100
AcDbLine
10
1316.7982013624066
20
-533.89909033653566
30
0
11
1704.379504018752
21
-1208.2275356085449
31
0
0
LINE
5
134
100
AcDbEntity
8
0
100
AcDbLine
10
1549.0204386940445
20
-847.2154404875123
30
0
11
1596.016941694244
21
-847.2154404875123
31
0
0
LINE
5
135
100
AcDbEntity
8
0
100
AcDbLine
10
1398.4079661007722
20
-663.84632812797224
30
0
11
1320.6702206873551
21
-528.59529139243114
31
0
0
LINE
5
136
100
AcDbEntity
8
0
100
AcDbLine
10
1808.0204386940434
20
-589.69690690785069
30
0
11
1808.0204386940434
21
-787.21544048751241
31
0
0
LINE
5
137
100
AcDbEntity
8
0
100
AcDbLine
10
1388.0040401980382
20
-669.82615469823509
30
0
11
1398.4079661007722
21
-663.84632812797224
31
0
0
LINE
5
138
100
AcDbEntity
8
0
100
AcDbLine
10
1398.9276617391843
20
-665.03793094276716
30
0
11
1321.1899163257663
21
-529.78689420722662
31
0
0
LINE
5
139
100
AcDbEntity
8
0
100
AcDbLine
10
2383.7142075189504
20
-656.216144810125
30
0
11
878.53802351732384
21
-1000.6389759754006
31
0
0
LINE
5
140
100
AcDbEntity
8
0
100
AcDbLine
10
1462.0204386940443
20
-585.24580834429139
30
0
11
1462.0204386940443
21
-787.21544048751252
31
0
0
LINE
5
141
100
AcDbEntity
8
0
100
AcDbLine
10
1310.7859904230324
20
-535.7667207774897
30
0
11
1388.5237358364502
21
-671.01775751303012
31
0
0
LINE
5
142
100
AcDbEntity
8
0
100
AcDbLine
10
2043.0235200859997
20
-740.32997232634534
30
0
11
1817.8436438230137
21
-791.85689078831058
31
0
0
ELLIPSE
5
143
100
AcDbEntity
8
0
100
AcDbEllipse
10
1549.0204386940441
20
-785.41492975401343
30
0
11
-499.99805515167611
21
-1.3945768323968966
31
0.0
40
0.57200000000000006
41
3.3358591332141572
42
5.1819677562589721
0
LINE
5
144
100
AcDbEntity
8
0
100
AcDbLine
10
1549.1856338096661
20
-938.21543622038234
30
0
11
1491.5505774341625
21
-938.21544048751207
31
0
0
LINE
5
145
100
AcDbEntity
8
0
100
AcDbLine
10
1388.5237358364502
20
-671.01775751303012
30
0
11
1398.9276617391843
21
-665.03793094276716
31
0
0
LINE
5
146
100
AcDbEntity
8
0
100
AcDbLine
10
1815.1669207860289
20
-780.15923487854468
30
0
11
1817.8436438230137
21
-791.85689078831058
31
0
0
LINE
5
147
100
AcDbEntity
8
0
100
AcDbLine
10
2039.4593059970334
20
-728.83539708182366
30
0
11
1815.1669207860289
21
-780.15923487854468
31
0
0
LINE
5
148
100
AcDbEntity
8
0
100
AcDbLine
10
1310.2662947846213
20
-534.57511796269421
30
0
11
1388.0040401980382
21
-669.82615469823509
31
0
0
ELLIPSE
5
149
100
AcDbEntity
8
0
100
AcDbEllipse
10
1549.0204386940441
20
-785.41492975401343
30
0
11
-499.99805515167611
21
-1.3945768323968966
31
0.0
40
0.57199999999999995
41
5.2086116067384181
42
9.5782005815349329
0
LINE
5
150
100
AcDbEntity
8
0
100
AcDbLine
10
279.00000000000006
20
130.04786848002863
30
0
11
279.00000000000006
21
0
31
0
0
LINE
5
151
100
AcDbEntity
8
0
100
AcDbLine
10
267.00000000000006
20
130.0478684800286
30
0
11
267.00000000000006
21
0
31
0
0
LINE
5
152
100
AcDbEntity
8
0
100
AcDbLine
10
-279.00000000000006
20
130.04786848002854
30
0
11
-279.00000000000006
21
0
31
0
0
LINE
5
153
100
AcDbEntity
8
0
100
AcDbLine
10
-267
20
130.04786848002854
30
0
11
-267
21
0
31
0
0
LINE
5
154
100
AcDbEntity
8
0
100
AcDbLine
10
279.00000000000006
20
0
30
0
11
267.00000000000006
21
0
31
0
0
LINE
5
155
100
AcDbEntity
8
0
100
AcDbLine
10
-267
20
0
30
0
11
-279.00000000000006
21
0
31
0
0
LINE
5
156
100
AcDbEntity
8
0
100
AcDbLine
10
-296.7391974171511
20
-222.83835748736405
30
2.2907236614075512e-14
11
-287.74653226107023
21
-202.76663174572346
31
2.0449159145789141e-14
0
LINE
5
157
100
AcDbEntity
8
0
100
AcDbLine
10
-287.74653226107023
20
-202.76663174572343
30
2.0449159145789141e-14
11
-285.25144919847469
21
-203.88449509276896
31
2.058605792277349e-14
0
LINE
5
158
100
AcDbEntity
8
0
100
AcDbLine
10
-285.25144919847469
20
-203.88449509276896
30
2.058605792277349e-14
11
-294.24411435455556
21
-223.95622083440955
31
2.304413539105986e-14
0
LINE
5
159
100
AcDbEntity
8
0
100
AcDbLine
10
-294.24411435455556
20
-223.95622083440958
30
2.3044135391059854e-14
11
-296.7391974171511
21
-222.83835748736405
31
2.2907236614075506e-14
0
LINE
5
160
100
AcDbEntity
8
0
100
AcDbLine
10
-297.07105492316492
20
-199.10926890486047
30
2.0001261376150801e-14
11
-305.65239367114401
21
-217.09199765371469
31
2.2203510496372747e-14
0
LINE
5
161
100
AcDbEntity
8
0
100
AcDbLine
10
-305.65239367114401
20
-217.09199765371471
30
2.2203510496372747e-14
11
-307.00930938316662
21
-216.44447894062381
31
2.2124212324435267e-14
0
LINE
5
162
100
AcDbEntity
8
0
100
AcDbLine
10
-307.00930938316662
20
-216.44447894062381
30
2.2124212324435263e-14
11
-298.42797063518759
21
-198.46175019176957
31
1.9921963204213317e-14
0
LINE
5
163
100
AcDbEntity
8
0
100
AcDbLine
10
-298.42797063518759
20
-198.46175019176954
30
1.9921963204213321e-14
11
-297.07105492316498
21
-199.10926890486047
31
2.0001261376150801e-14
0
LINE
5
164
100
AcDbEntity
8
0
100
AcDbLine
10
-298.7656667725102
20
-219.15566388286965
30
2.2456236720577051e-14
11
-299.87337708797827
21
-221.47693970245678
31
2.2740511020816603e-14
0
LINE
5
165
100
AcDbEntity
8
0
100
AcDbLine
10
-299.87337708797827
20
-221.47693970245678
30
2.2740511020816603e-14
11
-314.05327149667863
21
-214.71030939673159
31
2.1911837806324622e-14
0
LINE
5
166
100
AcDbEntity
8
0
100
AcDbLine
10
-314.05327149667863
20
-214.71030939673159
30
2.1911837806324625e-14
11
-312.94556118121056
21
-212.38903357714449
31
2.1627563506085076e-14
0
LINE
5
167
100
AcDbEntity
8
0
100
AcDbLine
10
-312.94556118121056
20
-212.38903357714449
30
2.1627563506085076e-14
11
-298.7656667725102
21
-219.15566388286965
31
2.2456236720577057e-14
0
LINE
5
168
100
AcDbEntity
8
0
100
AcDbLine
10
-312.99892700407986
20
-206.12173883041277
30
2.0860041260995278e-14
11
-316.65054124252026
21
-213.35684974031471
31
2.1746086802724034e-14
0
LINE
5
169
100
AcDbEntity
8
0
100
AcDbLine
10
-316.65054124252026
20
-213.35684974031477
30
2.1746086802724031e-14
11
-319.09134120642477
21
-212.12495986158734
31
2.1595223803035479e-14
0
LINE
5
170
100
AcDbEntity
8
0
100
AcDbLine
10
-319.09134120642472
20
-212.12495986158734
30
2.1595223803035479e-14
11
-315.43972696798437
21
-204.88984895168539
31
2.070917826130672e-14
0
LINE
5
171
100
AcDbEntity
8
0
100
AcDbLine
10
-315.43972696798437
20
-204.88984895168539
30
2.0709178261306727e-14
11
-312.99892700407986
21
-206.1217388304128
31
2.0860041260995278e-14
0
SPLINE
5
172
100
AcDbEntity
8
0
100
AcDbSpline
70
0
71
2
72
6
73
3
74
0
42
0.000000001
43
0.0000000001
44
0.0000000001
40
0
40
0
40
0
40
1
40
1
40
1
10
-318.84781020514214
20
-187.17850403509647
30
1.8540164075237187e-14
10
-317.43595062128657
20
-187.93893140686487
30
1.8633289569919203e-14
10
-316.34026225789506
20
-188.8707682594125
30
1.8747406671799209e-14
0
SPLINE
5
173
100
AcDbEntity
8
0
100
AcDbSpline
70
0
71
2
72
6
73
3
74
0
42
0.000000001
43
0.0000000001
44
0.0000000001
40
0
40
0
40
0
40
1
40
1
40
1
10
-316.34026225789506
20
-188.8707682594125
30
1.8747406671799209e-14
10
-315.24457502507067
20
-189.80260721104565
30
1.8861524030743044e-14
10
-314.44950383372247
20
-190.91529790810517
30
1.8997789340802541e-14
0
SPLINE
5
174
100
AcDbEntity
8
0
100
AcDbSpline
70
0
71
2
72
6
73
3
74
0
42
0.000000001
43
0.0000000001
44
0.0000000001
40
0
40
0
40
0
40
1
40
1
40
1
10
-314.44950383372247
20
-190.91529790810517
30
1.8997789340802541e-14
10
-313.65443264237433
20
-192.02798860516475
30
1.9134054650862045e-14
10
-313.13213909253869
20
-193.55145404642613
30
1.9320625358487281e-14
0
LINE
5
175
100
AcDbEntity
8
0
100
AcDbLine
10
-313.13213909253869
20
-193.55145404642613
30
1.9320625358487281e-14
11
-315.44706506556417
21
-194.60518618861147
31
1.9449670327995876e-14
0
SPLINE
5
176
100
AcDbEntity
8
0
100
AcDbSpline
70
0
71
2
72
6
73
3
74
0
42
0.000000001
43
0.0000000001
44
0.0000000001
40
0
40
0
40
0
40
1
40
1
40
1
10
-315.44706506556417
20
-194.60518618861144
30
1.9449670327995876e-14
10
-316.24065569286046
20
-192.79524408504099
30
1.9228016347617914e-14
10
-317.34133796302939
20
-191.55670290982002
30
1.9076338799033256e-14
0
SPLINE
5
177
100
AcDbEntity
8
0
100
AcDbSpline
70
0
71
2
72
6
73
3
74
0
42
0.000000001
43
0.0000000001
44
0.0000000001
40
0
40
0
40
0
40
1
40
1
40
1
10
-317.34133796302939
20
-191.55670290982002
30
1.9076338799033256e-14
10
-318.44201857785981
20
-190.31815991815535
30
1.8924661027998406e-14
10
-320.0673394113474
20
-189.44276234758803
30
1.8817455744720745e-14
0
SPLINE
5
178
100
AcDbEntity
8
0
100
AcDbSpline
70
0
71
2
72
6
73
3
74
0
42
0.000000001
43
0.0000000001
44
0.0000000001
40
0
40
0
40
0
40
1
40
1
40
1
10
-320.0673394113474
20
-189.44276234758803
30
1.8817455744720745e-14
10
-322.41974986789012
20
-188.17575440909027
30
1.8662292023083187e-14
10
-324.13135318394245
20
-188.40576101041495
30
1.8690459707892695e-14
0
SPLINE
5
179
100
AcDbEntity
8
0
100
AcDbSpline
70
0
71
2
72
6
73
3
74
0
42
0.000000001
43
0.0000000001
44
0.0000000001
40
0
40
0
40
0
40
1
40
1
40
1
10
-324.13135318394245
20
-188.40576101041495
30
1.8690459707892695e-14
10
-325.842954319885
20
-188.63576607793775
30
1.871862720486564e-14
10
-326.70645436716336
20
-190.23899718543277
30
1.8914966389274357e-14
0
LINE
5
180
100
AcDbEntity
8
0
100
AcDbLine
10
-326.70645436716336
20
-190.23899718543277
30
1.8914966389274357e-14
11
-326.71345936115756
21
-190.25200311903376
31
1.8916559156769795e-14
0
SPLINE
5
181
100
AcDbEntity
8
0
100
AcDbSpline
70
0
71
2
72
6
73
3
74
0
42
0.000000001
43
0.0000000001
44
0.0000000001
40
0
40
0
40
0
40
1
40
1
40
1
10
-326.71345936115756
20
-190.25200311903376
30
1.8916559156769798e-14
10
-327.28742116409728
20
-191.31765843646798
30
1.9047064294118815e-14
10
-327.01156577832387
20
-192.20462956899669
30
1.9155686929957555e-14
0
SPLINE
5
182
100
AcDbEntity
8
0
100
AcDbSpline
70
0
71
2
72
6
73
3
74
0
42
0.000000001
43
0.0000000001
44
0.0000000001
40
0
40
0
40
0
40
1
40
1
40
1
10
-327.01156577832387
20
-192.20462956899669
30
1.9155686929957555e-14
10
-326.73571047357478
20
-193.09160336589446
30
1.9264309892087399e-14
10
-325.88976131582228
20
-193.95431558956579
30
1.9369961668417835e-14
0
SPLINE
5
183
100
AcDbEntity
8
0
100
AcDbSpline
70
0
71
2
72
6
73
3
74
0
42
0.000000001
43
0.0000000001
44
0.0000000001
40
0
40
0
40
0
40
1
40
1
40
1
10
-325.88976131582228
20
-193.95431558956579
30
1.9369961668417835e-14
10
-325.04381215806973
20
-194.81702781323713
30
1.9475613444748274e-14
10
-323.97826799275259
20
-195.68442374075997
30
1.9581838809371706e-14
0
SPLINE
5
184
100
AcDbEntity
8
0
100
AcDbSpline
70
0
71
2
72
6
73
3
74
0
42
0.000000001
43
0.0000000001
44
0.0000000001
40
0
40
0
40
0
40
1
40
1
40
1
10
-323.97826799275259
20
-195.68442374075997
30
1.9581838809371706e-14
10
-322.92428479093746
20
-196.54905647820306
30
1.9687725780806479e-14
10
-321.94136921969823
20
-197.41855619570271
30
1.9794208785396023e-14
0
SPLINE
5
185
100
AcDbEntity
8
0
100
AcDbSpline
70
0
71
2
72
6
73
3
74
0
42
0.000000001
43
0.0000000001
44
0.0000000001
40
0
40
0
40
0
40
1
40
1
40
1
10
-321.94136921969823
20
-197.41855619570271
30
1.9794208785396023e-14
10
-320.95845473851392
20
-198.28805668010324
30
1.9900691883903843e-14
10
-320.24566422406116
20
-199.3309973978279
30
2.0028415285070036e-14
0
SPLINE
5
186
100
AcDbEntity
8
0
100
AcDbSpline
70
0
71
2
72
6
73
3
74
0
42
0.000000001
43
0.0000000001
44
0.0000000001
40
0
40
0
40
0
40
1
40
1
40
1
10
-320.24566422406116
20
-199.3309973978279
30
2.0028415285070036e-14
10
-319.5328734472227
20
-200.37393825687346
30
2.0156138703543049e-14
10
-319.43439642882475
20
-201.65155848940572
30
2.03126020563727e-14
0
SPLINE
5
187
100
AcDbEntity
8
0
100
AcDbSpline
70
0
71
2
72
6
73
3
74
0
42
0.000000001
43
0.0000000001
44
0.0000000001
40
0
40
0
40
0
40
1
40
1
40
1
10
-319.43439642882475
20
-201.65155848940572
30
2.03126020563727e-14
10
-319.33592010690325
20
-202.92917970082027
30
2.0469065529080863e-14
10
-320.1676201269749
20
-204.47336878162673
30
2.0658174150589651e-14
0
LINE
5
188
100
AcDbEntity
8
0
100
AcDbLine
10
-320.1676201269749
20
-204.47336878162673
30
2.0658174150589651e-14
11
-320.17451376010592
21
-204.4861679553085
31
2.065974159729776e-14
0
SPLINE
5
189
100
AcDbEntity
8
0
100
AcDbSpline
70
0
71
2
72
6
73
3
74
0
42
0.000000001
43
0.0000000001
44
0.0000000001
40
0
40
0
40
0
40
1
40
1
40
1
10
-320.17451376010592
20
-204.48616795530847
30
2.065974159729776e-14
10
-321.65767426465601
20
-207.23990151420892
30
2.099697669615897e-14
10
-324.30734820364682
20
-207.76671061808426
30
2.106149220444123e-14
0
SPLINE
5
190
100
AcDbEntity
8
0
100
AcDbSpline
70
0
71
2
72
6
73
3
74
0
42
0.000000001
43
0.0000000001
44
0.0000000001
40
0
40
0
40
0
40
1
40
1
40
1
10
-324.30734820364682
20
-207.76671061808426
30
2.106149220444123e-14
10
-326.95702419155481
20
-208.29352132642188
30
2.1126007909213457e-14
10
-330.23780505254649
20
-206.52649321966149
30
2.09096093777187e-14
0
SPLINE
5
191
100
AcDbEntity
8
0
100
AcDbSpline
70
0
71
2
72
6
73
3
74
0
42
0.000000001
43
0.0000000001
44
0.0000000001
40
0
40
0
40
0
40
1
40
1
40
1
10
-330.23780505254649
20
-206.52649321966149
30
2.09096093777187e-14
10
-331.77807199214357
20
-205.69690566428932
30
2.0808014203288805e-14
10
-333.00227678659496
20
-204.38903790193092
30
2.0647846596400777e-14
0
SPLINE
5
192
100
AcDbEntity
8
0
100
AcDbSpline
70
0
71
2
72
6
73
3
74
0
42
0.000000001
43
0.0000000001
44
0.0000000001
40
0
40
0
40
0
40
1
40
1
40
1
10
-333.00227678659496
20
-204.38903790193092
30
2.0647846596400777e-14
10
-334.22648263058903
20
-203.08116957428894
30
2.0487678920285483e-14
10
-335.13291981385834
20
-201.08021206562054
30
2.0242632299463423e-14
0
LINE
5
193
100
AcDbEntity
8
0
100
AcDbLine
10
-335.13291981385834
20
-201.08021206562054
30
2.0242632299463423e-14
11
-332.85710599114913
21
-200.00514738595365
31
2.0110974847580376e-14
0
SPLINE
5
194
100
AcDbEntity
8
0
100
AcDbSpline
70
0
71
2
72
6
73
3
74
0
42
0.000000001
43
0.0000000001
44
0.0000000001
40
0
40
0
40
0
40
1
40
1
40
1
10
-332.85710599114913
20
-200.00514738595365
30
2.0110974847580373e-14
10
-331.92734823788072
20
-201.6394114293069
30
2.0311114470545791e-14
10
-331.01446048758527
20
-202.65895666883466
30
2.0435972751963156e-14
0
SPLINE
5
195
100
AcDbEntity
8
0
100
AcDbSpline
70
0
71
2
72
6
73
3
74
0
42
0.000000001
43
0.0000000001
44
0.0000000001
40
0
40
0
40
0
40
1
40
1
40
1
10
-331.01446048758527
20
-202.65895666883466
30
2.0435972751963156e-14
10
-330.10157435211613
20
-203.67850239262162
30
2.0560831092685166e-14
10
-329.01816392019447
20
-204.26202709770791
30
2.06322922589159e-14
0
SPLINE
5
196
100
AcDbEntity
8
0
100
AcDbSpline
70
0
71
2
72
6
73
3
74
0
42
0.000000001
43
0.0000000001
44
0.0000000001
40
0
40
0
40
0
40
1
40
1
40
1
10
-329.01816392019447
20
-204.26202709770791
30
2.06322922589159e-14
10
-326.80654752277923
20
-205.45320337591374
30
2.0778169280548399e-14
10
-325.14646042732454
20
-205.19225604912549
30
2.074621244969867e-14
0
SPLINE
5
197
100
AcDbEntity
8
0
100
AcDbSpline
70
0
71
2
72
6
73
3
74
0
42
0.000000001
43
0.0000000001
44
0.0000000001
40
0
40
0
40
0
40
1
40
1
40
1
10
-325.14646042732454
20
-205.19225604912549
30
2.074621244969867e-14
10
-323.4863733318698
20
-204.93130872233723
30
2.0714255618848943e-14
10
-322.59774473407288
20
-203.28142229153971
30
2.0512202805205655e-14
0
LINE
5
198
100
AcDbEntity
8
0
100
AcDbLine
10
-322.59774473407288
20
-203.28142229153971
30
2.0512202805205655e-14
11
-322.59073974007867
21
-203.26841635793872
31
2.0510610037710217e-14
0
SPLINE
5
199
100
AcDbEntity
8
0
100
AcDbSpline
70
0
71
2
72
6
73
3
74
0
42
0.000000001
43
0.0000000001
44
0.0000000001
40
0
40
0
40
0
40
1
40
1
40
1
10
-322.59073974007867
20
-203.26841635793869
30
2.0510610037710214e-14
10
-322.0241164484392
20
-202.21638620432054
30
2.0381773501686714e-14
10
-322.37654068517304
20
-201.31853458589939
30
2.0271818390625839e-14
0
SPLINE
5
200
100
AcDbEntity
8
0
100
AcDbSpline
70
0
71
2
72
6
73
3
74
0
42
0.000000001
43
0.0000000001
44
0.0000000001
40
0
40
0
40
0
40
1
40
1
40
1
10
-322.37654068517304
20
-201.31853458589939
30
2.0271818390625839e-14
10
-322.72896544667816
20
-200.42068268483638
30
2.0161863244951331e-14
10
-323.67607359351291
20
-199.52252896169213
30
2.0051871136732236e-14
0
SPLINE
5
201
100
AcDbEntity
8
0
100
AcDbSpline
70
0
71
2
72
6
73
3
74
0
42
0.000000001
43
0.0000000001
44
0.0000000001
40
0
40
0
40
0
40
1
40
1
40
1
10
-323.67607359351291
20
-199.52252896169213
30
2.0051871136732236e-14
10
-324.62318121557621
20
-198.62437552118962
30
1.9941879063126777e-14
10
-325.75818113751404
20
-197.6812185587103
30
1.9826375647607394e-14
0
SPLINE
5
202
100
AcDbEntity
8
0
100
AcDbSpline
70
0
71
2
72
6
73
3
74
0
42
0.000000001
43
0.0000000001
44
0.0000000001
40
0
40
0
40
0
40
1
40
1
40
1
10
-325.75818113751404
20
-197.6812185587103
30
1.9826375647607394e-14
10
-326.74939142953178
20
-196.85678755630232
30
1.9725411968785718e-14
10
-327.66993147013204
20
-195.97161107109298
30
1.9617009113856501e-14
0
SPLINE
5
203
100
AcDbEntity
8
0
100
AcDbSpline
70
0
71
2
72
6
73
3
74
0
42
0.000000001
43
0.0000000001
44
0.0000000001
40
0
40
0
40
0
40
1
40
1
40
1
10
-327.66993147013204
20
-195.97161107109298
30
1.9617009113856501e-14
10
-328.5904715107323
20
-195.08643458588358
30
1.9508606258927287e-14
10
-329.21495576044367
20
-194.04098723558167
30
1.9380575883804858e-14
0
SPLINE
5
204
100
AcDbEntity
8
0
100
AcDbSpline
70
0
71
2
72
6
73
3
74
0
42
0.000000001
43
0.0000000001
44
0.0000000001
40
0
40
0
40
0
40
1
40
1
40
1
10
-329.21495576044367
20
-194.04098723558167
30
1.9380575883804858e-14
10
-329.83943839532867
20
-192.99553940102061
30
1.9252545449377779e-14
10
-329.88229536886672
20
-191.75360084731867
30
1.9100451841924905e-14
0
SPLINE
5
205
100
AcDbEntity
8
0
100
AcDbSpline
70
0
71
2
72
6
73
3
74
0
42
0.000000001
43
0.0000000001
44
0.0000000001
40
0
40
0
40
0
40
1
40
1
40
1
10
-329.88229536886672
20
-191.75360084731867
30
1.9100451841924905e-14
10
-329.92515347297194
20
-190.51166439270222
30
1.894835849153586e-14
10
-329.13637260792058
20
-189.04716184422762
30
1.8769008655702602e-14
0
LINE
5
206
100
AcDbEntity
8
0
100
AcDbLine
10
-329.13637260792058
20
-189.04716184422762
30
1.8769008655702602e-14
11
-329.12247341551176
21
-189.02135568740209
31
1.8765848312967139e-14
0
SPLINE
5
207
100
AcDbEntity
8
0
100
AcDbSpline
70
0
71
2
72
6
73
3
74
0
42
0.000000001
43
0.0000000001
44
0.0000000001
40
0
40
0
40
0
40
1
40
1
40
1
10
-329.12247341551176
20
-189.02135568740215
30
1.8765848312967139e-14
10
-327.65254393819134
20
-186.29218772581163
30
1.8431621632117404e-14
10
-324.94579102998705
20
-185.82208844281416
30
1.8374051073896975e-14
0
SPLINE
5
208
100
AcDbEntity
8
0
100
AcDbSpline
70
0
71
2
72
6
73
3
74
0
42
0.000000001
43
0.0000000001
44
0.0000000001
40
0
40
0
40
0
40
1
40
1
40
1
10
-324.94579102998705
20
-185.82208844281416
30
1.8374051073896975e-14
10
-322.23903812178276
20
-185.3519891598167
30
1.8316480515676547e-14
10
-318.84781020514214
20
-187.17850403509647
30
1.8540164075237187e-14
0
LINE
5
209
100
AcDbEntity
8
0
100
AcDbLine
10
-339.41524521153167
20
-175.69623292044145
30
1.7133991418486747e-14
11
-340.78203798167897
21
-177.87504196041564
31
1.7400818570162518e-14
0
LINE
5
210
100
AcDbEntity
8
0
100
AcDbLine
10
-340.78203798167897
20
-177.87504196041567
30
1.7400818570162518e-14
11
-345.13687495650834
21
-175.14320104037
31
1.7066264546311147e-14
0
SPLINE
5
211
100
AcDbEntity
8
0
100
AcDbSpline
70
0
71
2
72
6
73
3
74
0
42
0.000000001
43
0.0000000001
44
0.0000000001
40
0
40
0
40
0
40
1
40
1
40
1
10
-345.13687495650834
20
-175.14320104036997
30
1.7066264546311147e-14
10
-347.55603045354496
20
-173.62563608513602
30
1.68804164398186e-14
10
-349.42393792143957
20
-173.99329532352363
30
1.6925441710765434e-14
0
SPLINE
5
212
100
AcDbEntity
8
0
100
AcDbSpline
70
0
71
2
72
6
73
3
74
0
42
0.000000001
43
0.0000000001
44
0.0000000001
40
0
40
0
40
0
40
1
40
1
40
1
10
-349.42393792143957
20
-173.99329532352363
30
1.6925441710765434e-14
10
-351.29184564646408
20
-174.36095721508133
30
1.6970467306631891e-14
10
-352.70972652285536
20
-176.62120598033852
30
1.7247267948196787e-14
0
LINE
5
213
100
AcDbEntity
8
0
100
AcDbLine
10
-352.70972652285536
20
-176.62120598033852
30
1.7247267948196787e-14
11
-356.05624390786403
21
-181.9559008149489
31
1.7900579643560143e-14
0
SPLINE
5
214
100
AcDbEntity
8
0
100
AcDbSpline
70
0
71
2
72
6
73
3
74
0
42
0.000000001
43
0.0000000001
44
0.0000000001
40
0
40
0
40
0
40
1
40
1
40
1
10
-356.05624390786409
20
-181.9559008149489
30
1.7900579643560143e-14
10
-357.47150785388203
20
-184.21197792252755
30
1.8176869404402727e-14
10
-356.98880490294067
20
-186.05711032325922
30
1.8402832953258638e-14
0
SPLINE
5
215
100
AcDbEntity
8
0
100
AcDbSpline
70
0
71
2
72
6
73
3
74
0
42
0.000000001
43
0.0000000001
44
0.0000000001
40
0
40
0
40
0
40
1
40
1
40
1
10
-356.98880490294067
20
-186.05711032325922
30
1.8402832953258638e-14
10
-356.50610296184141
20
-187.90224209050493
30
1.8628796424534894e-14
10
-354.09111811264125
20
-189.41719074885143
30
1.8814324127066548e-14
0
LINE
5
216
100
AcDbEntity
8
0
100
AcDbLine
10
-354.09111811264125
20
-189.41719074885143
30
1.8814324127066548e-14
11
-349.73628113781189
21
-192.14903166889709
31
1.9148878150917919e-14
0
LINE
5
217
100
AcDbEntity
8
0
100
AcDbLine
10
-349.73628113781189
20
-192.14903166889709
30
1.9148878150917919e-14
11
-351.1030745414451
21
-194.32784171871336
31
1.941570542626368e-14
0
LINE
5
218
100
AcDbEntity
8
0
100
AcDbLine
10
-351.10307454144515
20
-194.32784171871336
30
1.941570542626368e-14
11
-355.38322561489713
21
-191.64285215101739
31
1.908688903828139e-14
0
SPLINE
5
219
100
AcDbEntity
8
0
100
AcDbSpline
70
0
71
2
72
6
73
3
74
0
42
0.000000001
43
0.0000000001
44
0.0000000001
40
0
40
0
40
0
40
1
40
1
40
1
10
-355.38322561489713
20
-191.64285215101739
30
1.908688903828139e-14
10
-358.95187224618644
20
-189.40419776443809
30
1.881273294538924e-14
10
-359.68254266022831
20
-186.58030931315994
30
1.8466906350088541e-14
0
SPLINE
5
220
100
AcDbEntity
8
0
100
AcDbSpline
70
0
71
2
72
6
73
3
74
0
42
0.000000001
43
0.0000000001
44
0.0000000001
40
0
40
0
40
0
40
1
40
1
40
1
10
-359.68254266022831
20
-186.58030931315994
30
1.8466906350088541e-14
10
-360.41321471759829
20
-183.75642123823795
30
1.8121079800878183e-14
10
-358.30975699756505
20
-180.40329207651592
30
1.7710439911375129e-14
0
LINE
5
221
100
AcDbEntity
8
0
100
AcDbLine
10
-358.30975699756505
20
-180.40329207651592
30
1.7710439911375129e-14
11
-355.08834294779297
21
-175.26802489743446
31
1.7081551060012271e-14
0
SPLINE
5
222
100
AcDbEntity
8
0
100
AcDbSpline
70
0
71
2
72
6
73
3
74
0
42
0.000000001
43
0.0000000001
44
0.0000000001
40
0
40
0
40
0
40
1
40
1
40
1
10
-355.08834294779308
20
-175.26802489743449
30
1.7081551060012271e-14
10
-353.68977579041029
20
-173.03856419785231
30
1.6808520869055462e-14
10
-351.94482981349717
20
-172.03671002124455
30
1.6685829117995952e-14
0
SPLINE
5
223
100
AcDbEntity
8
0
100
AcDbSpline
70
0
71
2
72
6
73
3
74
0
42
0.000000001
43
0.0000000001
44
0.0000000001
40
0
40
0
40
0
40
1
40
1
40
1
10
-351.94482981349717
20
-172.03671002124455
30
1.6685829117995952e-14
10
-350.19988383658409
20
-171.03485584463681
30
1.6563137366936442e-14
10
-348.12533595607755
20
-171.284265578759
30
1.6593681250193337e-14
0
SPLINE
5
224
100
AcDbEntity
8
0
100
AcDbSpline
70
0
71
2
72
6
73
3
74
0
42
0.000000001
43
0.0000000001
44
0.0000000001
40
0
40
0
40
0
40
1
40
1
40
1
10
-348.12533595607755
20
-171.284265578759
30
1.6593681250193337e-14
10
-346.05079035238498
20
-171.53367669907948
30
1.6624225303210559e-14
10
-343.68288232179009
20
-173.01909351037978
30
1.6806136397546417e-14
0
LINE
5
225
100
AcDbEntity
8
0
100
AcDbLine
10
-343.68288232179009
20
-173.01909351037978
30
1.6806136397546417e-14
11
-339.41524521153167
21
-175.69623292044145
31
1.7133991418486743e-14
0
LINE
5
226
100
AcDbEntity
8
0
100
AcDbLine
10
-337.6950804459247
20
-176.77531269382155
30
1.72661405775362e-14
11
-349.38290977583819
21
-195.40692149209346
31
1.9547854585313133e-14
0
LINE
5
227
100
AcDbEntity
8
0
100
AcDbLine
10
-349.38290977583813
20
-195.40692149209343
30
1.9547854585313133e-14
11
-351.69897428069692
21
-193.9540267397964
31
1.9369926294523281e-14
0
LINE
5
228
100
AcDbEntity
8
0
100
AcDbLine
10
-351.69897428069697
20
-193.95402673979643
30
1.9369926294523281e-14
11
-340.01114495078349
21
-175.32241794152452
31
1.7088212286746344e-14
0
LINE
5
229
100
AcDbEntity
8
0
100
AcDbLine
10
-340.01114495078349
20
-175.32241794152452
30
1.7088212286746344e-14
11
-337.6950804459247
21
-176.77531269382155
31
1.72661405775362e-14
0
LINE
5
230
100
AcDbEntity
8
0
100
AcDbLine
10
-353.47682323326899
20
-166.82853650782846
30
1.6048011815735058e-14
11
-372.65572083470317
21
-180.22576765615239
31
1.7688699440058264e-14
0
LINE
5
231
100
AcDbEntity
8
0
100
AcDbLine
10
-372.65572083470312
20
-180.22576765615236
30
1.7688699440058264e-14
11
-375.10612713042718
21
-178.5011919800487
31
1.747749983189549e-14
0
LINE
5
232
100
AcDbEntity
8
0
100
AcDbLine
10
-375.10612713042724
20
-178.5011919800487
30
1.7477499831895493e-14
11
-368.97254371522808
21
-155.92277664526199
31
1.4712441424938888e-14
0
LINE
5
233
100
AcDbEntity
8
0
100
AcDbLine
10
-368.97254371522797
20
-155.92277664526199
30
1.4712441424938888e-14
11
-366.61283554702129
21
-157.58351972966133
31
1.4915823795190462e-14
0
LINE
5
234
100
AcDbEntity
8
0
100
AcDbLine
10
-366.61283554702129
20
-157.5835197296613
30
1.4915823795190462e-14
11
-372.25652173208795
21
-177.05561248292557
31
1.7300467401489007e-14
0
LINE
5
235
100
AcDbEntity
8
0
100
AcDbLine
10
-372.25652173208795
20
-177.0556124829256
30
1.7300467401489007e-14
11
-355.83192877882902
21
-165.17103271116542
31
1.584502614381926e-14
0
LINE
5
236
100
AcDbEntity
8
0
100
AcDbLine
10
-355.83192877882902
20
-165.1710327111654
30
1.584502614381926e-14
11
-353.47682323326899
21
-166.82853650782843
31
1.6048011815735055e-14
0
LINE
5
237
100
AcDbEntity
8
0
100
AcDbLine
10
-360.28680154180682
20
-169.12116589055825
30
1.632877793925418e-14
11
-361.07601160426816
21
-170.24253466114956
31
1.6466106006811024e-14
0
LINE
5
238
100
AcDbEntity
8
0
100
AcDbLine
10
-361.07601160426816
20
-170.24253466114956
30
1.6466106006811024e-14
11
-369.77774541934701
21
-164.11832640082952
31
1.5716106802479751e-14
0
LINE
5
239
100
AcDbEntity
8
0
100
AcDbLine
10
-369.77774541934701
20
-164.11832640082952
30
1.5716106802479755e-14
11
-368.98853535688568
21
-162.9969576302382
31
1.5578778734922908e-14
0
LINE
5
240
100
AcDbEntity
8
0
100
AcDbLine
10
-368.98853535688568
20
-162.9969576302382
30
1.5578778734922908e-14
11
-360.28680154180682
21
-169.12116589055825
31
1.632877793925418e-14
0
LINE
5
241
100
AcDbEntity
8
0
100
AcDbLine
10
-371.8073927613226
20
-153.77358090331376
30
1.4449240856327078e-14
11
-385.52926191694735
21
-170.94340350031931
31
1.6551937684862158e-14
0
LINE
5
242
100
AcDbEntity
8
0
100
AcDbLine
10
-385.52926191694735
20
-170.94340350031931
30
1.6551937684862158e-14
11
-387.56338845707216
21
-169.31775955019225
31
1.6352853718854522e-14
0
LINE
5
243
100
AcDbEntity
8
0
100
AcDbLine
10
-387.56338845707216
20
-169.31775955019231
30
1.6352853718854522e-14
11
-384.96924324524332
21
-145.94819253037491
31
1.3490907174026633e-14
0
LINE
5
244
100
AcDbEntity
8
0
100
AcDbLine
10
-384.96924324524321
20
-145.94819253037491
30
1.3490907174026633e-14
11
-384.26576601771472
21
-147.44391168799615
31
1.3674079941907059e-14
0
LINE
5
245
100
AcDbEntity
8
0
100
AcDbLine
10
-384.26576601771472
20
-147.44391168799618
30
1.3674079941907059e-14
11
-396.21882242070683
21
-162.40046429783135
31
1.5505729369898419e-14
0
LINE
5
246
100
AcDbEntity
8
0
100
AcDbLine
10
-396.21882242070689
20
-162.40046429783135
30
1.5505729369898422e-14
11
-398.35460873757091
21
-160.69357535248528
31
1.5296695761556615e-14
0
LINE
5
247
100
AcDbEntity
8
0
100
AcDbLine
10
-398.35460873757091
20
-160.69357535248528
30
1.5296695761556615e-14
11
-384.63273958194611
21
-143.52375275547971
31
1.3193998933021537e-14
0
LINE
5
248
100
AcDbEntity
8
0
100
AcDbLine
10
-384.63273958194611
20
-143.52375275547971
30
1.3193998933021537e-14
11
-382.56820695216214
21
-145.17369680431074
31
1.3396058802838853e-14
0
LINE
5
249
100
AcDbEntity
8
0
100
AcDbLine
10
-382.56820695216214
20
-145.17369680431074
30
1.3396058802838854e-14
11
-385.06620323881566
21
-168.80830833413364
31
1.6290463938747725e-14
0
LINE
5
250
100
AcDbEntity
8
0
100
AcDbLine
10
-385.06620323881566
20
-168.80830833413364
30
1.6290463938747725e-14
11
-385.82099434418069
21
-166.9290958326207
31
1.6060326781258177e-14
0
LINE
5
251
100
AcDbEntity
8
0
100
AcDbLine
10
-385.82099434418069
20
-166.9290958326207
30
1.6060326781258177e-14
11
-373.94317977661524
21
-152.06669139979385
31
1.4240207179628691e-14
0
LINE
5
252
100
AcDbEntity
8
0
100
AcDbLine
10
-373.94317977661524
20
-152.06669139979385
30
1.4240207179628691e-14
11
-371.8073927613226
21
-153.77358090331376
31
1.4449240856327078e-14
0
LINE
5
253
100
AcDbEntity
8
0
100
AcDbLine
10
-402.01029431871456
20
-143.44054012701739
30
1.3183808325112042e-14
11
-407.92602570582
21
-138.00905736976262
31
1.2518643527782433e-14
0
LINE
5
254
100
AcDbEntity
8
0
100
AcDbLine
10
-407.92602570582
20
-138.00905736976262
30
1.2518643527782433e-14
11
-405.593581956604
21
-135.46866254342083
31
1.2207534888517435e-14
0
SPLINE
5
255
100
AcDbEntity
8
0
100
AcDbSpline
70
0
71
2
72
6
73
3
74
0
42
0.000000001
43
0.0000000001
44
0.0000000001
40
0
40
0
40
0
40
1
40
1
40
1
10
-405.593581956604
20
-135.46866254342081
30
1.2207534888517435e-14
10
-403.74354774917924
20
-133.45368690652623
30
1.1960771542109146e-14
10
-401.84508624059663
20
-132.67068011981206
30
1.1864880866603133e-14
0
SPLINE
5
256
100
AcDbEntity
8
0
100
AcDbSpline
70
0
71
2
72
6
73
3
74
0
42
0.000000001
43
0.0000000001
44
0.0000000001
40
0
40
0
40
0
40
1
40
1
40
1
10
-401.84508624059663
20
-132.67068011981206
30
1.1864880866603133e-14
10
-399.94662546636414
20
-131.88767589554931
30
1.1768990504906911e-14
10
-398.04037625449223
20
-132.38384793271058
30
1.1829754054620507e-14
0
SPLINE
5
257
100
AcDbEntity
8
0
100
AcDbSpline
70
0
71
2
72
6
73
3
74
0
42
0.000000001
43
0.0000000001
44
0.0000000001
40
0
40
0
40
0
40
1
40
1
40
1
10
-398.04037625449223
20
-132.38384793271058
30
1.1829754054620507e-14
10
-396.13412455204917
20
-132.88001901988113
30
1.1890517487993798e-14
10
-394.22830946897199
20
-134.62982831392938
30
1.2104807323101242e-14
0
SPLINE
5
258
100
AcDbEntity
8
0
100
AcDbSpline
70
0
71
2
72
6
73
3
74
0
42
0.000000001
43
0.0000000001
44
0.0000000001
40
0
40
0
40
0
40
1
40
1
40
1
10
-394.22830946897199
20
-134.62982831392938
30
1.2104807323101242e-14
10
-392.30591302483248
20
-136.39486165565799
30
1.232096156633487e-14
10
-391.59750747721648
20
-138.22323616571703
30
1.2544872865473511e-14
0
SPLINE
5
259
100
AcDbEntity
8
0
100
AcDbSpline
70
0
71
2
72
6
73
3
74
0
42
0.000000001
43
0.0000000001
44
0.0000000001
40
0
40
0
40
0
40
1
40
1
40
1
10
-391.59750747721648
20
-138.22323616571703
30
1.2544872865473511e-14
10
-390.88910354206109
20
-140.05161243199709
30
1.2768784379687199e-14
10
-391.42853925478664
20
-141.93373704241142
30
1.2999278167661236e-14
0
SPLINE
5
260
100
AcDbEntity
8
0
100
AcDbSpline
70
0
71
2
72
6
73
3
74
0
42
0.000000001
43
0.0000000001
44
0.0000000001
40
0
40
0
40
0
40
1
40
1
40
1
10
-391.42853925478664
20
-141.93373704241142
30
1.2999278167661236e-14
10
-391.9679747479845
20
-143.81586185438337
30
1.3229771980318961e-14
10
-393.72349295913409
20
-145.7278948380951
30
1.3463928487655634e-14
0
LINE
5
261
100
AcDbEntity
8
0
100
AcDbLine
10
-393.72349295913409
20
-145.7278948380951
30
1.3463928487655634e-14
11
-397.99255844279787
21
-150.37757261560176
31
1.4033349788384649e-14
0
SPLINE
5
262
100
AcDbEntity
8
0
100
AcDbSpline
70
0
71
2
72
6
73
3
74
0
42
0.000000001
43
0.0000000001
44
0.0000000001
40
0
40
0
40
0
40
1
40
1
40
1
10
-397.99255844279787
20
-150.37757261560176
30
1.4033349788384649e-14
10
-399.84861922208154
20
-152.39911212867815
30
1.4280916977788538e-14
10
-401.7375165765157
20
-153.17482191503433
30
1.4375914028481373e-14
0
SPLINE
5
263
100
AcDbEntity
8
0
100
AcDbSpline
70
0
71
2
72
6
73
3
74
0
42
0.000000001
43
0.0000000001
44
0.0000000001
40
0
40
0
40
0
40
1
40
1
40
1
10
-401.7375165765157
20
-153.17482191503433
30
1.4375914028481373e-14
10
-403.62641312471965
20
-153.95053082327999
30
1.4470910971636687e-14
10
-405.53283715635348
20
-153.45420151340346
30
1.4410128161570352e-14
0
SPLINE
5
264
100
AcDbEntity
8
0
100
AcDbSpline
70
0
71
2
72
6
73
3
74
0
42
0.000000001
43
0.0000000001
44
0.0000000001
40
0
40
0
40
0
40
1
40
1
40
1
10
-405.53283715635348
20
-153.45420151340346
30
1.4410128161570352e-14
10
-407.43926096845962
20
-152.95787240508449
30
1.4349345376187708e-14
10
-409.33661282228735
20
-151.21583355914001
30
1.4136007146520082e-14
0
SPLINE
5
265
100
AcDbEntity
8
0
100
AcDbSpline
70
0
71
2
72
6
73
3
74
0
42
0.000000001
43
0.0000000001
44
0.0000000001
40
0
40
0
40
0
40
1
40
1
40
1
10
-409.33661282228735
20
-151.21583355914001
30
1.4136007146520082e-14
10
-410.91132052555054
20
-149.7700279303325
30
1.3958947022969247e-14
10
-411.5711243223148
20
-148.15689557948809
30
1.3761395285962983e-14
0
SPLINE
5
266
100
AcDbEntity
8
0
100
AcDbSpline
70
0
71
2
72
6
73
3
74
0
42
0.000000001
43
0.0000000001
44
0.0000000001
40
0
40
0
40
0
40
1
40
1
40
1
10
-411.5711243223148
20
-148.15689557948809
30
1.3761395285962983e-14
10
-412.23092973153973
20
-146.54376498486477
30
1.356384376403177e-14
10
-411.9750066864874
20
-144.7923954617699
30
1.3349362855973533e-14
0
SPLINE
5
267
100
AcDbEntity
8
0
100
AcDbSpline
70
0
71
2
72
6
73
3
74
0
42
0.000000001
43
0.0000000001
44
0.0000000001
40
0
40
0
40
0
40
1
40
1
40
1
10
-411.9750066864874
20
-144.7923954617699
30
1.3349362855973533e-14
10
-411.71908276332459
20
-143.04102674490537
30
1.313488204665004e-14
10
-410.31569798700554
20
-140.87285134508539
30
1.2869357140312085e-14
0
LINE
5
268
100
AcDbEntity
8
0
100
AcDbLine
10
-410.31569798700554
20
-140.87285134508539
30
1.2869357140312085e-14
11
-408.21746956925233
21
-142.79932344566953
31
1.3105281929474787e-14
0
SPLINE
5
269
100
AcDbEntity
8
0
100
AcDbSpline
70
0
71
2
72
6
73
3
74
0
42
0.000000001
43
0.0000000001
44
0.0000000001
40
0
40
0
40
0
40
1
40
1
40
1
10
-408.21746956925233
20
-142.79932344566956
30
1.3105281929474789e-14
10
-409.35438134975817
20
-144.91579958985812
30
1.3364475503020017e-14
10
-409.17034797354768
20
-146.48077839099861
30
1.3556130130975031e-14
0
SPLINE
5
270
100
AcDbEntity
8
0
100
AcDbSpline
70
0
71
2
72
6
73
3
74
0
42
0.000000001
43
0.0000000001
44
0.0000000001
40
0
40
0
40
0
40
1
40
1
40
1
10
-409.17034797354768
20
-146.48077839099861
30
1.3556130130975031e-14
10
-408.9863154035674
20
-148.0457580702496
30
1.374778486646757e-14
10
-407.59711118325123
20
-149.32124511913759
30
1.3903986979645026e-14
0
SPLINE
5
271
100
AcDbEntity
8
0
100
AcDbSpline
70
0
71
2
72
6
73
3
74
0
42
0.000000001
43
0.0000000001
44
0.0000000001
40
0
40
0
40
0
40
1
40
1
40
1
10
-407.59711118325123
20
-149.32124511913759
30
1.3903986979645026e-14
10
-405.71945007985823
20
-151.04520505573583
30
1.411511118146636e-14
10
-403.84642920242862
20
-150.85798321078619
30
1.4092183118151553e-14
0
SPLINE
5
272
100
AcDbEntity
8
0
100
AcDbSpline
70
0
71
2
72
6
73
3
74
0
42
0.000000001
43
0.0000000001
44
0.0000000001
40
0
40
0
40
0
40
1
40
1
40
1
10
-403.84642920242862
20
-150.85798321078619
30
1.4092183118151553e-14
10
-401.97340810547126
20
-150.67076156739409
30
1.4069255079520431e-14
10
-400.00649790927184
20
-148.52848975998884
30
1.3806902448336183e-14
0
LINE
5
273
100
AcDbEntity
8
0
100
AcDbLine
10
-400.00649790927184
20
-148.52848975998884
30
1.3806902448336183e-14
11
-395.73743242560806
21
-143.87881198248215
31
1.323748114760717e-14
0
SPLINE
5
274
100
AcDbEntity
8
0
100
AcDbSpline
70
0
71
2
72
6
73
3
74
0
42
0.000000001
43
0.0000000001
44
0.0000000001
40
0
40
0
40
0
40
1
40
1
40
1
10
-395.73743242560801
20
-143.87881198248215
30
1.323748114760717e-14
10
-393.92196937554888
20
-141.901489724942
30
1.2995329010249234e-14
10
-393.98439024671382
20
-140.09467024083199
30
1.2774057440463994e-14
0
SPLINE
5
275
100
AcDbEntity
8
0
100
AcDbSpline
70
0
71
2
72
6
73
3
74
0
42
0.000000001
43
0.0000000001
44
0.0000000001
40
0
40
0
40
0
40
1
40
1
40
1
10
-393.98439024671382
20
-140.09467024083199
30
1.2774057440463994e-14
10
-394.0468092858905
20
-138.28784920205851
30
1.2552785680287392e-14
10
-395.96765147439902
20
-136.52424288804767
30
1.2336806197546445e-14
0
SPLINE
5
276
100
AcDbEntity
8
0
100
AcDbSpline
70
0
71
2
72
6
73
3
74
0
42
0.000000001
43
0.0000000001
44
0.0000000001
40
0
40
0
40
0
40
1
40
1
40
1
10
-395.96765147439902
20
-136.52424288804767
30
1.2336806197546445e-14
10
-397.80766007654796
20
-134.83485330258463
30
1.2129915642711427e-14
10
-399.62576914627505
20
-135.0002329080362
30
1.2150168803157477e-14
0
SPLINE
5
277
100
AcDbEntity
8
0
100
AcDbSpline
70
0
71
2
72
6
73
3
74
0
42
0.000000001
43
0.0000000001
44
0.0000000001
40
0
40
0
40
0
40
1
40
1
40
1
10
-399.62576914627505
20
-135.0002329080362
30
1.2150168803157477e-14
10
-401.44387909411262
20
-135.16561170725737
30
1.2170421864868785e-14
10
-403.46312170226639
20
-137.36488166890464
30
1.2439754756768012e-14
0
LINE
5
278
100
AcDbEntity
8
0
100
AcDbLine
10
-403.46312170226639
20
-137.36488166890464
30
1.2439754756768012e-14
11
-404.08603784436173
21
-138.04333444837928
31
1.2522841259243635e-14
0
LINE
5
279
100
AcDbEntity
8
0
100
AcDbLine
10
-404.08603784436173
20
-138.04333444837931
30
1.2522841259243635e-14
11
-400.27095231328758
21
-141.54612555289913
31
1.2951809450666837e-14
0
LINE
5
280
100
AcDbEntity
8
0
100
AcDbLine
10
-400.27095231328752
20
-141.54612555289913
30
1.2951809450666837e-14
11
-402.01029431871456
21
-143.44054012701741
31
1.3183808325112042e-14
0
LINE
5
281
100
AcDbEntity
8
0
100
AcDbLine
10
-403.78538608229491
20
-125.85429758946084
30
1.1030114761847275e-14
11
-419.77871023169826
21
-140.95250223468736
31
1.2879111561012112e-14
0
LINE
5
282
100
AcDbEntity
8
0
100
AcDbLine
10
-419.77871023169826
20
-140.95250223468736
30
1.2879111561012115e-14
11
-421.65554310450665
21
-138.96439853531334
31
1.2635639077830971e-14
0
LINE
5
283
100
AcDbEntity
8
0
100
AcDbLine
10
-421.65554310450665
20
-138.96439853531334
30
1.2635639077830971e-14
11
-405.6622189551033
21
-123.86619389008681
31
1.0786642278666135e-14
0
LINE
5
284
100
AcDbEntity
8
0
100
AcDbLine
10
-405.6622189551033
20
-123.86619389008679
30
1.0786642278666133e-14
11
-403.78538608229491
21
-125.85429758946083
31
1.1030114761847275e-14
0
LINE
5
285
100
AcDbEntity
8
0
100
AcDbLine
10
-404.78529049754599
20
-124.79511235470608
30
1.0900401981102621e-14
11
-406.65557446568027
21
-126.56071966884477
31
1.1116626515683731e-14
0
LINE
5
286
100
AcDbEntity
8
0
100
AcDbLine
10
-406.65557446568022
20
-126.56071966884477
30
1.1116626515683731e-14
11
-415.51194038999245
21
-117.17929092671697
31
9.9677328476361533e-15
0
LINE
5
287
100
AcDbEntity
8
0
100
AcDbLine
10
-415.51194038999245
20
-117.17929092671699
30
9.9677328476361549e-15
11
-413.6416564218581
21
-115.4136836125783
31
9.7515083130550446e-15
0
LINE
5
288
100
AcDbEntity
8
0
100
AcDbLine
10
-413.64165642185816
20
-115.41368361257827
30
9.7515083130550414e-15
11
-404.78529049754599
21
-124.79511235470608
31
1.0900401981102621e-14
0
LINE
5
289
100
AcDbEntity
8
0
100
AcDbLine
10
-411.79327072395898
20
-131.41086769235
30
1.1710598340921386e-14
11
-413.66355555893909
21
-133.17647582481862
31
1.1926822975719008e-14
0
LINE
5
290
100
AcDbEntity
8
0
100
AcDbLine
10
-413.66355555893904
20
-133.17647582481862
30
1.1926822975719008e-14
11
-421.40879150933046
21
-124.97205204868534
31
1.0922070844090004e-14
0
LINE
5
291
100
AcDbEntity
8
0
100
AcDbLine
10
-421.40879150933051
20
-124.97205204868536
30
1.0922070844090003e-14
11
-419.5385066743504
21
-123.20644391621676
31
1.070584620929238e-14
0
LINE
5
292
100
AcDbEntity
8
0
100
AcDbLine
10
-419.5385066743504
20
-123.20644391621673
30
1.0705846209292382e-14
11
-411.79327072395898
21
-131.41086769235
31
1.1710598340921386e-14
0
LINE
5
293
100
AcDbEntity
8
0
100
AcDbLine
10
-418.90832981196922
20
-138.12770886746398
30
1.2533174145469836e-14
11
-420.77861464694934
21
-139.89331699993261
31
1.2749398780267459e-14
0
LINE
5
294
100
AcDbEntity
8
0
100
AcDbLine
10
-420.77861464694934
20
-139.89331699993261
30
1.2749398780267457e-14
11
-429.63498057126151
21
-130.5118882578048
31
1.1600505112219878e-14
0
LINE
5
295
100
AcDbEntity
8
0
100
AcDbLine
10
-429.63498057126151
20
-130.51188825780483
30
1.1600505112219881e-14
11
-427.7646957362814
21
-128.74628012533623
31
1.1384280477422259e-14
0
LINE
5
296
100
AcDbEntity
8
0
100
AcDbLine
10
-427.7646957362814
20
-128.74628012533623
30
1.1384280477422259e-14
11
-418.90832981196922
21
-138.12770886746401
31
1.2533174145469836e-14
0
LINE
5
297
100
AcDbEntity
8
0
100
AcDbLine
10
-425.36583889551923
20
-116.50787694938471
30
9.8855083498118743e-15
11
-426.43585448477558
21
-117.36579955090987
31
9.9905735665992675e-15
0
LINE
5
298
100
AcDbEntity
8
0
100
AcDbLine
10
-426.43585448477558
20
-117.36579955090987
30
9.9905735665992706e-15
11
-430.80394153852831
21
-111.91784744609835
31
9.3233918558927199e-15
0
SPLINE
5
299
100
AcDbEntity
8
0
100
AcDbSpline
70
0
71
2
72
6
73
3
74
0
42
0.000000001
43
0.0000000001
44
0.0000000001
40
0
40
0
40
0
40
1
40
1
40
1
10
-430.80394153852819
20
-111.91784744609835
30
9.3233918558927183e-15
10
-432.02239978919437
20
-110.39816569304394
30
9.1372845164326456e-15
10
-433.73264417104815
20
-110.26097976959726
30
9.1204840862289399e-15
0
SPLINE
5
300
100
AcDbEntity
8
0
100
AcDbSpline
70
0
71
2
72
6
73
3
74
0
42
0.000000001
43
0.0000000001
44
0.0000000001
40
0
40
0
40
0
40
1
40
1
40
1
10
-433.73264417104815
20
-110.26097976959726
30
9.1204840862289399e-15
10
-435.44288687713782
20
-110.12379403050183
30
9.1036836786017501e-15
10
-437.02179073073194
20
-111.36959877476545
30
9.2562507578442573e-15
0
SPLINE
5
301
100
AcDbEntity
8
0
100
AcDbSpline
70
0
71
2
72
6
73
3
74
0
42
0.000000001
43
0.0000000001
44
0.0000000001
40
0
40
0
40
0
40
1
40
1
40
1
10
-437.02179073073194
20
-111.36959877476545
30
9.2562507578442573e-15
10
-438.58665933783294
20
-112.6242871736346
30
9.4099057710044967e-15
10
-438.8250517542815
20
-114.32731736186427
30
9.6184668178911753e-15
0
SPLINE
5
302
100
AcDbEntity
8
0
100
AcDbSpline
70
0
71
2
72
6
73
3
74
0
42
0.000000001
43
0.0000000001
44
0.0000000001
40
0
40
0
40
0
40
1
40
1
40
1
10
-438.8250517542815
20
-114.32731736186427
30
9.6184668178911753e-15
10
-439.06344491643642
20
-116.03034662003624
30
9.8270277508786359e-15
10
-437.83853257638691
20
-117.55807802260745
30
1.0014120888090207e-14
0
LINE
5
303
100
AcDbEntity
8
0
100
AcDbLine
10
-437.83853257638691
20
-117.55807802260745
30
1.0014120888090207e-14
11
-433.47044552263418
21
-123.00603012741895
31
1.0681302598796757e-14
0
LINE
5
304
100
AcDbEntity
8
0
100
AcDbLine
10
-433.47044552263418
20
-123.00603012741895
30
1.0681302598796759e-14
11
-434.54027789052083
21
-123.86380582477213
31
1.0786349825011755e-14
0
LINE
5
305
100
AcDbEntity
8
0
100
AcDbLine
10
-434.54027789052088
20
-123.86380582477213
30
1.0786349825011752e-14
11
-438.83473165161092
21
-118.50769040883819
31
1.0130414865013024e-14
0
SPLINE
5
306
100
AcDbEntity
8
0
100
AcDbSpline
70
0
71
2
72
6
73
3
74
0
42
0.000000001
43
0.0000000001
44
0.0000000001
40
0
40
0
40
0
40
1
40
1
40
1
10
-438.83473165161092
20
-118.50769040883819
30
1.0130414865013024e-14
10
-439.94978278791416
20
-117.11697975901797
30
9.9601019304287758e-15
10
-440.20855800461896
20
-115.61872118715738
30
9.7766181739963601e-15
0
SPLINE
5
307
100
AcDbEntity
8
0
100
AcDbSpline
70
0
71
2
72
6
73
3
74
0
42
0.000000001
43
0.0000000001
44
0.0000000001
40
0
40
0
40
0
40
1
40
1
40
1
10
-440.20855800461896
20
-115.61872118715738
30
9.7766181739963601e-15
10
-440.46733136120821
20
-114.12046112388389
30
9.5931342349185404e-15
10
-439.90229801384231
20
-112.72867524657585
30
9.4226896229441655e-15
0
SPLINE
5
308
100
AcDbEntity
8
0
100
AcDbSpline
70
0
71
2
72
6
73
3
74
0
42
0.000000001
43
0.0000000001
44
0.0000000001
40
0
40
0
40
0
40
1
40
1
40
1
10
-439.90229801384231
20
-112.72867524657585
30
9.4226896229441655e-15
10
-439.33726634224053
20
-111.33688918491657
30
9.2522449883932715e-15
10
-437.94381202216329
20
-110.2196382145658
30
9.1154212059248368e-15
0
SPLINE
5
309
100
AcDbEntity
8
0
100
AcDbSpline
70
0
71
2
72
6
73
3
74
0
42
0.000000001
43
0.0000000001
44
0.0000000001
40
0
40
0
40
0
40
1
40
1
40
1
10
-437.94381202216329
20
-110.2196382145658
30
9.1154212059248368e-15
10
-436.55877379434224
20
-109.10913514194252
30
8.9794238025916948e-15
10
-435.06508040814452
20
-108.86078447595024
30
8.9490096177743401e-15
0
SPLINE
5
310
100
AcDbEntity
8
0
100
AcDbSpline
70
0
71
2
72
6
73
3
74
0
42
0.000000001
43
0.0000000001
44
0.0000000001
40
0
40
0
40
0
40
1
40
1
40
1
10
-435.06508040814452
20
-108.86078447595024
30
8.9490096177743401e-15
10
-433.57138609188905
20
-108.6124330642515
30
8.9185953416342818e-15
10
-432.17703241893093
20
-109.18216878798447
30
8.9883678446772275e-15
0
SPLINE
5
311
100
AcDbEntity
8
0
100
AcDbSpline
70
0
71
2
72
6
73
3
74
0
42
0.000000001
43
0.0000000001
44
0.0000000001
40
0
40
0
40
0
40
1
40
1
40
1
10
-432.17703241893093
20
-109.18216878798447
30
8.9883678446772275e-15
10
-430.78267707020848
20
-109.75190469606866
30
9.0581403702966922e-15
10
-429.66029265660922
20
-111.15176153345077
30
9.2295733898131457e-15
0
LINE
5
312
100
AcDbEntity
8
0
100
AcDbLine
10
-429.66029265660922
20
-111.15176153345077
30
9.2295733898131457e-15
11
-425.36583889551923
21
-116.50787694938471
31
9.8855083498118743e-15
0
LINE
5
313
100
AcDbEntity
8
0
100
AcDbLine
10
-416.63359225991456
20
-111.97366235209819
30
9.3302272104904599e-15
11
-433.80452053286592
21
-125.74105752133113
31
1.1016246853150245e-14
0
LINE
5
314
100
AcDbEntity
8
0
100
AcDbLine
10
-433.80452053286592
20
-125.74105752133113
30
1.1016246853150244e-14
11
-435.51479213943151
21
-123.60797782668904
31
1.075501993111328e-14
0
LINE
5
315
100
AcDbEntity
8
0
100
AcDbLine
10
-435.51479213943151
20
-123.60797782668905
30
1.075501993111328e-14
11
-418.34386386648021
21
-109.84058265745611
31
9.0690002884534946e-15
0
LINE
5
316
100
AcDbEntity
8
0
100
AcDbLine
10
-418.34386386648021
20
-109.8405826574561
30
9.0690002884534962e-15
11
-416.63359225991456
21
-111.97366235209819
31
9.3302272104904599e-15
0
LINE
5
317
100
AcDbEntity
8
0
100
AcDbLine
10
-424.87619277142915
20
-101.69335148529728
30
8.0712522307637128e-15
11
-429.68379227315376
21
-111.97035114553967
31
9.3298217046391367e-15
0
LINE
5
318
100
AcDbEntity
8
0
100
AcDbLine
10
-429.68379227315376
20
-111.97035114553967
30
9.3298217046391367e-15
11
-431.82260679225851
21
-110.59562284615393
31
9.1614660434851339e-15
0
LINE
5
319
100
AcDbEntity
8
0
100
AcDbLine
10
-431.82260679225851
20
-110.59562284615393
30
9.1614660434851371e-15
11
-426.77479944144136
21
-99.325377111889068
31
7.7812590070779803e-15
0
LINE
5
320
100
AcDbEntity
8
0
100
AcDbLine
10
-426.77479944144136
20
-99.325377111889068
30
7.7812590070779787e-15
11
-424.87619277142915
21
-101.69335148529728
31
8.0712522307637128e-15
0
SPLINE
5
321
100
AcDbEntity
8
0
100
AcDbSpline
70
0
71
2
72
6
73
3
74
0
42
0.000000001
43
0.0000000001
44
0.0000000001
40
0
40
0
40
0
40
1
40
1
40
1
10
-433.1685332777102
20
-89.467537391280018
30
6.574021821042833e-15
10
-431.80477209536775
20
-91.544088023700965
30
6.8283259295690037e-15
10
-431.65248859358286
20
-93.536674187863653
30
7.0723473563657165e-15
0
SPLINE
5
322
100
AcDbEntity
8
0
100
AcDbSpline
70
0
71
2
72
6
73
3
74
0
42
0.000000001
43
0.0000000001
44
0.0000000001
40
0
40
0
40
0
40
1
40
1
40
1
10
-431.65248859358286
20
-93.536674187863653
30
7.0723473563657165e-15
10
-431.50020724823861
20
-95.52926141170731
30
7.3163689129359237e-15
10
-432.53103746530462
20
-97.304659142450333
30
7.5337924277527144e-15
0
SPLINE
5
323
100
AcDbEntity
8
0
100
AcDbSpline
70
0
71
2
72
6
73
3
74
0
42
0.000000001
43
0.0000000001
44
0.0000000001
40
0
40
0
40
0
40
1
40
1
40
1
10
-432.53103746530462
20
-97.304659142450333
30
7.5337924277527144e-15
10
-433.5618696752129
20
-99.080058181979638
30
7.751216102849598e-15
10
-435.71936457928751
20
-100.49697899062296
30
7.9247388561446313e-15
0
LINE
5
324
100
AcDbEntity
8
0
100
AcDbLine
10
-435.71936457928751
20
-100.49697899062296
30
7.9247388561446313e-15
11
-440.78638331764148
21
-103.82471073849416
31
8.3322684594897785e-15
0
SPLINE
5
325
100
AcDbEntity
8
0
100
AcDbSpline
70
0
71
2
72
6
73
3
74
0
42
0.000000001
43
0.0000000001
44
0.0000000001
40
0
40
0
40
0
40
1
40
1
40
1
10
-440.78638331764148
20
-103.82471073849416
30
8.33226845948978e-15
10
-442.95230694817531
20
-105.24716705866427
30
8.5064691174321044e-15
10
-444.98491726629311
20
-105.48352394074166
30
8.5354144873413585e-15
0
SPLINE
5
326
100
AcDbEntity
8
0
100
AcDbSpline
70
0
71
2
72
6
73
3
74
0
42
0.000000001
43
0.0000000001
44
0.0000000001
40
0
40
0
40
0
40
1
40
1
40
1
10
-444.98491726629311
20
-105.48352394074166
30
8.5354144873413585e-15
10
-447.01752874443031
20
-105.71988122810693
30
8.5643599068840588e-15
10
-448.78989190120336
20
-104.78636294287344
30
8.4500368888883902e-15
0
SPLINE
5
327
100
AcDbEntity
8
0
100
AcDbSpline
70
0
71
2
72
6
73
3
74
0
42
0.000000001
43
0.0000000001
44
0.0000000001
40
0
40
0
40
0
40
1
40
1
40
1
10
-448.78989190120336
20
-104.78636294287344
30
8.4500368888883902e-15
10
-450.56225505797642
20
-103.85284465763999
30
8.33571387089272e-15
10
-451.92138248253178
20
-101.78334968334153
30
8.0822738312801063e-15
0
SPLINE
5
328
100
AcDbEntity
8
0
100
AcDbSpline
70
0
71
2
72
6
73
3
74
0
42
0.000000001
43
0.0000000001
44
0.0000000001
40
0
40
0
40
0
40
1
40
1
40
1
10
-451.92138248253178
20
-101.78334968334153
30
8.0822738312801063e-15
10
-453.28166818293562
20
-99.712091043617747
30
7.8286178049457029e-15
10
-453.43463033733542
20
-97.709711251944327
30
7.583397004690682e-15
0
SPLINE
5
329
100
AcDbEntity
8
0
100
AcDbSpline
70
0
71
2
72
6
73
3
74
0
42
0.000000001
43
0.0000000001
44
0.0000000001
40
0
40
0
40
0
40
1
40
1
40
1
10
-453.43463033733542
20
-97.709711251944327
30
7.583397004690682e-15
10
-453.58759448457755
20
-95.707332769057146
30
7.3381763647157524e-15
10
-452.56086115291271
20
-93.932100929137874
30
7.1207731656655913e-15
0
SPLINE
5
330
100
AcDbEntity
8
0
100
AcDbSpline
70
0
71
2
72
6
73
3
74
0
42
0.000000001
43
0.0000000001
44
0.0000000001
40
0
40
0
40
0
40
1
40
1
40
1
10
-452.56086115291271
20
-93.932100929137874
30
7.1207731656655913e-15
10
-451.53412782124792
20
-92.15686908921856
30
6.9033699666154286e-15
10
-449.37878717968715
20
-90.741363078532544
30
6.7300204760993822e-15
0
LINE
5
331
100
AcDbEntity
8
0
100
AcDbLine
10
-449.37878717968715
20
-90.741363078532544
30
6.7300204760993822e-15
11
-444.31176844133319
21
-87.41363133066136
31
6.322490872754235e-15
0
SPLINE
5
332
100
AcDbEntity
8
0
100
AcDbSpline
70
0
71
2
72
6
73
3
74
0
42
0.000000001
43
0.0000000001
44
0.0000000001
40
0
40
0
40
0
40
1
40
1
40
1
10
-444.31176844133319
20
-87.413631330661374
30
6.3224908727542335e-15
10
-442.16485752265282
20
-86.003661485895293
30
6.1498193670255261e-15
10
-440.12177512052403
20
-85.762530760107083
30
6.1202893698742658e-15
0
SPLINE
5
333
100
AcDbEntity
8
0
100
AcDbSpline
70
0
71
2
72
6
73
3
74
0
42
0.000000001
43
0.0000000001
44
0.0000000001
40
0
40
0
40
0
40
1
40
1
40
1
10
-440.12177512052403
20
-85.762530760107083
30
6.1202893698742658e-15
10
-438.07869405684426
20
-85.521402339526276
30
6.0907596550294936e-15
10
-436.30607339637271
20
-86.455312716480023
30
6.2051306904121828e-15
0
SPLINE
5
334
100
AcDbEntity
8
0
100
AcDbSpline
70
0
71
2
72
6
73
3
74
0
42
0.000000001
43
0.0000000001
44
0.0000000001
40
0
40
0
40
0
40
1
40
1
40
1
10
-436.30607339637271
20
-86.455312716480023
30
6.2051306904121828e-15
10
-434.53345273590116
20
-87.38922309343377
30
6.3195017257948719e-15
10
-433.1685332777102
20
-89.467537391280018
30
6.574021821042833e-15
0
SPLINE
5
335
100
AcDbEntity
8
0
100
AcDbSpline
70
0
71
2
72
6
73
3
74
0
42
0.000000001
43
0.0000000001
44
0.0000000001
40
0
40
0
40
0
40
1
40
1
40
1
10
-435.31818834022181
20
-90.879309434739199
30
6.7469140324576321e-15
10
-436.66084010882378
20
-88.834901355589693
30
6.4965462514294886e-15
10
-438.58520413658908
20
-88.511209066895233
30
6.456905378903654e-15
0
SPLINE
5
336
100
AcDbEntity
8
0
100
AcDbSpline
70
0
71
2
72
6
73
3
74
0
42
0.000000001
43
0.0000000001
44
0.0000000001
40
0
40
0
40
0
40
1
40
1
40
1
10
-438.58520413658908
20
-88.511209066895233
30
6.456905378903654e-15
10
-440.50956881874754
20
-88.187515781779638
30
6.4172643843514219e-15
10
-442.72488205613882
20
-89.642408406459552
30
6.595437343943157e-15
0
LINE
5
337
100
AcDbEntity
8
0
100
AcDbLine
10
-442.72488205613882
20
-89.642408406459552
30
6.595437343943157e-15
11
-447.96398272610588
21
-93.083153848700846
31
7.0168071331953216e-15
0
SPLINE
5
338
100
AcDbEntity
8
0
100
AcDbSpline
70
0
71
2
72
6
73
3
74
0
42
0.000000001
43
0.0000000001
44
0.0000000001
40
0
40
0
40
0
40
1
40
1
40
1
10
-447.96398272610588
20
-93.083153848700846
30
7.0168071331953216e-15
10
-450.17557333410218
20
-94.535601660629354
30
7.1946806895760065e-15
10
-450.6436548820966
20
-96.433182638668811
30
7.4270673366638969e-15
0
SPLINE
5
339
100
AcDbEntity
8
0
100
AcDbSpline
70
0
71
2
72
6
73
3
74
0
42
0.000000001
43
0.0000000001
44
0.0000000001
40
0
40
0
40
0
40
1
40
1
40
1
10
-450.6436548820966
20
-96.433182638668811
30
7.4270673366638969e-15
10
-451.11173577569787
20
-98.330764613129404
30
7.6594541057781848e-15
10
-449.77153012863363
20
-100.37144807004168
30
7.9093657521362418e-15
0
SPLINE
5
340
100
AcDbEntity
8
0
100
AcDbSpline
70
0
71
2
72
6
73
3
74
0
42
0.000000001
43
0.0000000001
44
0.0000000001
40
0
40
0
40
0
40
1
40
1
40
1
10
-449.77153012863363
20
-100.37144807004168
30
7.9093657521362418e-15
10
-448.43467104806041
20
-102.40703582922222
30
8.1586533555026404e-15
10
-446.51378333129907
20
-102.73034704048999
30
8.1982475595033954e-15
0
SPLINE
5
341
100
AcDbEntity
8
0
100
AcDbSpline
70
0
71
2
72
6
73
3
74
0
42
0.000000001
43
0.0000000001
44
0.0000000001
40
0
40
0
40
0
40
1
40
1
40
1
10
-446.51378333129907
20
-102.73034704048999
30
8.1982475595033954e-15
10
-444.5928964473606
20
-103.0536591552562
30
8.2378418741507938e-15
10
-442.3732697028359
20
-101.59593366269598
30
8.0593219883008565e-15
0
LINE
5
342
100
AcDbEntity
8
0
100
AcDbLine
10
-442.3732697028359
20
-101.59593366269598
30
8.0593219883008565e-15
11
-437.13416903286884
21
-98.15518822045469
31
7.6379521990486911e-15
0
SPLINE
5
343
100
AcDbEntity
8
0
100
AcDbSpline
70
0
71
2
72
6
73
3
74
0
42
0.000000001
43
0.0000000001
44
0.0000000001
40
0
40
0
40
0
40
1
40
1
40
1
10
-437.13416903286884
20
-98.15518822045469
30
7.6379521990486911e-15
10
-434.91062336398375
20
-96.694888999695507
30
7.4591171223986832e-15
10
-434.4447543292676
20
-94.806755937766738
30
7.2278875113331462e-15
0
SPLINE
5
344
100
AcDbEntity
8
0
100
AcDbSpline
70
0
71
2
72
6
73
3
74
0
42
0.000000001
43
0.0000000001
44
0.0000000001
40
0
40
0
40
0
40
1
40
1
40
1
10
-434.4447543292676
20
-94.806755937766738
30
7.2278875113331462e-15
10
-433.97888379250412
20
-92.918620819735835
30
6.9966576484677205e-15
10
-435.31818834022181
20
-90.879309434739199
30
6.7469140324576321e-15
0
SPLINE
5
345
100
AcDbEntity
8
0
100
AcDbSpline
70
0
71
2
72
6
73
3
74
0
42
0.000000001
43
0.0000000001
44
0.0000000001
40
0
40
0
40
0
40
1
40
1
40
1
10
-443.48773407011618
20
-71.777545674858032
30
4.4076226477968944e-15
10
-441.70714866814478
20
-75.249339672699818
30
4.8327947884724885e-15
10
-442.62801571847723
20
-77.914524740690027
30
5.1591858247374404e-15
0
SPLINE
5
346
100
AcDbEntity
8
0
100
AcDbSpline
70
0
71
2
72
6
73
3
74
0
42
0.000000001
43
0.0000000001
44
0.0000000001
40
0
40
0
40
0
40
1
40
1
40
1
10
-442.62801571847723
20
-77.914524740690027
30
5.1591858247374404e-15
10
-443.54888290481341
20
-80.57970954349949
30
5.4855768285271179e-15
10
-447.14523653974311
20
-82.424178076673797
30
5.7114590770551113e-15
0
LINE
5
347
100
AcDbEntity
8
0
100
AcDbLine
10
-447.14523653974311
20
-82.424178076673797
30
5.7114590770551113e-15
11
-459.69293369202103
21
-88.859538697607235
31
6.4995634556336166e-15
0
LINE
5
348
100
AcDbEntity
8
0
100
AcDbLine
10
-459.69293369202114
20
-88.859538697607235
30
6.4995634556336166e-15
11
-460.94062748467957
21
-86.426779327739212
31
6.2016363580931569e-15
0
LINE
5
349
100
AcDbEntity
8
0
100
AcDbLine
10
-460.94062748467957
20
-86.426779327739212
30
6.2016363580931561e-15
11
-448.30133690435105
21
-79.94444301613845
31
5.407779116593304e-15
0
SPLINE
5
350
100
AcDbEntity
8
0
100
AcDbSpline
70
0
71
2
72
6
73
3
74
0
42
0.000000001
43
0.0000000001
44
0.0000000001
40
0
40
0
40
0
40
1
40
1
40
1
10
-448.30133690435105
20
-79.944443016138464
30
5.407779116593304e-15
10
-445.90154241761684
20
-78.713655983996929
30
5.2570511766588848e-15
10
-445.30474821854943
20
-77.002741142999668
30
5.0475245382947845e-15
0
SPLINE
5
351
100
AcDbEntity
8
0
100
AcDbSpline
70
0
71
2
72
6
73
3
74
0
42
0.000000001
43
0.0000000001
44
0.0000000001
40
0
40
0
40
0
40
1
40
1
40
1
10
-445.30474821854943
20
-77.002741142999668
30
5.0475245382947845e-15
10
-444.70795586892058
20
-75.291827920393786
30
4.8379980981264676e-15
10
-445.88085236650716
20
-73.004908676923591
30
4.5579312649840422e-15
0
SPLINE
5
352
100
AcDbEntity
8
0
100
AcDbSpline
70
0
71
2
72
6
73
3
74
0
42
0.000000001
43
0.0000000001
44
0.0000000001
40
0
40
0
40
0
40
1
40
1
40
1
10
-445.88085236650716
20
-73.004908676923591
30
4.5579312649840422e-15
10
-447.06337983270657
20
-70.699210924437864
30
4.2755647277457514e-15
10
-448.81075296566394
20
-70.177509874300512
30
4.2116747756294999e-15
0
SPLINE
5
353
100
AcDbEntity
8
0
100
AcDbSpline
70
0
71
2
72
6
73
3
74
0
42
0.000000001
43
0.0000000001
44
0.0000000001
40
0
40
0
40
0
40
1
40
1
40
1
10
-448.81075296566394
20
-70.177509874300512
30
4.2116747756294999e-15
10
-450.55812664263624
20
-69.655807763440194
30
4.1477846936121496e-15
10
-452.94915743623159
20
-70.882100144090202
30
4.2979621974903311e-15
0
LINE
5
354
100
AcDbEntity
8
0
100
AcDbLine
10
-452.94915743623159
20
-70.882100144090202
30
4.2979621974903311e-15
11
-465.58844801656005
21
-77.364436455690949
31
5.0918194389901832e-15
0
LINE
5
355
100
AcDbEntity
8
0
100
AcDbLine
10
-465.58844801656005
20
-77.364436455690964
30
5.0918194389901832e-15
11
-466.83614194522227
21
-74.93167682064221
31
4.7938923089744499e-15
0
LINE
5
356
100
AcDbEntity
8
0
100
AcDbLine
10
-466.83614194522227
20
-74.931676820642195
30
4.7938923089744483e-15
11
-454.28844479294423
21
-68.496316199708772
31
4.0057879303959438e-15
0
SPLINE
5
357
100
AcDbEntity
8
0
100
AcDbSpline
70
0
71
2
72
6
73
3
74
0
42
0.000000001
43
0.0000000001
44
0.0000000001
40
0
40
0
40
0
40
1
40
1
40
1
10
-454.28844479294423
20
-68.496316199708772
30
4.0057879303959446e-15
10
-450.70022902460408
20
-66.656021349207293
30
3.7804168105805462e-15
10
-447.98887552676695
20
-67.471914918271565
30
3.8803349553604932e-15
0
SPLINE
5
358
100
AcDbEntity
8
0
100
AcDbSpline
70
0
71
2
72
6
73
3
74
0
42
0.000000001
43
0.0000000001
44
0.0000000001
40
0
40
0
40
0
40
1
40
1
40
1
10
-447.98887552676695
20
-67.471914918271565
30
3.8803349553604932e-15
10
-445.2775225729448
20
-68.287807426612886
30
3.9802529702393422e-15
10
-443.48773407011618
20
-71.777545674858032
30
4.4076226477968944e-15
0
SPLINE
5
359
100
AcDbEntity
8
0
100
AcDbSpline
70
0
71
2
72
6
73
3
74
0
42
0.000000001
43
0.0000000001
44
0.0000000001
40
0
40
0
40
0
40
1
40
1
40
1
10
-451.52311617209966
20
-53.611230370029894
30
2.1828906587609584e-15
10
-450.9627193099077
20
-55.113745803928907
30
2.3668957304403511e-15
10
-450.75306599556234
20
-56.536735050979487
30
2.5411616531025096e-15
0
SPLINE
5
360
100
AcDbEntity
8
0
100
AcDbSpline
70
0
71
2
72
6
73
3
74
0
42
0.000000001
43
0.0000000001
44
0.0000000001
40
0
40
0
40
0
40
1
40
1
40
1
10
-450.75306599556234
20
-56.536735050979487
30
2.5411616531025096e-15
10
-450.54341491508535
20
-57.959725131201381
30
2.7154276777987283e-15
10
-450.67903475673495
20
-59.320543284073253
30
2.8820798373123427e-15
0
SPLINE
5
361
100
AcDbEntity
8
0
100
AcDbSpline
70
0
71
2
72
6
73
3
74
0
42
0.000000001
43
0.0000000001
44
0.0000000001
40
0
40
0
40
0
40
1
40
1
40
1
10
-450.67903475673495
20
-59.320543284073253
30
2.8820798373123427e-15
10
-450.81465459838461
20
-60.68136143694511
30
3.0487319968259568e-15
10
-451.4261773014739
20
-62.171253207015681
30
3.2311911155552462e-15
0
LINE
5
362
100
AcDbEntity
8
0
100
AcDbLine
10
-451.4261773014739
20
-62.171253207015681
30
3.2311911155552462e-15
11
-453.86154593922527
21
-61.437622996133044
31
3.1413473266037244e-15
0
SPLINE
5
363
100
AcDbEntity
8
0
100
AcDbSpline
70
0
71
2
72
6
73
3
74
0
42
0.000000001
43
0.0000000001
44
0.0000000001
40
0
40
0
40
0
40
1
40
1
40
1
10
-453.86154593922527
20
-61.437622996133037
30
3.1413473266037244e-15
10
-453.26518388168375
20
-59.553470985722406
30
2.9106052537380819e-15
10
-453.27641262658176
20
-57.896558309124764
30
2.7076919731518828e-15
0
SPLINE
5
364
100
AcDbEntity
8
0
100
AcDbSpline
70
0
71
2
72
6
73
3
74
0
42
0.000000001
43
0.0000000001
44
0.0000000001
40
0
40
0
40
0
40
1
40
1
40
1
10
-453.27641262658176
20
-57.896558309124764
30
2.7076919731518828e-15
10
-453.28763892931869
20
-56.239645357822852
30
2.5047786589241159e-15
10
-453.9327630659941
20
-54.509962275115882
30
2.2929535738464732e-15
0
SPLINE
5
365
100
AcDbEntity
8
0
100
AcDbSpline
70
0
71
2
72
6
73
3
74
0
42
0.000000001
43
0.0000000001
44
0.0000000001
40
0
40
0
40
0
40
1
40
1
40
1
10
-453.9327630659941
20
-54.509962275115882
30
2.2929535738464732e-15
10
-454.86648441725919
20
-52.006502966387345
30
1.9863682309234697e-15
10
-456.30517373380246
20
-51.051169517460309
30
1.8693736258887792e-15
0
SPLINE
5
366
100
AcDbEntity
8
0
100
AcDbSpline
70
0
71
2
72
6
73
3
74
0
42
0.000000001
43
0.0000000001
44
0.0000000001
40
0
40
0
40
0
40
1
40
1
40
1
10
-456.30517373380246
20
-51.051169517460309
30
1.8693736258887792e-15
10
-457.74386039989173
20
-50.095836352296089
30
1.752379055605012e-15
10
-459.45003536988406
20
-50.732192610582956
30
1.8303102210878525e-15
0
LINE
5
367
100
AcDbEntity
8
0
100
AcDbLine
10
-459.45003536988406
20
-50.732192610582956
30
1.8303102210878525e-15
11
-459.46387641767046
21
-50.737354940083165
31
1.8309424241177089e-15
0
SPLINE
5
368
100
AcDbEntity
8
0
100
AcDbSpline
70
0
71
2
72
6
73
3
74
0
42
0.000000001
43
0.0000000001
44
0.0000000001
40
0
40
0
40
0
40
1
40
1
40
1
10
-459.46387641767046
20
-50.737354940083165
30
1.8309424241177089e-15
10
-460.59795772431778
20
-51.160336023256825
30
1.88274266707856e-15
10
-460.97521598665821
20
-52.009152957168595
30
1.9866927611962707e-15
0
SPLINE
5
369
100
AcDbEntity
8
0
100
AcDbSpline
70
0
71
2
72
6
73
3
74
0
42
0.000000001
43
0.0000000001
44
0.0000000001
40
0
40
0
40
0
40
1
40
1
40
1
10
-460.97521598665821
20
-52.009152957168595
30
1.9866927611962707e-15
10
-461.35247606628133
20
-52.857971841185801
30
2.0906430941330228e-15
10
-461.28505129094265
20
-54.064353314039515
30
2.2383822150611189e-15
0
SPLINE
5
370
100
AcDbEntity
8
0
100
AcDbSpline
70
0
71
2
72
6
73
3
74
0
42
0.000000001
43
0.0000000001
44
0.0000000001
40
0
40
0
40
0
40
1
40
1
40
1
10
-461.28505129094265
20
-54.064353314039515
30
2.2383822150611189e-15
10
-461.21762651560402
20
-55.270734786893236
30
2.3861213359892166e-15
10
-460.98816110729621
20
-56.625395515531487
30
2.5520194285149631e-15
0
SPLINE
5
371
100
AcDbEntity
8
0
100
AcDbSpline
70
0
71
2
72
6
73
3
74
0
42
0.000000001
43
0.0000000001
44
0.0000000001
40
0
40
0
40
0
40
1
40
1
40
1
10
-460.98816110729621
20
-56.625395515531487
30
2.5520194285149631e-15
10
-460.76556766080216
20
-57.970357417573609
30
2.7167297573460636e-15
10
-460.59962302525292
20
-59.272131267690781
30
2.8761510752220365e-15
0
SPLINE
5
372
100
AcDbEntity
8
0
100
AcDbSpline
70
0
71
2
72
6
73
3
74
0
42
0.000000001
43
0.0000000001
44
0.0000000001
40
0
40
0
40
0
40
1
40
1
40
1
10
-460.59962302525292
20
-59.272131267690781
30
2.8761510752220365e-15
10
-460.43367971493075
20
-60.573904975926553
30
3.0355723757225486e-15
10
-460.58519262478399
20
-61.8280339550709
30
3.1891588797252541e-15
0
SPLINE
5
373
100
AcDbEntity
8
0
100
AcDbSpline
70
0
71
2
72
6
73
3
74
0
42
0.000000001
43
0.0000000001
44
0.0000000001
40
0
40
0
40
0
40
1
40
1
40
1
10
-460.58519262478399
20
-61.8280339550709
30
3.1891588797252541e-15
10
-460.73670543049082
20
-63.08216321344878
30
3.3427454179242058e-15
10
-461.50486262944253
20
-64.107807254735562
30
3.468350587146847e-15
0
SPLINE
5
374
100
AcDbEntity
8
0
100
AcDbSpline
70
0
71
2
72
6
73
3
74
0
42
0.000000001
43
0.0000000001
44
0.0000000001
40
0
40
0
40
0
40
1
40
1
40
1
10
-461.50486262944253
20
-64.107807254735562
30
3.468350587146847e-15
10
-462.27302099740149
20
-65.133451572991248
30
3.5939557902883962e-15
10
-463.9163628376956
20
-65.74637280496809
30
3.6690169927753858e-15
0
LINE
5
375
100
AcDbEntity
8
0
100
AcDbLine
10
-463.9163628376956
20
-65.74637280496809
30
3.6690169927753858e-15
11
-463.92998384945759
21
-65.751453067093252
31
3.6696391454504265e-15
0
SPLINE
5
376
100
AcDbEntity
8
0
100
AcDbSpline
70
0
71
2
72
6
73
3
74
0
42
0.000000001
43
0.0000000001
44
0.0000000001
40
0
40
0
40
0
40
1
40
1
40
1
10
-463.92998384945759
20
-65.751453067093252
30
3.6696391454504265e-15
10
-466.8605353153439
20
-66.844468026489167
30
3.8034948725948654e-15
10
-469.20027504356773
20
-65.493943010406795
30
3.6381032587834943e-15
0
SPLINE
5
377
100
AcDbEntity
8
0
100
AcDbSpline
70
0
71
2
72
6
73
3
74
0
42
0.000000001
43
0.0000000001
44
0.0000000001
40
0
40
0
40
0
40
1
40
1
40
1
10
-469.20027504356773
20
-65.493943010406795
30
3.6381032587834943e-15
10
-471.54001737017239
20
-64.14341785017838
30
3.4727116273193241e-15
10
-472.84222852563204
20
-60.651977245710434
30
3.0451334712518485e-15
0
SPLINE
5
378
100
AcDbEntity
8
0
100
AcDbSpline
70
0
71
2
72
6
73
3
74
0
42
0.000000001
43
0.0000000001
44
0.0000000001
40
0
40
0
40
0
40
1
40
1
40
1
10
-472.84222852563204
20
-60.651977245710434
30
3.0451334712518485e-15
10
-473.45359297699702
20
-59.012809388274484
30
2.8443933042644324e-15
10
-473.51200638703222
20
-57.222339244401041
30
2.6251239511980802e-15
0
SPLINE
5
379
100
AcDbEntity
8
0
100
AcDbSpline
70
0
71
2
72
6
73
3
74
0
42
0.000000001
43
0.0000000001
44
0.0000000001
40
0
40
0
40
0
40
1
40
1
40
1
10
-473.51200638703222
20
-57.222339244401041
30
2.6251239511980802e-15
10
-473.57042021365305
20
-55.431867983593463
30
2.4058544613467475e-15
10
-472.93299744810679
20
-53.329690175539866
30
2.1484119289596047e-15
0
LINE
5
380
100
AcDbEntity
8
0
100
AcDbLine
10
-472.93299744810679
20
-53.329690175539866
30
2.1484119289596047e-15
11
-470.51297741362106
21
-54.021496256598162
31
2.2331337392394759e-15
0
SPLINE
5
381
100
AcDbEntity
8
0
100
AcDbSpline
70
0
71
2
72
6
73
3
74
0
42
0.000000001
43
0.0000000001
44
0.0000000001
40
0
40
0
40
0
40
1
40
1
40
1
10
-470.51297741362112
20
-54.021496256598162
30
2.2331337392394752e-15
10
-470.89113915805467
20
-55.863305730514234
30
2.4586903469265353e-15
10
-470.87676328304997
20
-57.23174640306862
30
2.6262759958732135e-15
0
SPLINE
5
382
100
AcDbEntity
8
0
100
AcDbSpline
70
0
71
2
72
6
73
3
74
0
42
0.000000001
43
0.0000000001
44
0.0000000001
40
0
40
0
40
0
40
1
40
1
40
1
10
-470.87676328304997
20
-57.23174640306862
30
2.6262759958732135e-15
10
-470.86238894156497
20
-58.600186375274539
30
2.7938615590519404e-15
10
-470.43236047877906
20
-59.753162856663749
30
2.9350604547944875e-15
0
SPLINE
5
383
100
AcDbEntity
8
0
100
AcDbSpline
70
0
71
2
72
6
73
3
74
0
42
0.000000001
43
0.0000000001
44
0.0000000001
40
0
40
0
40
0
40
1
40
1
40
1
10
-470.43236047877906
20
-59.753162856663749
30
2.9350604547944875e-15
10
-469.55452326064773
20
-62.106787685207948
30
3.2232963660615263e-15
10
-468.13417626739806
20
-63.004895190254011
30
3.3332828141960145e-15
0
SPLINE
5
384
100
AcDbEntity
8
0
100
AcDbSpline
70
0
71
2
72
6
73
3
74
0
42
0.000000001
43
0.0000000001
44
0.0000000001
40
0
40
0
40
0
40
1
40
1
40
1
10
-468.13417626739806
20
-63.004895190254011
30
3.3332828141960145e-15
10
-466.71382927414845
20
-63.903002695300081
30
3.4432692623305028e-15
10
-464.95800323110518
20
-63.248127954663914
30
3.3630702368342495e-15
0
LINE
5
385
100
AcDbEntity
8
0
100
AcDbLine
10
-464.95800323110518
20
-63.248127954663914
30
3.3630702368342495e-15
11
-464.94416218331878
21
-63.242965625163706
31
3.3624380338043928e-15
0
SPLINE
5
386
100
AcDbEntity
8
0
100
AcDbSpline
70
0
71
2
72
6
73
3
74
0
42
0.000000001
43
0.0000000001
44
0.0000000001
40
0
40
0
40
0
40
1
40
1
40
1
10
-464.94416218331884
20
-63.24296562516372
30
3.3624380338043928e-15
10
-463.82458091559681
20
-62.825392657029724
30
3.3113000939208177e-15
10
-463.49772745222174
20
-61.917919690590175
30
3.2001667075545228e-15
0
SPLINE
5
387
100
AcDbEntity
8
0
100
AcDbSpline
70
0
71
2
72
6
73
3
74
0
42
0.000000001
43
0.0000000001
44
0.0000000001
40
0
40
0
40
0
40
1
40
1
40
1
10
-463.49772745222174
20
-61.917919690590175
30
3.2001667075545228e-15
10
-463.17087419713948
20
-61.010446165683554
30
3.0890332527957371e-15
10
-463.29100409002581
20
-59.71072975006291
30
2.9298638979768281e-15
0
SPLINE
5
388
100
AcDbEntity
8
0
100
AcDbSpline
70
0
71
2
72
6
73
3
74
0
42
0.000000001
43
0.0000000001
44
0.0000000001
40
0
40
0
40
0
40
1
40
1
40
1
10
-463.29100409002581
20
-59.71072975006291
30
2.9298638979768281e-15
10
-463.41113377461932
20
-58.411013892909338
30
2.7706946115504095e-15
10
-463.64288584364704
20
-56.953598078128437
30
2.5922126502905934e-15
0
SPLINE
5
389
100
AcDbEntity
8
0
100
AcDbSpline
70
0
71
2
72
6
73
3
74
0
42
0.000000001
43
0.0000000001
44
0.0000000001
40
0
40
0
40
0
40
1
40
1
40
1
10
-463.64288584364704
20
-56.953598078128437
30
2.5922126502905934e-15
10
-463.84477717881424
20
-55.680246512567066
30
2.4362720583951927e-15
10
-463.95348334951251
20
-54.407802272229581
30
2.280442581792914e-15
0
SPLINE
5
390
100
AcDbEntity
8
0
100
AcDbSpline
70
0
71
2
72
6
73
3
74
0
42
0.000000001
43
0.0000000001
44
0.0000000001
40
0
40
0
40
0
40
1
40
1
40
1
10
-463.95348334951251
20
-54.407802272229581
30
2.280442581792914e-15
10
-464.06218952021072
20
-53.135358031892096
30
2.1246131051906352e-15
10
-463.84262086398553
20
-51.937555733683283
30
1.9779246301393582e-15
0
SPLINE
5
391
100
AcDbEntity
8
0
100
AcDbSpline
70
0
71
2
72
6
73
3
74
0
42
0.000000001
43
0.0000000001
44
0.0000000001
40
0
40
0
40
0
40
1
40
1
40
1
10
-463.84262086398553
20
-51.937555733683283
30
1.9779246301393582e-15
10
-463.62305067424052
20
-50.739754135822935
30
1.8312362408560336e-15
10
-462.83659045434695
20
-49.777606322918366
30
1.7134071169180132e-15
0
SPLINE
5
392
100
AcDbEntity
8
0
100
AcDbSpline
70
0
71
2
72
6
73
3
74
0
42
0.000000001
43
0.0000000001
44
0.0000000001
40
0
40
0
40
0
40
1
40
1
40
1
10
-462.83659045434695
20
-49.777606322918366
30
1.7134071169180132e-15
10
-462.05013246832164
20
-48.815459343185125
30
1.5955780950140517e-15
10
-460.49159385213829
20
-48.234167377452842
30
1.5243903604936412e-15
0
LINE
5
393
100
AcDbEntity
8
0
100
AcDbLine
10
-460.49159385213829
20
-48.234167377452842
30
1.5243903604936412e-15
11
-460.46413067565584
21
-48.223924369241828
31
1.5231359537717149e-15
0
SPLINE
5
394
100
AcDbEntity
8
0
100
AcDbSpline
70
0
71
2
72
6
73
3
74
0
42
0.000000001
43
0.0000000001
44
0.0000000001
40
0
40
0
40
0
40
1
40
1
40
1
10
-460.46413067565584
20
-48.223924369241828
30
1.5231359537717145e-15
10
-457.55972217010583
20
-47.140660013806666
30
1.3904743312203056e-15
10
-455.21444413236458
20
-48.571455445598382
30
1.5656962357981437e-15
0
SPLINE
5
395
100
AcDbEntity
8
0
100
AcDbSpline
70
0
71
2
72
6
73
3
74
0
42
0.000000001
43
0.0000000001
44
0.0000000001
40
0
40
0
40
0
40
1
40
1
40
1
10
-455.21444413236458
20
-48.571455445598382
30
1.5656962357981437e-15
10
-452.86916609462344
20
-50.002250877390104
30
1.7409181403759824e-15
10
-451.52311617209966
20
-53.611230370029894
30
2.1828906587609584e-15
0
LINE
5
396
100
AcDbEntity
8
0
100
AcDbLine
10
-455.59362207260153
20
-42.020266953494236
30
7.6340703405151157e-16
11
-458.49594577872443
21
-42.83059325206429
31
8.6264338483238504e-16
0
LINE
5
397
100
AcDbEntity
8
0
100
AcDbLine
10
-458.49594577872438
20
-42.83059325206429
30
8.6264338483238504e-16
11
-459.31030782769233
21
-39.913814808297445
31
5.0544104633427913e-16
0
LINE
5
398
100
AcDbEntity
8
0
100
AcDbLine
10
-459.31030782769233
20
-39.913814808297445
30
5.0544104633427903e-16
11
-456.40798412156937
21
-39.103488509727391
31
4.0620469555340551e-16
0
LINE
5
399
100
AcDbEntity
8
0
100
AcDbLine
10
-456.40798412156937
20
-39.103488509727391
30
4.0620469555340551e-16
11
-455.59362207260142
21
-42.020266953494236
31
7.6340703405151157e-16
0
LINE
5
400
100
AcDbEntity
8
0
100
AcDbLine
10
-457.495564618412
20
-34.760854128959693
30
-1.2561463387403631e-16
11
-460.43408726609562
21
-35.428084414789119
31
-4.3902490490518152e-17
0
LINE
5
401
100
AcDbEntity
8
0
100
AcDbLine
10
-460.43408726609562
20
-35.428084414789119
30
-4.3902490490518201e-17
11
-461.10464062671144
21
-32.474926744194981
31
-4.0555999935757517e-16
0
LINE
5
402
100
AcDbEntity
8
0
100
AcDbLine
10
-461.10464062671144
20
-32.474926744194974
30
-4.0555999935757527e-16
11
-458.16611797902783
21
-31.807696458365548
31
-4.8727214274109348e-16
0
LINE
5
403
100
AcDbEntity
8
0
100
AcDbLine
10
-458.16611797902789
20
-31.807696458365548
30
-4.8727214274109338e-16
11
-457.49556461841212
21
-34.760854128959686
31
-1.2561463387403643e-16
0
LINE
5
404
100
AcDbEntity
8
0
100
AcDbLine
10
-461.45537611867667
20
-14.196890197420169
30
-2.643973894528185e-15
11
-481.31121403992745
21
-15.859300618302175
31
-2.4403873344479503e-15
0
LINE
5
405
100
AcDbEntity
8
0
100
AcDbLine
10
-481.31121403992734
20
-15.859300618302177
30
-2.4403873344479503e-15
11
-481.43665389121065
21
-14.361046441919935
31
-2.6238705525895169e-15
0
LINE
5
406
100
AcDbEntity
8
0
100
AcDbLine
10
-481.43665389121077
20
-14.361046441919939
30
-2.6238705525895169e-15
11
-461.58081596995999
21
-12.698636021037933
31
-2.8274571126697516e-15
0
LINE
5
407
100
AcDbEntity
8
0
100
AcDbLine
10
-461.58081596995999
20
-12.698636021037931
30
-2.8274571126697516e-15
11
-461.45537611867667
21
-14.196890197420171
31
-2.643973894528185e-15
0
LINE
5
408
100
AcDbEntity
8
0
100
AcDbLine
10
-479.61888190905432
20
-22.846555990802564
30
-1.584695341772176e-15
11
-482.18194545118649
21
-23.061145954657128
31
-1.5584156505358127e-15
0
LINE
5
409
100
AcDbEntity
8
0
100
AcDbLine
10
-482.18194545118649
20
-23.061145954657128
30
-1.5584156505358123e-15
11
-483.49280347286088
21
-7.4042515504892847
31
-3.4758322122010374e-15
0
LINE
5
410
100
AcDbEntity
8
0
100
AcDbLine
10
-483.49280347286083
20
-7.4042515504892847
30
-3.4758322122010374e-15
11
-480.92973993072866
21
-7.1896615866347222
31
-3.5021119034374007e-15
0
LINE
5
411
100
AcDbEntity
8
0
100
AcDbLine
10
-480.92973993072866
20
-7.189661586634724
30
-3.5021119034374007e-15
11
-479.61888190905427
21
-22.846555990802564
31
-1.5846953417721758e-15
0
LINE
5
412
100
AcDbEntity
8
0
100
AcDbLine
10
-461.05199213826188
20
10.941447207858017
30
-5.7225323384541986e-15
11
-483.0225829440775
21
11.958964038401136
31
-5.8471422114145177e-15
0
LINE
5
413
100
AcDbEntity
8
0
100
AcDbLine
10
-483.02258294407756
20
11.958964038401136
30
-5.8471422114145177e-15
11
-482.89609709432
21
14.690092177349246
31
-6.1816089447569252e-15
0
LINE
5
414
100
AcDbEntity
8
0
100
AcDbLine
10
-482.89609709432
20
14.690092177349246
30
-6.1816089447569252e-15
11
-460.92550628850438
21
13.672575346806127
31
-6.0569990717966053e-15
0
LINE
5
415
100
AcDbEntity
8
0
100
AcDbLine
10
-460.92550628850432
20
13.672575346806131
30
-6.0569990717966053e-15
11
-461.05199213826188
21
10.941447207858022
31
-5.7225323384541986e-15
0
LINE
5
416
100
AcDbEntity
8
0
100
AcDbLine
10
-461.65509966156765
20
-2.0810682029046537
30
-4.1277341569904394e-15
11
-483.62569046738321
21
-1.0635513723615353
31
-4.2523440299507594e-15
0
LINE
5
417
100
AcDbEntity
8
0
100
AcDbLine
10
-483.62569046738321
20
-1.0635513723615353
30
-4.2523440299507594e-15
11
-483.49920463141308
21
1.6675764688824475
31
-4.5868107268349251e-15
0
LINE
5
418
100
AcDbEntity
8
0
100
AcDbLine
10
-483.49920463141314
20
1.6675764688824479
30
-4.5868107268349259e-15
11
-461.52861382559757
21
0.65005963833932956
31
-4.462200853874606e-15
0
LINE
5
419
100
AcDbEntity
8
0
100
AcDbLine
10
-461.52861382559752
20
0.65005963833932978
30
-4.462200853874606e-15
11
-461.65509966156765
21
-2.0810682029046528
31
-4.1277341569904402e-15
0
LINE
5
420
100
AcDbEntity
8
0
100
AcDbLine
10
-471.69927302755161
20
0.4288628965649921
30
-4.4351120656950299e-15
11
-473.14260098757239
21
0.49570727522984981
31
-4.4432981411323205e-15
0
LINE
5
421
100
AcDbEntity
8
0
100
AcDbLine
10
-473.14260098757239
20
0.4957072752298497
30
-4.4432981411323205e-15
11
-472.58089969053844
21
12.624164497546499
31
-5.928605772722889e-15
0
LINE
5
422
100
AcDbEntity
8
0
100
AcDbLine
10
-472.58089969053844
20
12.624164497546499
30
-5.928605772722889e-15
11
-471.13757173051766
21
12.557320118881641
31
-5.9204196972855976e-15
0
LINE
5
423
100
AcDbEntity
8
0
100
AcDbLine
10
-471.13757173051766
20
12.557320118881643
30
-5.9204196972855984e-15
11
-471.69927302755161
21
0.4288628965649921
31
-4.4351120656950307e-15
0
LINE
5
424
100
AcDbEntity
8
0
100
AcDbLine
10
-460.59292788205676
20
17.254938453860728
30
-6.4957120230404021e-15
11
-480.71246365852414
21
29.193120718651492
31
-7.9577176928617735e-15
0
LINE
5
425
100
AcDbEntity
8
0
100
AcDbLine
10
-480.71246365852414
20
29.193120718651492
30
-7.9577176928617735e-15
11
-480.15320995971615
21
32.136908682670324
31
-8.3182277436121908e-15
0
LINE
5
426
100
AcDbEntity
8
0
100
AcDbLine
10
-480.15320995971615
20
32.136908682670331
30
-8.3182277436121908e-15
11
-457.05635559592065
21
35.870673945640362
31
-8.775482111418573e-15
0
LINE
5
427
100
AcDbEntity
8
0
100
AcDbLine
10
-457.05635559592065
20
35.870673945640362
30
-8.775482111418573e-15
11
-457.59490935473201
21
33.035845894355475
31
-8.4283158015046564e-15
0
LINE
5
428
100
AcDbEntity
8
0
100
AcDbLine
10
-457.59490935473201
20
33.035845894355475
30
-8.4283158015046564e-15
11
-477.66022800759112
21
30.138161076011116
31
-8.073451757732327e-15
0
LINE
5
429
100
AcDbEntity
8
0
100
AcDbLine
10
-477.66022800759112
20
30.138161076011116
30
-8.073451757732327e-15
11
-460.05542457505982
21
20.084237158778144
31
-6.8422011833212894e-15
0
LINE
5
430
100
AcDbEntity
8
0
100
AcDbLine
10
-460.05542457505982
20
20.084237158778144
30
-6.8422011833212894e-15
11
-460.59292788205676
21
17.254938453860728
31
-6.4957120230404021e-15
0
LINE
5
431
100
AcDbEntity
8
0
100
AcDbLine
10
-465.49226265586503
20
22.511217824619543
30
-7.1394205937228068e-15
11
-466.83941553245279
21
22.767146661308931
31
-7.1707628367889252e-15
0
LINE
5
432
100
AcDbEntity
8
0
100
AcDbLine
10
-466.83941553245279
20
22.767146661308935
30
-7.1707628367889252e-15
11
-464.85342780845053
21
33.220947451661274
31
-8.4509842044718307e-15
0
LINE
5
433
100
AcDbEntity
8
0
100
AcDbLine
10
-464.85342780845042
20
33.220947451661274
30
-8.4509842044718307e-15
11
-463.50627493186272
21
32.965018614971889
31
-8.419641961405714e-15
0
LINE
5
434
100
AcDbEntity
8
0
100
AcDbLine
10
-463.50627493186278
20
32.965018614971889
30
-8.419641961405714e-15
11
-465.49226265586503
21
22.511217824619543
31
-7.1394205937228068e-15
0
LINE
5
435
100
AcDbEntity
8
0
100
AcDbLine
10
-455.24834437552863
20
43.413837097714925
30
-9.6992531723820091e-15
11
-474.25330995314209
21
49.399586119864232
31
-1.0432296010429463e-14
0
LINE
5
436
100
AcDbEntity
8
0
100
AcDbLine
10
-474.25330995314209
20
49.399586119864225
30
-1.0432296010429463e-14
11
-473.80164563624049
21
50.833636355446856
31
-1.060791651351174e-14
0
LINE
5
437
100
AcDbEntity
8
0
100
AcDbLine
10
-473.80164563624049
20
50.833636355446856
30
-1.060791651351174e-14
11
-454.79668005862698
21
44.847887333297564
31
-9.8748736754642861e-15
0
LINE
5
438
100
AcDbEntity
8
0
100
AcDbLine
10
-454.79668005862698
20
44.847887333297564
30
-9.8748736754642861e-15
11
-455.24834437552863
21
43.413837097714925
31
-9.6992531723820091e-15
0
LINE
5
439
100
AcDbEntity
8
0
100
AcDbLine
10
-475.33494328671259
20
42.292139671706494
30
-9.5618848561447032e-15
11
-477.78817314206538
21
43.064801855587653
31
-9.656508683175931e-15
0
LINE
5
440
100
AcDbEntity
8
0
100
AcDbLine
10
-477.78817314206538
20
43.064801855587653
30
-9.656508683175931e-15
11
-473.06823935023374
21
58.050759153570873
31
-1.1491759146889339e-14
0
LINE
5
441
100
AcDbEntity
8
0
100
AcDbLine
10
-473.0682393502338
20
58.050759153570873
30
-1.1491759146889339e-14
11
-470.61500949488106
21
57.278096969689713
31
-1.1397135319858111e-14
0
LINE
5
442
100
AcDbEntity
8
0
100
AcDbLine
10
-470.61500949488101
20
57.278096969689713
30
-1.1397135319858111e-14
11
-475.33494328671259
21
42.292139671706494
31
-9.5618848561447032e-15
0
LINE
5
443
100
AcDbEntity
8
0
100
AcDbLine
10
-464.01108032048654
20
58.725218143475921
30
-1.1574356551203677e-14
11
-471.56077787263041
21
61.671942307037114
31
-1.1935226182691215e-14
0
LINE
5
444
100
AcDbEntity
8
0
100
AcDbLine
10
-471.56077787263052
20
61.671942307037128
30
-1.1935226182691215e-14
11
-470.56668609966084
21
64.2188696094981
31
-1.2247134819553198e-14
0
LINE
5
445
100
AcDbEntity
8
0
100
AcDbLine
10
-470.56668609966084
20
64.2188696094981
30
-1.2247134819553198e-14
11
-463.01698854751692
21
61.272145445936907
31
-1.188626518806566e-14
0
LINE
5
446
100
AcDbEntity
8
0
100
AcDbLine
10
-463.01698854751692
20
61.272145445936907
30
-1.188626518806566e-14
11
-464.0110803204866
21
58.725218143475928
31
-1.1574356551203677e-14
0
SPLINE
5
447
100
AcDbEntity
8
0
100
AcDbSpline
70
0
71
2
72
6
73
3
74
0
42
0.000000001
43
0.0000000001
44
0.0000000001
40
0
40
0
40
0
40
1
40
1
40
1
10
-445.44462882200656
20
66.224997506807412
30
-1.2492814630365203e-14
10
-446.13415669902679
20
64.777189308505129
30
-1.2315509262782185e-14
10
-447.01055143963572
20
63.636669616403964
30
-1.2175835883752563e-14
0
SPLINE
5
448
100
AcDbEntity
8
0
100
AcDbSpline
70
0
71
2
72
6
73
3
74
0
42
0.000000001
43
0.0000000001
44
0.0000000001
40
0
40
0
40
0
40
1
40
1
40
1
10
-447.01055143963572
20
63.636669616403964
30
-1.2175835883752563e-14
10
-447.8869483327768
20
62.496150949459938
30
-1.2036162630268481e-14
10
-448.95887191060797
20
61.646916806290704
30
-1.1932161442752599e-14
0
SPLINE
5
449
100
AcDbEntity
8
0
100
AcDbSpline
70
0
71
2
72
6
73
3
74
0
42
0.000000001
43
0.0000000001
44
0.0000000001
40
0
40
0
40
0
40
1
40
1
40
1
10
-448.95887191060797
20
61.646916806290704
30
-1.1932161442752599e-14
10
-450.03079548843908
20
60.797682663121478
30
-1.1828160255236714e-14
10
-451.52650671924158
20
60.20053492849555
30
-1.175503074905394e-14
0
LINE
5
450
100
AcDbEntity
8
0
100
AcDbLine
10
-451.52650671924158
20
60.20053492849555
30
-1.175503074905394e-14
11
-452.6936612247099
21
62.46039865191505
31
-1.2031784236593431e-14
0
SPLINE
5
451
100
AcDbEntity
8
0
100
AcDbSpline
70
0
71
2
72
6
73
3
74
0
42
0.000000001
43
0.0000000001
44
0.0000000001
40
0
40
0
40
0
40
1
40
1
40
1
10
-452.6936612247099
20
62.46039865191505
30
-1.2031784236593431e-14
10
-450.92526952879427
20
63.342706598057397
30
-1.2139835796803981e-14
10
-449.74279476402
20
64.503412905981222
30
-1.2281981323278887e-14
0
SPLINE
5
452
100
AcDbEntity
8
0
100
AcDbSpline
70
0
71
2
72
6
73
3
74
0
42
0.000000001
43
0.0000000001
44
0.0000000001
40
0
40
0
40
0
40
1
40
1
40
1
10
-449.74279476402
20
64.503412905981222
30
-1.2281981323278887e-14
10
-448.56031810300294
20
65.664117650614855
30
-1.242412665830596e-14
10
-447.76653943222954
20
67.330822225561832
30
-1.2628239100589265e-14
0
SPLINE
5
453
100
AcDbEntity
8
0
100
AcDbSpline
70
0
71
2
72
6
73
3
74
0
42
0.000000001
43
0.0000000001
44
0.0000000001
40
0
40
0
40
0
40
1
40
1
40
1
10
-447.76653943222954
20
67.330822225561832
30
-1.2628239100589265e-14
10
-446.61766272626807
20
69.74312950009525
30
-1.2923661538820988e-14
10
-446.93220586357916
20
71.441231841812311
30
-1.313161909856183e-14
0
SPLINE
5
454
100
AcDbEntity
8
0
100
AcDbSpline
70
0
71
2
72
6
73
3
74
0
42
0.000000001
43
0.0000000001
44
0.0000000001
40
0
40
0
40
0
40
1
40
1
40
1
10
-446.93220586357916
20
71.441231841812311
30
-1.313161909856183e-14
10
-447.24674736093669
20
73.139332082106137
30
-1.3339576400952548e-14
10
-448.89079976370164
20
73.922322511582848
30
-1.3435465073274715e-14
0
LINE
5
455
100
AcDbEntity
8
0
100
AcDbLine
10
-448.89079976370164
20
73.922322511582848
30
-1.3435465073274715e-14
11
-448.90413685296278
21
73.928674385301093
31
-1.343624295345648e-14
0
SPLINE
5
456
100
AcDbEntity
8
0
100
AcDbSpline
70
0
71
2
72
6
73
3
74
0
42
0.000000001
43
0.0000000001
44
0.0000000001
40
0
40
0
40
0
40
1
40
1
40
1
10
-448.90413685296278
20
73.928674385301107
30
-1.343624295345648e-14
10
-449.99692576964264
20
74.449122067965945
30
-1.3499979412326396e-14
10
-450.86913703571156
20
74.129651425899979
30
-1.3460855542403632e-14
0
SPLINE
5
457
100
AcDbEntity
8
0
100
AcDbSpline
70
0
71
2
72
6
73
3
74
0
42
0.000000001
43
0.0000000001
44
0.0000000001
40
0
40
0
40
0
40
1
40
1
40
1
10
-450.86913703571156
20
74.129651425899979
30
-1.3460855542403632e-14
10
-451.7413509668911
20
73.810180732725073
30
-1.342173166622183e-14
10
-452.56108192415297
20
72.922518907433044
30
-1.3313024444914911e-14
0
SPLINE
5
458
100
AcDbEntity
8
0
100
AcDbSpline
70
0
71
2
72
6
73
3
74
0
42
0.000000001
43
0.0000000001
44
0.0000000001
40
0
40
0
40
0
40
1
40
1
40
1
10
-452.56108192415297
20
72.922518907433044
30
-1.3313024444914911e-14
10
-453.38081288141484
20
72.034857082141002
30
-1.3204317223607993e-14
10
-454.19433967726724
20
70.927637945856461
30
-1.3068721986487437e-14
0
SPLINE
5
459
100
AcDbEntity
8
0
100
AcDbSpline
70
0
71
2
72
6
73
3
74
0
42
0.000000001
43
0.0000000001
44
0.0000000001
40
0
40
0
40
0
40
1
40
1
40
1
10
-454.19433967726724
20
70.927637945856461
30
-1.3068721986487437e-14
10
-455.00567958572219
20
69.832102499914541
30
-1.2934557588764912e-14
10
-455.82540227693096
20
68.807306184330869
30
-1.2809056235999157e-14
0
SPLINE
5
460
100
AcDbEntity
8
0
100
AcDbSpline
70
0
71
2
72
6
73
3
74
0
42
0.000000001
43
0.0000000001
44
0.0000000001
40
0
40
0
40
0
40
1
40
1
40
1
10
-455.82540227693096
20
68.807306184330869
30
-1.2809056235999157e-14
10
-456.6451257881165
20
67.782510919458815
30
-1.2683555011908464e-14
10
-457.65146253194098
20
67.018912847034116
30
-1.2590041218385464e-14
0
SPLINE
5
461
100
AcDbEntity
8
0
100
AcDbSpline
70
0
71
2
72
6
73
3
74
0
42
0.000000001
43
0.0000000001
44
0.0000000001
40
0
40
0
40
0
40
1
40
1
40
1
10
-457.65146253194098
20
67.018912847034116
30
-1.2590041218385464e-14
10
-458.65779940391002
20
66.255314505542898
30
-1.2496527391911321e-14
10
-459.92896985970424
20
66.093645541161422
30
-1.2476728653936198e-14
0
SPLINE
5
462
100
AcDbEntity
8
0
100
AcDbSpline
70
0
71
2
72
6
73
3
74
0
42
0.000000001
43
0.0000000001
44
0.0000000001
40
0
40
0
40
0
40
1
40
1
40
1
10
-459.92896985970424
20
66.093645541161422
30
-1.2476728653936198e-14
10
-461.20014132769228
20
65.931977223891806
30
-1.245692999520942e-14
10
-462.78364838213685
20
66.686132545555353
30
-1.2549287385282938e-14
0
LINE
5
463
100
AcDbEntity
8
0
100
AcDbLine
10
-462.78364838213685
20
66.686132545555353
30
-1.2549287385282938e-14
11
-462.7967734469803
21
66.692383441294055
31
-1.2550052899228761e-14
0
SPLINE
5
464
100
AcDbEntity
8
0
100
AcDbSpline
70
0
71
2
72
6
73
3
74
0
42
0.000000001
43
0.0000000001
44
0.0000000001
40
0
40
0
40
0
40
1
40
1
40
1
10
-462.7967734469803
20
66.692383441294069
30
-1.2550052899228761e-14
10
-465.62062226885013
20
68.03725943070576
30
-1.2714752706797078e-14
10
-466.27808968281926
20
70.65757170493228
30
-1.303564841073688e-14
0
SPLINE
5
465
100
AcDbEntity
8
0
100
AcDbSpline
70
0
71
2
72
6
73
3
74
0
42
0.000000001
43
0.0000000001
44
0.0000000001
40
0
40
0
40
0
40
1
40
1
40
1
10
-466.27808968281926
20
70.65757170493228
30
-1.303564841073688e-14
10
-466.93555880081425
20
73.277885946048769
30
-1.3356544355551235e-14
10
-465.33328199657944
20
76.642201690823939
30
-1.3768554206367229e-14
0
SPLINE
5
466
100
AcDbEntity
8
0
100
AcDbSpline
70
0
71
2
72
6
73
3
74
0
42
0.000000001
43
0.0000000001
44
0.0000000001
40
0
40
0
40
0
40
1
40
1
40
1
10
-465.33328199657944
20
76.642201690823939
30
-1.3768554206367229e-14
10
-464.58104218105575
20
78.22168673892817
30
-1.3961985337213427e-14
10
-463.33544720908543
20
79.509199312993502
30
-1.4119660152482533e-14
0
SPLINE
5
467
100
AcDbEntity
8
0
100
AcDbSpline
70
0
71
2
72
6
73
3
74
0
42
0.000000001
43
0.0000000001
44
0.0000000001
40
0
40
0
40
0
40
1
40
1
40
1
10
-463.33544720908543
20
79.509199312993502
30
-1.4119660152482533e-14
10
-462.08985172453652
20
80.796712963324921
30
-1.4277335099556219e-14
10
-460.13627146149906
20
81.801194657822208
30
-1.4400348628753044e-14
0
LINE
5
468
100
AcDbEntity
8
0
100
AcDbLine
10
-460.13627146149906
20
81.801194657822208
30
-1.4400348628753044e-14
11
-458.94974884505723
21
79.581452172358297
31
-1.4128508575777566e-14
0
SPLINE
5
469
100
AcDbEntity
8
0
100
AcDbSpline
70
0
71
2
72
6
73
3
74
0
42
0.000000001
43
0.0000000001
44
0.0000000001
40
0
40
0
40
0
40
1
40
1
40
1
10
-458.94974884505723
20
79.581452172358283
30
-1.4128508575777566e-14
10
-460.53593051102695
20
78.571850188553995
30
-1.4004867991989691e-14
10
-461.50898462928546
20
77.609560095586488
30
-1.3887021443769305e-14
0
SPLINE
5
470
100
AcDbEntity
8
0
100
AcDbSpline
70
0
71
2
72
6
73
3
74
0
42
0.000000001
43
0.0000000001
44
0.0000000001
40
0
40
0
40
0
40
1
40
1
40
1
10
-461.50898462928546
20
77.609560095586488
30
-1.3887021443769305e-14
10
-462.48203931123152
20
76.64727159146365
30
-1.3769175090126269e-14
10
-463.01115828567265
20
75.536275481511396
30
-1.3633117307134453e-14
0
SPLINE
5
471
100
AcDbEntity
8
0
100
AcDbSpline
70
0
71
2
72
6
73
3
74
0
42
0.000000001
43
0.0000000001
44
0.0000000001
40
0
40
0
40
0
40
1
40
1
40
1
10
-463.01115828567265
20
75.536275481511396
30
-1.3633117307134453e-14
10
-464.09127360077252
20
73.268347149054009
30
-1.3355376189830499e-14
10
-463.74838065756649
20
71.623231012924776
30
-1.3153907568796867e-14
0
SPLINE
5
472
100
AcDbEntity
8
0
100
AcDbSpline
70
0
71
2
72
6
73
3
74
0
42
0.000000001
43
0.0000000001
44
0.0000000001
40
0
40
0
40
0
40
1
40
1
40
1
10
-463.74838065756649
20
71.623231012924776
30
-1.3153907568796867e-14
10
-463.40548771436039
20
69.97811487679553
30
-1.2952438947763233e-14
10
-461.71359205554916
20
69.172338791863865
30
-1.2853759837439127e-14
0
LINE
5
473
100
AcDbEntity
8
0
100
AcDbLine
10
-461.71359205554916
20
69.172338791863865
30
-1.2853759837439127e-14
11
-461.70025496628796
21
69.16598691814562
31
-1.2852981957257362e-14
0
SPLINE
5
474
100
AcDbEntity
8
0
100
AcDbSpline
70
0
71
2
72
6
73
3
74
0
42
0.000000001
43
0.0000000001
44
0.0000000001
40
0
40
0
40
0
40
1
40
1
40
1
10
-461.70025496628796
20
69.165986918145606
30
-1.2852981957257362e-14
10
-460.62143813585635
20
68.652193530559089
30
-1.2790060414504271e-14
10
-459.7421541492576
20
69.04867813587164
30
-1.2838615774784992e-14
0
SPLINE
5
475
100
AcDbEntity
8
0
100
AcDbSpline
70
0
71
2
72
6
73
3
74
0
42
0.000000001
43
0.0000000001
44
0.0000000001
40
0
40
0
40
0
40
1
40
1
40
1
10
-459.7421541492576
20
69.04867813587164
30
-1.2838615774784992e-14
10
-458.8628699063695
20
69.445163279317242
30
-1.2887171200968005e-14
10
-458.01275396446624
20
70.435616123990158
30
-1.3008466691561513e-14
0
SPLINE
5
476
100
AcDbEntity
8
0
100
AcDbSpline
70
0
71
2
72
6
73
3
74
0
42
0.000000001
43
0.0000000001
44
0.0000000001
40
0
40
0
40
0
40
1
40
1
40
1
10
-458.01275396446624
20
70.435616123990158
30
-1.3008466691561513e-14
10
-457.16263827885234
20
71.426068430530037
30
-1.3129762116252731e-14
10
-456.2768854350802
20
72.606412354317357
30
-1.3274312557068649e-14
0
SPLINE
5
477
100
AcDbEntity
8
0
100
AcDbSpline
70
0
71
2
72
6
73
3
74
0
42
0.000000001
43
0.0000000001
44
0.0000000001
40
0
40
0
40
0
40
1
40
1
40
1
10
-456.2768854350802
20
72.606412354317357
30
-1.3274312557068649e-14
10
-455.50258713447067
20
73.637259802976146
30
-1.3400554959909569e-14
10
-454.66411589418146
20
74.600534091807603
30
-1.3518522037361408e-14
0
SPLINE
5
478
100
AcDbEntity
8
0
100
AcDbSpline
70
0
71
2
72
6
73
3
74
0
42
0.000000001
43
0.0000000001
44
0.0000000001
40
0
40
0
40
0
40
1
40
1
40
1
10
-454.66411589418146
20
74.600534091807603
30
-1.3518522037361408e-14
10
-453.82564465389214
20
75.563808380639074
30
-1.3636489114813248e-14
10
-452.81242830800983
20
76.2393329004218
30
-1.3719217008902995e-14
0
SPLINE
5
479
100
AcDbEntity
8
0
100
AcDbSpline
70
0
71
2
72
6
73
3
74
0
42
0.000000001
43
0.0000000001
44
0.0000000001
40
0
40
0
40
0
40
1
40
1
40
1
10
-452.81242830800983
20
76.2393329004218
30
-1.3719217008902995e-14
10
-451.79921139843998
20
76.914855831359858
30
-1.3801944708415387e-14
10
-450.56092251055918
20
77.019204868264751
30
-1.3814723779819355e-14
0
SPLINE
5
480
100
AcDbEntity
8
0
100
AcDbSpline
70
0
71
2
72
6
73
3
74
0
42
0.000000001
43
0.0000000001
44
0.0000000001
40
0
40
0
40
0
40
1
40
1
40
1
10
-450.56092251055918
20
77.019204868264751
30
-1.3814723779819355e-14
10
-449.32263577521047
20
77.12355493032679
30
-1.3827502976768866e-14
10
-447.82084422287653
20
76.408317137073411
30
-1.3739911609355171e-14
0
LINE
5
481
100
AcDbEntity
8
0
100
AcDbLine
10
-447.82084422287653
20
76.408317137073411
30
-1.3739911609355171e-14
11
-447.79438099250581
21
76.395713855037869
31
-1.3738368152454811e-14
0
SPLINE
5
482
100
AcDbEntity
8
0
100
AcDbSpline
70
0
71
2
72
6
73
3
74
0
42
0.000000001
43
0.0000000001
44
0.0000000001
40
0
40
0
40
0
40
1
40
1
40
1
10
-447.79438099250581
20
76.395713855037869
30
-1.3738368152454811e-14
10
-444.99572325450032
20
75.06283527978448
30
-1.3575137604371197e-14
10
-444.39206741732835
20
72.38270388893902
30
-1.3246916171461873e-14
0
SPLINE
5
483
100
AcDbEntity
8
0
100
AcDbSpline
70
0
71
2
72
6
73
3
74
0
42
0.000000001
43
0.0000000001
44
0.0000000001
40
0
40
0
40
0
40
1
40
1
40
1
10
-444.39206741732835
20
72.38270388893902
30
-1.3246916171461873e-14
10
-443.78841158015626
20
69.702572498093573
30
-1.2918694738552552e-14
10
-445.44462882200656
20
66.224997506807412
30
-1.2492814630365203e-14
0
LINE
5
484
100
AcDbEntity
8
0
100
AcDbLine
10
-435.6414807528609
20
91.499979966495161
30
-1.5588107267141412e-14
11
-448.26065926969846
21
105.59508183682318
31
-1.7314259406056723e-14
0
LINE
5
485
100
AcDbEntity
8
0
100
AcDbLine
10
-448.26065926969846
20
105.59508183682318
30
-1.7314259406056723e-14
11
-447.14991319983591
21
107.20430731830211
31
-1.7511332689556677e-14
0
LINE
5
486
100
AcDbEntity
8
0
100
AcDbLine
10
-447.14991319983591
20
107.20430731830211
30
-1.7511332689556677e-14
11
-429.49594864095889
21
100.40349728701422
31
-1.6678473665914082e-14
0
LINE
5
487
100
AcDbEntity
8
0
100
AcDbLine
10
-429.49594864095889
20
100.40349728701422
30
-1.6678473665914082e-14
11
-442.20197305492349
21
114.37277865307877
31
-1.8389217237048057e-14
0
LINE
5
488
100
AcDbEntity
8
0
100
AcDbLine
10
-442.20197305492349
20
114.37277865307877
30
-1.8389217237048057e-14
11
-440.5332562998035
21
116.79038029630783
31
-1.8685288048447441e-14
0
LINE
5
489
100
AcDbEntity
8
0
100
AcDbLine
10
-440.5332562998035
20
116.79038029630782
30
-1.8685288048447438e-14
11
-425.77614376652156
21
99.451988177638356
31
-1.6561947407398411e-14
0
LINE
5
490
100
AcDbEntity
8
0
100
AcDbLine
10
-425.7761437665215
20
99.451988177638356
30
-1.6561947407398411e-14
11
-427.28555399482184
21
97.265186470848278
31
-1.6294141436339368e-14
0
LINE
5
491
100
AcDbEntity
8
0
100
AcDbLine
10
-427.2855539948219
20
97.265186470848278
30
-1.6294141436339368e-14
11
-443.43600409755567
21
103.55046245228236
31
-1.7063865747581471e-14
0
LINE
5
492
100
AcDbEntity
8
0
100
AcDbLine
10
-443.43600409755561
20
103.55046245228236
30
-1.7063865747581468e-14
11
-431.92660437140427
21
90.541330560425948
31
-1.5470706574476697e-14
0
LINE
5
493
100
AcDbEntity
8
0
100
AcDbLine
10
-431.92660437140427
20
90.541330560425948
30
-1.5470706574476697e-14
11
-433.43268458263503
21
88.35935331213949
31
-1.5203491429184061e-14
0
LINE
5
494
100
AcDbEntity
8
0
100
AcDbLine
10
-433.43268458263503
20
88.35935331213949
30
-1.5203491429184064e-14
11
-454.87438581396259
21
96.013254296456211
31
-1.6140823963327486e-14
0
LINE
5
495
100
AcDbEntity
8
0
100
AcDbLine
10
-454.87438581396259
20
96.013254296456211
30
-1.6140823963327486e-14
11
-453.20859975319928
21
98.426610011506767
31
-1.643637479849155e-14
0
LINE
5
496
100
AcDbEntity
8
0
100
AcDbLine
10
-453.20859975319934
20
98.426610011506767
30
-1.643637479849155e-14
11
-435.64148075286096
21
91.499979966495161
31
-1.5588107267141412e-14
0
LINE
5
497
100
AcDbEntity
8
0
100
AcDbLine
10
-411.59845261087526
20
116.85654132565762
30
-1.8693390437729591e-14
11
-428.33712457034108
21
131.12395391135163
31
-2.0440644553248073e-14
0
LINE
5
498
100
AcDbEntity
8
0
100
AcDbLine
10
-428.33712457034108
20
131.12395391135163
30
-2.0440644553248073e-14
11
-426.5635658924171
21
133.20471079227346
31
-2.0695463778650551e-14
0
LINE
5
499
100
AcDbEntity
8
0
100
AcDbLine
10
-426.5635658924171
20
133.20471079227349
30
-2.0695463778650551e-14
11
-409.82489393295123
21
118.93729820657946
31
-1.8948209663132066e-14
0
LINE
5
500
100
AcDbEntity
8
0
100
AcDbLine
10
-409.82489393295123
20
118.93729820657946
30
-1.8948209663132066e-14
11
-411.59845261087526
21
116.85654132565762
31
-1.8693390437729591e-14
0
LINE
5
501
100
AcDbEntity
8
0
100
AcDbLine
10
-420.05510277158589
20
106.93511429283762
30
-1.7478366051857891e-14
11
-436.79377473105177
21
121.20252687853166
31
-1.9225620167376377e-14
0
LINE
5
502
100
AcDbEntity
8
0
100
AcDbLine
10
-436.79377473105177
20
121.20252687853166
30
-1.9225620167376377e-14
11
-435.02021624645295
21
123.28328353264249
31
-1.9480439365002513e-14
0
LINE
5
503
100
AcDbEntity
8
0
100
AcDbLine
10
-435.02021624645295
20
123.28328353264249
30
-1.9480439365002513e-14
11
-418.28154428698713
21
109.01587094694847
31
-1.7733185249484031e-14
0
LINE
5
504
100
AcDbEntity
8
0
100
AcDbLine
10
-418.28154428698713
20
109.01587094694847
30
-1.7733185249484028e-14
11
-420.05510277158589
21
106.93511429283762
31
-1.7478366051857891e-14
0
LINE
5
505
100
AcDbEntity
8
0
100
AcDbLine
10
-426.45442446010071
20
115.07353272991324
30
-1.8475034860766534e-14
11
-427.55404865620187
21
116.01081091619821
31
-1.8589818333840988e-14
0
LINE
5
506
100
AcDbEntity
8
0
100
AcDbLine
10
-427.55404865620187
20
116.01081091619821
30
-1.8589818333840988e-14
11
-419.67798811927139
21
125.25108436232853
31
-1.9721425463745965e-14
0
LINE
5
507
100
AcDbEntity
8
0
100
AcDbLine
10
-419.67798811927139
20
125.25108436232853
30
-1.9721425463745965e-14
11
-418.57836392317029
21
124.31380617604354
31
-1.9606641990671515e-14
0
LINE
5
508
100
AcDbEntity
8
0
100
AcDbLine
10
-418.57836392317029
20
124.31380617604356
30
-1.9606641990671515e-14
11
-426.45442446010071
21
115.07353272991325
31
-1.8475034860766534e-14
0
LINE
5
509
100
AcDbEntity
8
0
100
AcDbLine
10
-412.10488353885347
20
148.1229296683068
30
-2.2522418678201932e-14
11
-407.6722850459555
21
133.99271959692385
31
-2.0791967024682052e-14
0
LINE
5
510
100
AcDbEntity
8
0
100
AcDbLine
10
-407.6722850459555
20
133.99271959692385
30
-2.0791967024682049e-14
11
-401.31416701398285
21
127.73324236910514
31
-2.0025402149543654e-14
0
LINE
5
511
100
AcDbEntity
8
0
100
AcDbLine
10
-401.31416701398285
20
127.73324236910514
30
-2.0025402149543654e-14
11
-403.23226384488572
21
125.78491895426262
31
-1.978680134617458e-14
0
LINE
5
512
100
AcDbEntity
8
0
100
AcDbLine
10
-403.23226384488572
20
125.78491895426262
30
-1.978680134617458e-14
11
-409.58185968428143
21
132.0360062040881
31
-2.0552338745343542e-14
0
LINE
5
513
100
AcDbEntity
8
0
100
AcDbLine
10
-409.58185968428143
20
132.0360062040881
30
-2.0552338745343545e-14
11
-423.78800099413911
21
136.25570225321616
31
-2.1069102471337489e-14
0
LINE
5
514
100
AcDbEntity
8
0
100
AcDbLine
10
-423.78800099413911
20
136.25570225321616
30
-2.1069102471337486e-14
11
-421.82318575062169
21
138.25148029899015
31
-2.1313514790894047e-14
0
LINE
5
515
100
AcDbEntity
8
0
100
AcDbLine
10
-421.82318575062169
20
138.25148029899015
30
-2.1313514790894047e-14
11
-410.33649726515364
21
134.69266133838562
31
-2.0877685166009128e-14
0
LINE
5
516
100
AcDbEntity
8
0
100
AcDbLine
10
-410.33649726515364
20
134.69266133838562
30
-2.0877685166009128e-14
11
-414.07446934355323
21
146.12230588382783
31
-2.2277412926805906e-14
0
LINE
5
517
100
AcDbEntity
8
0
100
AcDbLine
10
-414.07446934355312
20
146.12230588382783
30
-2.2277412926805913e-14
11
-412.10488353885347
21
148.1229296683068
31
-2.2522418678201932e-14
0
LINE
5
518
100
AcDbEntity
8
0
100
AcDbLine
10
-399.38531012505706
20
159.65072477462613
30
-2.3934166416019979e-14
11
-384.86473670443979
21
143.13118639144204
31
-2.1911106435584156e-14
0
LINE
5
519
100
AcDbEntity
8
0
100
AcDbLine
10
-384.86473670443979
20
143.13118639144204
30
-2.1911106435584156e-14
11
-386.91825322575562
21
141.32615790174947
31
-2.1690054199356974e-14
0
LINE
5
520
100
AcDbEntity
8
0
100
AcDbLine
10
-386.91825322575562
20
141.32615790174947
30
-2.1690054199356977e-14
11
-401.43882664637289
21
157.84569628493352
31
-2.3713114179792799e-14
0
LINE
5
521
100
AcDbEntity
8
0
100
AcDbLine
10
-401.43882664637289
20
157.84569628493352
30
-2.3713114179792799e-14
11
-399.38531012505706
21
159.6507247746261
31
-2.3934166416019982e-14
0
LINE
5
522
100
AcDbEntity
8
0
100
AcDbLine
10
-377.60808943674192
20
150.04016500964167
30
-2.2757212290599721e-14
11
-390.18868682875495
21
165.49158815518109
31
-2.4649465880345341e-14
0
LINE
5
523
100
AcDbEntity
8
0
100
AcDbLine
10
-390.18868682875495
20
165.49158815518109
30
-2.4649465880345334e-14
11
-389.02277485109539
21
166.44087735963183
31
-2.4765720278914908e-14
0
LINE
5
524
100
AcDbEntity
8
0
100
AcDbLine
10
-389.02277485109539
20
166.44087735963183
30
-2.4765720278914911e-14
11
-376.44217745908236
21
150.98945421409243
31
-2.2873466689169292e-14
0
LINE
5
525
100
AcDbEntity
8
0
100
AcDbLine
10
-376.44217745908236
20
150.9894542140924
30
-2.2873466689169292e-14
11
-377.60808943674192
21
150.04016500964167
31
-2.2757212290599721e-14
0
LINE
5
526
100
AcDbEntity
8
0
100
AcDbLine
10
-395.00095705673095
20
160.15044774000231
30
-2.3995364829020811e-14
11
-396.62490617646074
21
162.14497345558561
31
-2.4239623782361428e-14
0
LINE
5
527
100
AcDbEntity
8
0
100
AcDbLine
10
-396.62490617646074
20
162.14497345558561
30
-2.4239623782361428e-14
11
-384.44101841794361
21
172.06513324382033
31
-2.545449297553062e-14
0
LINE
5
528
100
AcDbEntity
8
0
100
AcDbLine
10
-384.44101841794372
20
172.0651332438203
30
-2.545449297553062e-14
11
-382.81706929821394
21
170.07060752823696
31
-2.521023402219e-14
0
LINE
5
529
100
AcDbEntity
8
0
100
AcDbLine
10
-382.81706929821394
20
170.07060752823696
30
-2.521023402219e-14
11
-395.00095705673107
21
160.15044774000228
31
-2.3995364829020811e-14
0
LINE
5
530
100
AcDbEntity
8
0
100
AcDbLine
10
-377.00391111945396
20
167.47989320219892
30
-2.4892963021501232e-14
11
-381.92235745421738
21
173.92116652950114
31
-2.568179149777262e-14
0
LINE
5
531
100
AcDbEntity
8
0
100
AcDbLine
10
-381.92235745421738
20
173.92116652950114
30
-2.568179149777262e-14
11
-379.74936247175469
21
175.58042839650679
31
-2.5884992471210193e-14
0
LINE
5
532
100
AcDbEntity
8
0
100
AcDbLine
10
-379.74936247175469
20
175.58042839650679
30
-2.5884992471210193e-14
11
-374.83091613699122
21
169.13915506920455
31
-2.5096163994938805e-14
0
LINE
5
533
100
AcDbEntity
8
0
100
AcDbLine
10
-374.83091613699122
20
169.13915506920458
30
-2.5096163994938805e-14
11
-377.00391111945396
21
167.47989320219892
31
-2.4892963021501232e-14
0
SPLINE
5
534
100
AcDbEntity
8
0
100
AcDbSpline
70
0
71
2
72
6
73
3
74
0
42
0.000000001
43
0.0000000001
44
0.0000000001
40
0
40
0
40
0
40
1
40
1
40
1
10
-357.37939048010873
20
164.44312831244167
30
-2.4521066581300812e-14
10
-358.6859040959373
20
163.51327916128122
30
-2.4407192902634951e-14
10
-360.00628902235667
20
162.94280869270111
30
-2.4337330419299483e-14
0
SPLINE
5
535
100
AcDbEntity
8
0
100
AcDbSpline
70
0
71
2
72
6
73
3
74
0
42
0.000000001
43
0.0000000001
44
0.0000000001
40
0
40
0
40
0
40
1
40
1
40
1
10
-360.00628902235667
20
162.94280869270111
30
-2.4337330419299483e-14
10
-361.3266753312314
20
162.37234016658317
30
-2.4267468173847016e-14
10
-362.6762819447016
20
162.15147646310922
30
-2.4240420171096297e-14
0
SPLINE
5
536
100
AcDbEntity
8
0
100
AcDbSpline
70
0
71
2
72
6
73
3
74
0
42
0.000000001
43
0.0000000001
44
0.0000000001
40
0
40
0
40
0
40
1
40
1
40
1
10
-362.6762819447016
20
162.15147646310922
30
-2.4240420171096297e-14
10
-364.0258885581718
20
161.9306127596353
30
-2.4213372168345578e-14
10
-365.62323501056198
20
162.136092232951
30
-2.4238536146274235e-14
0
LINE
5
537
100
AcDbEntity
8
0
100
AcDbLine
10
-365.62323501056198
20
162.136092232951
30
-2.4238536146274235e-14
11
-365.54427584666547
21
164.67833516754624
31
-2.4549871113524939e-14
0
SPLINE
5
538
100
AcDbEntity
8
0
100
AcDbSpline
70
0
71
2
72
6
73
3
74
0
42
0.000000001
43
0.0000000001
44
0.0000000001
40
0
40
0
40
0
40
1
40
1
40
1
10
-365.54427584666547
20
164.67833516754624
30
-2.4549871113524939e-14
10
-363.56999744459011
20
164.58944594936781
30
-2.4538985323872845e-14
10
-361.97233713575309
20
165.02872631559046
30
-2.4592781653315133e-14
0
SPLINE
5
539
100
AcDbEntity
8
0
100
AcDbSpline
70
0
71
2
72
6
73
3
74
0
42
0.000000001
43
0.0000000001
44
0.0000000001
40
0
40
0
40
0
40
1
40
1
40
1
10
-361.97233713575309
20
165.02872631559046
30
-2.4592781653315133e-14
10
-360.37467593007619
20
165.46800439373715
30
-2.4646577702548925e-14
10
-358.87062848561123
20
166.53843888641862
30
-2.4777668120064854e-14
0
SPLINE
5
540
100
AcDbEntity
8
0
100
AcDbSpline
70
0
71
2
72
6
73
3
74
0
42
0.000000001
43
0.0000000001
44
0.0000000001
40
0
40
0
40
0
40
1
40
1
40
1
10
-358.87062848561123
20
166.53843888641862
30
-2.4777668120064854e-14
10
-356.69374324388104
20
168.08773379591941
30
-2.4967402025250397e-14
10
-356.14290587978354
20
169.72451941000838
30
-2.5167850451568844e-14
0
SPLINE
5
541
100
AcDbEntity
8
0
100
AcDbSpline
70
0
71
2
72
6
73
3
74
0
42
0.000000001
43
0.0000000001
44
0.0000000001
40
0
40
0
40
0
40
1
40
1
40
1
10
-356.14290587978354
20
169.72451941000838
30
-2.5167850451568844e-14
10
-355.59206810446176
20
171.36130239040756
30
-2.5368298555353319e-14
10
-356.64795432818045
20
172.84490833480464
30
-2.5549987882453507e-14
0
LINE
5
542
100
AcDbEntity
8
0
100
AcDbLine
10
-356.64795432818045
20
172.84490833480464
30
-2.5549987882453507e-14
11
-356.65652002158032
21
172.85694383006958
31
-2.5551461805528745e-14
0
SPLINE
5
543
100
AcDbEntity
8
0
100
AcDbSpline
70
0
71
2
72
6
73
3
74
0
42
0.000000001
43
0.0000000001
44
0.0000000001
40
0
40
0
40
0
40
1
40
1
40
1
10
-356.65652002158032
20
172.85694383006958
30
-2.5551461805528745e-14
10
-357.35835942804584
20
173.84308522679814
30
-2.5672229296029775e-14
10
-358.27585841426639
20
173.9880320932142
30
-2.5689980167630064e-14
0
SPLINE
5
544
100
AcDbEntity
8
0
100
AcDbSpline
70
0
71
2
72
6
73
3
74
0
42
0.000000001
43
0.0000000001
44
0.0000000001
40
0
40
0
40
0
40
1
40
1
40
1
10
-358.27585841426639
20
173.9880320932142
30
-2.5689980167630064e-14
10
-359.19335975417323
20
174.13298021086476
30
-2.570773119246238e-14
10
-360.3412798980379
20
173.75591032121042
30
-2.566155344912038e-14
0
SPLINE
5
545
100
AcDbEntity
8
0
100
AcDbSpline
70
0
71
2
72
6
73
3
74
0
42
0.000000001
43
0.0000000001
44
0.0000000001
40
0
40
0
40
0
40
1
40
1
40
1
10
-360.3412798980379
20
173.75591032121042
30
-2.566155344912038e-14
10
-361.48920004190256
20
173.37884043155614
30
-2.5615375705778379e-14
10
-362.73845731214232
20
172.80689958139948
30
-2.5545333152633784e-14
0
SPLINE
5
546
100
AcDbEntity
8
0
100
AcDbSpline
70
0
71
2
72
6
73
3
74
0
42
0.000000001
43
0.0000000001
44
0.0000000001
40
0
40
0
40
0
40
1
40
1
40
1
10
-362.73845731214232
20
172.80689958139948
30
-2.5545333152633784e-14
10
-363.98012250346824
20
172.24410484704566
30
-2.5476410675633445e-14
10
-365.19471627237272
20
171.7471996695171
30
-2.5415557342119431e-14
0
SPLINE
5
547
100
AcDbEntity
8
0
100
AcDbSpline
70
0
71
2
72
6
73
3
74
0
42
0.000000001
43
0.0000000001
44
0.0000000001
40
0
40
0
40
0
40
1
40
1
40
1
10
-365.19471627237272
20
171.7471996695171
30
-2.5415557342119431e-14
10
-366.40931024688945
20
171.25029580883336
30
-2.5354704169872404e-14
10
-367.65996553661603
20
171.0723716551588
30
-2.5332914745343551e-14
0
SPLINE
5
548
100
AcDbEntity
8
0
100
AcDbSpline
70
0
71
2
72
6
73
3
74
0
42
0.000000001
43
0.0000000001
44
0.0000000001
40
0
40
0
40
0
40
1
40
1
40
1
10
-367.65996553661603
20
171.0723716551588
30
-2.5332914745343551e-14
10
-368.9106210691503
20
170.8944473286773
30
-2.5311125299651949e-14
10
-370.10000961448986
20
171.37127651186913
30
-2.5369520032945537e-14
0
SPLINE
5
549
100
AcDbEntity
8
0
100
AcDbSpline
70
0
71
2
72
6
73
3
74
0
42
0.000000001
43
0.0000000001
44
0.0000000001
40
0
40
0
40
0
40
1
40
1
40
1
10
-370.10000961448986
20
171.37127651186913
30
-2.5369520032945537e-14
10
-371.28939872965327
20
171.84810675269543
30
-2.5427914895762001e-14
10
-372.30639994028223
20
173.277076093951
30
-2.5602913168746832e-14
0
LINE
5
550
100
AcDbEntity
8
0
100
AcDbLine
10
-372.30639994028223
20
173.277076093951
30
-2.5602913168746832e-14
11
-372.31482946182928
21
173.28892025669759
31
-2.5604363660346455e-14
0
SPLINE
5
551
100
AcDbEntity
8
0
100
AcDbSpline
70
0
71
2
72
6
73
3
74
0
42
0.000000001
43
0.0000000001
44
0.0000000001
40
0
40
0
40
0
40
1
40
1
40
1
10
-372.31482946182928
20
173.28892025669759
30
-2.5604363660346451e-14
10
-374.12843532005019
20
175.83718385897635
30
-2.5916435946737888e-14
10
-373.42883385365383
20
178.44656263621616
30
-2.6235992683468864e-14
0
SPLINE
5
552
100
AcDbEntity
8
0
100
AcDbSpline
70
0
71
2
72
6
73
3
74
0
42
0.000000001
43
0.0000000001
44
0.0000000001
40
0
40
0
40
0
40
1
40
1
40
1
10
-373.42883385365383
20
178.44656263621616
30
-2.6235992683468864e-14
10
-372.72923291988576
20
181.05594396074227
30
-2.6555549732152445e-14
10
-369.69324767429208
20
183.21666258575311
30
-2.6820161446950207e-14
0
SPLINE
5
553
100
AcDbEntity
8
0
100
AcDbSpline
70
0
71
2
72
6
73
3
74
0
42
0.000000001
43
0.0000000001
44
0.0000000001
40
0
40
0
40
0
40
1
40
1
40
1
10
-369.69324767429208
20
183.21666258575311
30
-2.6820161446950207e-14
10
-368.26790782349855
20
184.23108067854514
30
-2.6944391833983697e-14
10
-366.55343281810167
20
184.75047544020879
30
-2.7007999347220223e-14
0
SPLINE
5
554
100
AcDbEntity
8
0
100
AcDbSpline
70
0
71
2
72
6
73
3
74
0
42
0.000000001
43
0.0000000001
44
0.0000000001
40
0
40
0
40
0
40
1
40
1
40
1
10
-366.55343281810167
20
184.75047544020879
30
-2.7007999347220223e-14
10
-364.83895684147376
20
185.26987089310009
30
-2.7071606945107729e-14
10
-362.64345013999611
20
185.19769304001386
30
-2.7062767707432588e-14
0
LINE
5
555
100
AcDbEntity
8
0
100
AcDbLine
10
-362.64345013999611
20
185.19769304001386
30
-2.7062767707432588e-14
11
-362.68597628495769
21
182.68109133372494
31
-2.675457288499904e-14
0
SPLINE
5
556
100
AcDbEntity
8
0
100
AcDbSpline
70
0
71
2
72
6
73
3
74
0
42
0.000000001
43
0.0000000001
44
0.0000000001
40
0
40
0
40
0
40
1
40
1
40
1
10
-362.68597628495769
20
182.68109133372494
30
-2.675457288499904e-14
10
-364.56293136149276
20
182.57014952992989
30
-2.6740986432508119e-14
10
-365.88111636733822
20
182.20242024030571
30
-2.6695952582759018e-14
0
SPLINE
5
557
100
AcDbEntity
8
0
100
AcDbSpline
70
0
71
2
72
6
73
3
74
0
42
0.000000001
43
0.0000000001
44
0.0000000001
40
0
40
0
40
0
40
1
40
1
40
1
10
-365.88111636733822
20
182.20242024030571
30
-2.6695952582759018e-14
10
-367.19930109318028
20
181.83469261314028
30
-2.6650918936602399e-14
10
-368.20187280570912
20
181.12115970802679
30
-2.6563536357769045e-14
0
SPLINE
5
558
100
AcDbEntity
8
0
100
AcDbSpline
70
0
71
2
72
6
73
3
74
0
42
0.000000001
43
0.0000000001
44
0.0000000001
40
0
40
0
40
0
40
1
40
1
40
1
10
-368.20187280570912
20
181.12115970802679
30
-2.6563536357769045e-14
10
-370.24846934353332
20
179.66459160922668
30
-2.6385158211775478e-14
10
-370.74876976163364
20
178.06032163085587
30
-2.6188691802377474e-14
0
SPLINE
5
559
100
AcDbEntity
8
0
100
AcDbSpline
70
0
71
2
72
6
73
3
74
0
42
0.000000001
43
0.0000000001
44
0.0000000001
40
0
40
0
40
0
40
1
40
1
40
1
10
-370.74876976163364
20
178.06032163085587
30
-2.6188691802377474e-14
10
-371.24907017973396
20
176.45605165248503
30
-2.5992225392979468e-14
10
-370.16245681199462
20
174.92927157388743
30
-2.5805248759353818e-14
0
LINE
5
560
100
AcDbEntity
8
0
100
AcDbLine
10
-370.16245681199462
20
174.92927157388743
30
-2.5805248759353818e-14
11
-370.15389111859474
21
174.91723607862247
31
-2.580377483627858e-14
0
SPLINE
5
561
100
AcDbEntity
8
0
100
AcDbSpline
70
0
71
2
72
6
73
3
74
0
42
0.000000001
43
0.0000000001
44
0.0000000001
40
0
40
0
40
0
40
1
40
1
40
1
10
-370.15389111859474
20
174.91723607862247
30
-2.580377483627858e-14
10
-369.46102522985984
20
173.94370320348284
30
-2.5684551444338134e-14
10
-368.49989834634039
20
173.86261383848915
30
-2.5674620861209693e-14
0
SPLINE
5
562
100
AcDbEntity
8
0
100
AcDbSpline
70
0
71
2
72
6
73
3
74
0
42
0.000000001
43
0.0000000001
44
0.0000000001
40
0
40
0
40
0
40
1
40
1
40
1
10
-368.49989834634039
20
173.86261383848915
30
-2.5674620861209693e-14
10
-367.53877097720533
20
173.78152481910931
30
-2.5664690320406742e-14
10
-366.31431820043161
20
174.2336413413131
30
-2.5720058625582591e-14
0
SPLINE
5
563
100
AcDbEntity
8
0
100
AcDbSpline
70
0
71
2
72
6
73
3
74
0
42
0.000000001
43
0.0000000001
44
0.0000000001
40
0
40
0
40
0
40
1
40
1
40
1
10
-366.31431820043161
20
174.2336413413131
30
-2.5720058625582591e-14
10
-365.08986590927339
20
174.68575751790303
30
-2.5775426888432956e-14
10
-363.74193935631405
20
175.28647699195011
30
-2.5848993806540676e-14
0
SPLINE
5
564
100
AcDbEntity
8
0
100
AcDbSpline
70
0
71
2
72
6
73
3
74
0
42
0.000000001
43
0.0000000001
44
0.0000000001
40
0
40
0
40
0
40
1
40
1
40
1
10
-363.74193935631405
20
175.28647699195011
30
-2.5848993806540676e-14
10
-362.56409613537613
20
175.81075713426327
30
-2.5913199606354705e-14
10
-361.36303418109605
20
176.24478657830676
30
-2.5966352883293061e-14
0
SPLINE
5
565
100
AcDbEntity
8
0
100
AcDbSpline
70
0
71
2
72
6
73
3
74
0
42
0.000000001
43
0.0000000001
44
0.0000000001
40
0
40
0
40
0
40
1
40
1
40
1
10
-361.36303418109605
20
176.24478657830676
30
-2.5966352883293061e-14
10
-360.16197222681592
20
176.67881602235019
30
-2.601950616023142e-14
10
-358.94813063533161
20
176.77643431558374
30
-2.6031460953266081e-14
0
SPLINE
5
566
100
AcDbEntity
8
0
100
AcDbSpline
70
0
71
2
72
6
73
3
74
0
42
0.000000001
43
0.0000000001
44
0.0000000001
40
0
40
0
40
0
40
1
40
1
40
1
10
-358.94813063533161
20
176.77643431558374
30
-2.6031460953266081e-14
10
-357.7342893238507
20
176.87405094635852
30
-2.6043415542708272e-14
10
-356.60150492934281
20
176.3631227646037
30
-2.5980844886470249e-14
0
SPLINE
5
567
100
AcDbEntity
8
0
100
AcDbSpline
70
0
71
2
72
6
73
3
74
0
42
0.000000001
43
0.0000000001
44
0.0000000001
40
0
40
0
40
0
40
1
40
1
40
1
10
-356.60150492934281
20
176.3631227646037
30
-2.5980844886470249e-14
10
-355.46872191729017
20
175.852196525311
30
-2.591827446811523e-14
10
-354.50420216819958
20
174.49696790209867
30
-2.5752306828562245e-14
0
LINE
5
568
100
AcDbEntity
8
0
100
AcDbLine
10
-354.50420216819958
20
174.49696790209867
30
-2.5752306828562245e-14
11
-354.48720626202498
21
174.47308727285605
31
-2.574938229494588e-14
0
SPLINE
5
569
100
AcDbEntity
8
0
100
AcDbSpline
70
0
71
2
72
6
73
3
74
0
42
0.000000001
43
0.0000000001
44
0.0000000001
40
0
40
0
40
0
40
1
40
1
40
1
10
-354.48720626202498
20
174.47308727285602
30
-2.574938229494588e-14
10
-352.68977927886192
20
171.94755630470993
30
-2.544009395331712e-14
10
-353.46548923494203
20
169.31207177506738
30
-2.5117340183974206e-14
0
SPLINE
5
570
100
AcDbEntity
8
0
100
AcDbSpline
70
0
71
2
72
6
73
3
74
0
42
0.000000001
43
0.0000000001
44
0.0000000001
40
0
40
0
40
0
40
1
40
1
40
1
10
-353.46548923494203
20
169.31207177506738
30
-2.5117340183974206e-14
10
-354.24119919102213
20
166.67658724542486
30
-2.4794586414631295e-14
10
-357.37939048010873
20
164.44312831244167
30
-2.4521066581300812e-14
0
LINE
5
571
100
AcDbEntity
8
0
100
AcDbLine
10
-339.66598359381356
20
176.67344872324347
30
-2.6018848855664302e-14
11
-351.21700082864402
21
195.39018459512235
31
-2.8310987923262593e-14
0
LINE
5
572
100
AcDbEntity
8
0
100
AcDbLine
10
-351.21700082864402
20
195.39018459512235
30
-2.8310987923262593e-14
11
-348.8903543179199
21
196.82607246193311
31
-2.8486833471265028e-14
0
LINE
5
573
100
AcDbEntity
8
0
100
AcDbLine
10
-348.8903543179199
20
196.82607246193311
30
-2.8486833471265028e-14
11
-337.33933708308945
21
178.10933659005423
31
-2.6194694403666727e-14
0
LINE
5
574
100
AcDbEntity
8
0
100
AcDbLine
10
-337.33933708308945
20
178.10933659005423
30
-2.6194694403666727e-14
11
-339.66598359381356
21
176.67344872324347
31
-2.6018848855664296e-14
0
LINE
5
575
100
AcDbEntity
8
0
100
AcDbLine
10
-343.37494360260018
20
185.4848965485584
30
-2.7097939993176884e-14
11
-344.72561401963418
21
187.67346063184601
31
-2.7365961793109589e-14
0
LINE
5
576
100
AcDbEntity
8
0
100
AcDbLine
10
-344.72561401963418
20
187.67346063184601
30
-2.7365961793109589e-14
11
-335.37452937068446
21
193.44447437504172
31
-2.807270714395359e-14
0
LINE
5
577
100
AcDbEntity
8
0
100
AcDbLine
10
-335.37452937068446
20
193.44447437504172
30
-2.807270714395359e-14
11
-334.02385895365046
21
191.25591029175411
31
-2.7804685344020882e-14
0
LINE
5
578
100
AcDbEntity
8
0
100
AcDbLine
10
-334.02385895365046
20
191.25591029175411
30
-2.7804685344020882e-14
11
-343.37494360260018
21
185.48489654855842
31
-2.7097939993176884e-14
0
LINE
5
579
100
AcDbEntity
8
0
100
AcDbLine
10
-348.61408747847986
20
193.97416378157118
30
-2.8137575387578446e-14
11
-349.96488185750229
21
196.16292872715061
31
-2.8405621786047422e-14
0
LINE
5
580
100
AcDbEntity
8
0
100
AcDbLine
10
-349.96488185750223
20
196.16292872715061
30
-2.8405621786047422e-14
11
-339.23656563017943
21
202.78389973891265
31
-2.92164568817276e-14
0
LINE
5
581
100
AcDbEntity
8
0
100
AcDbLine
10
-339.23656563017943
20
202.78389973891265
30
-2.92164568817276e-14
11
-337.885771251157
21
200.59513479333322
31
-2.8948410483258628e-14
0
LINE
5
582
100
AcDbEntity
8
0
100
AcDbLine
10
-337.885771251157
20
200.59513479333322
30
-2.8948410483258628e-14
11
-348.6140874784798
21
193.97416378157118
31
-2.8137575387578446e-14
0
SPLINE
5
583
100
AcDbEntity
8
0
100
AcDbSpline
70
0
71
2
72
6
73
3
74
0
42
0.000000001
43
0.0000000001
44
0.0000000001
40
0
40
0
40
0
40
1
40
1
40
1
10
-317.87516921607317
20
189.3851797235551
30
-2.7575586923779685e-14
10
-321.27749491981774
20
187.4752012569742
30
-2.7341682022225815e-14
10
-323.97544712075592
20
188.29511679681897
30
-2.7442092716370022e-14
0
SPLINE
5
584
100
AcDbEntity
8
0
100
AcDbSpline
70
0
71
2
72
6
73
3
74
0
42
0.000000001
43
0.0000000001
44
0.0000000001
40
0
40
0
40
0
40
1
40
1
40
1
10
-323.97544712075592
20
188.29511679681897
30
-2.7442092716370022e-14
10
-326.6733990618194
20
189.1150324825507
30
-2.7542503428380229e-14
10
-328.65190297224603
20
192.63942546769994
30
-2.7974117087200271e-14
0
LINE
5
585
100
AcDbEntity
8
0
100
AcDbLine
10
-328.65190297224603
20
192.63942546769994
30
-2.7974117087200271e-14
11
-335.55491374446569
21
204.93605152631315
31
-2.9480019461499527e-14
0
LINE
5
586
100
AcDbEntity
8
0
100
AcDbLine
10
-335.55491374446569
20
204.93605152631312
30
-2.9480019461499527e-14
11
-333.17083227526768
21
206.27441377180043
31
-2.9643921565503095e-14
0
LINE
5
587
100
AcDbEntity
8
0
100
AcDbLine
10
-333.17083227526768
20
206.27441377180043
30
-2.9643921565503095e-14
11
-326.21743214372378
21
193.88802700885276
31
-2.8127026675278593e-14
0
SPLINE
5
588
100
AcDbEntity
8
0
100
AcDbSpline
70
0
71
2
72
6
73
3
74
0
42
0.000000001
43
0.0000000001
44
0.0000000001
40
0
40
0
40
0
40
1
40
1
40
1
10
-326.21743214372384
20
193.88802700885276
30
-2.8127026675278593e-14
10
-324.89720525332325
20
191.53625081735169
30
-2.7839017156755322e-14
10
-323.16504316477847
20
191.0042664113837
30
-2.7773867856758819e-14
0
SPLINE
5
589
100
AcDbEntity
8
0
100
AcDbSpline
70
0
71
2
72
6
73
3
74
0
42
0.000000001
43
0.0000000001
44
0.0000000001
40
0
40
0
40
0
40
1
40
1
40
1
10
-323.16504316477847
20
191.0042664113837
30
-2.7773867856758819e-14
10
-321.43288276307874
20
190.47228379263896
30
-2.7708718775634043e-14
10
-319.19172325612533
20
191.73041331085142
30
-2.7862795204373214e-14
0
SPLINE
5
590
100
AcDbEntity
8
0
100
AcDbSpline
70
0
71
2
72
6
73
3
74
0
42
0.000000001
43
0.0000000001
44
0.0000000001
40
0
40
0
40
0
40
1
40
1
40
1
10
-319.19172325612533
20
191.73041331085142
30
-2.7862795204373214e-14
10
-316.93216098566086
20
192.9988736689341
30
-2.8018136796110339e-14
10
-316.47658857316168
20
194.76464223487514
30
-2.8234381078341808e-14
0
SPLINE
5
591
100
AcDbEntity
8
0
100
AcDbSpline
70
0
71
2
72
6
73
3
74
0
42
0.000000001
43
0.0000000001
44
0.0000000001
40
0
40
0
40
0
40
1
40
1
40
1
10
-316.47658857316168
20
194.76464223487514
30
-2.8234381078341808e-14
10
-316.02101512116394
20
196.53041138436404
30
-2.8450625432037284e-14
10
-317.33642073899085
20
198.87359923841043
30
-2.8737583182563169e-14
0
LINE
5
592
100
AcDbEntity
8
0
100
AcDbLine
10
-317.33642073899085
20
198.87359923841043
30
-2.8737583182563169e-14
11
-324.2898208705347
21
211.25998600135807
31
-3.0254478072787671e-14
0
LINE
5
593
100
AcDbEntity
8
0
100
AcDbLine
10
-324.2898208705347
20
211.25998600135807
30
-3.0254478072787671e-14
11
-321.90573914146205
21
212.59834839273236
31
-3.041838019465724e-14
0
LINE
5
594
100
AcDbEntity
8
0
100
AcDbLine
10
-321.90573914146205
20
212.59834839273236
30
-3.0418380194657234e-14
11
-315.00272836924245
21
200.30172233411915
31
-2.8912477820357978e-14
0
SPLINE
5
595
100
AcDbEntity
8
0
100
AcDbSpline
70
0
71
2
72
6
73
3
74
0
42
0.000000001
43
0.0000000001
44
0.0000000001
40
0
40
0
40
0
40
1
40
1
40
1
10
-315.00272836924239
20
200.30172233411915
30
-2.8912477820357978e-14
10
-313.02870143814101
20
196.78530438224908
30
-2.8481840821435779e-14
10
-313.74198039605398
20
194.04516693415042
30
-2.8146270765931999e-14
0
SPLINE
5
596
100
AcDbEntity
8
0
100
AcDbSpline
70
0
71
2
72
6
73
3
74
0
42
0.000000001
43
0.0000000001
44
0.0000000001
40
0
40
0
40
0
40
1
40
1
40
1
10
-313.74198039605398
20
194.04516693415042
30
-2.8146270765931999e-14
10
-314.45525831446838
20
191.30503006959967
30
-2.7810700781892222e-14
10
-317.87516921607317
20
189.3851797235551
30
-2.7575586923779685e-14
0
LINE
5
597
100
AcDbEntity
8
0
100
AcDbLine
10
-306.44783020186952
20
195.93804856916483
30
-2.8378081909480527e-14
11
-316.3851631374406
21
215.54268871542467
31
-3.0778957889835815e-14
0
LINE
5
598
100
AcDbEntity
8
0
100
AcDbLine
10
-316.3851631374406
20
215.54268871542467
30
-3.0778957889835815e-14
11
-314.06258125834432
21
216.71997476763042
31
-3.0923133849387274e-14
0
LINE
5
599
100
AcDbEntity
8
0
100
AcDbLine
10
-314.06258125834432
20
216.71997476763045
30
-3.0923133849387268e-14
11
-293.87060349275021
21
204.67214151896937
31
-2.9447699806923884e-14
0
LINE
5
600
100
AcDbEntity
8
0
100
AcDbLine
10
-293.87060349275021
20
204.67214151896937
30
-2.9447699806923884e-14
11
-295.52337334162382
21
204.65194659929801
31
-2.9445226642550423e-14
0
LINE
5
601
100
AcDbEntity
8
0
100
AcDbLine
10
-295.52337334162382
20
204.65194659929801
30
-2.944522664255043e-14
11
-304.17973784466989
21
221.72945745229654
31
-3.1536618542903315e-14
0
LINE
5
602
100
AcDbEntity
8
0
100
AcDbLine
10
-304.17973784466989
20
221.72945745229654
30
-3.1536618542903315e-14
11
-301.74108002308429
21
222.96558086533733
31
-3.1688000001016459e-14
0
LINE
5
603
100
AcDbEntity
8
0
100
AcDbLine
10
-301.74108002308429
20
222.9655808653373
30
-3.1688000001016459e-14
11
-291.80374708751322
21
203.36094071907746
31
-2.9287124020661177e-14
0
LINE
5
604
100
AcDbEntity
8
0
100
AcDbLine
10
-291.80374708751322
20
203.36094071907746
30
-2.9287124020661177e-14
11
-294.16104688187363
21
202.16605661456188
31
-2.9140792921266474e-14
0
LINE
5
605
100
AcDbEntity
8
0
100
AcDbLine
10
-294.16104688187363
20
202.16605661456191
30
-2.9140792921266474e-14
11
-314.6340815658599
21
214.23625538848714
31
-3.061896595062246e-14
0
LINE
5
606
100
AcDbEntity
8
0
100
AcDbLine
10
-314.6340815658599
20
214.23625538848714
30
-3.061896595062246e-14
11
-312.61104619378648
21
214.14418410132214
31
-3.0607690469910464e-14
0
LINE
5
607
100
AcDbEntity
8
0
100
AcDbLine
10
-312.61104619378648
20
214.14418410132214
30
-3.0607690469910464e-14
11
-304.0091715828126
21
197.17417238643327
31
-2.8529463417097293e-14
0
LINE
5
608
100
AcDbEntity
8
0
100
AcDbLine
10
-304.00917158281254
20
197.17417238643327
30
-2.8529463417097287e-14
11
-306.44783020186952
21
195.93804856916483
31
-2.8378081909480527e-14
0
LINE
5
609
100
AcDbEntity
8
0
100
AcDbLine
10
-288.44000962741961
20
210.32716105659898
30
-3.0140239964511268e-14
11
-295.7297677849935
21
225.78931946028476
31
-3.2033808244209582e-14
0
LINE
5
610
100
AcDbEntity
8
0
100
AcDbLine
10
-295.7297677849935
20
225.78931946028476
30
-3.2033808244209582e-14
11
-293.25677252245583
21
226.95523284171981
31
-3.2176591453275333e-14
0
LINE
5
611
100
AcDbEntity
8
0
100
AcDbLine
10
-293.25677252245583
20
226.95523284171981
30
-3.2176591453275327e-14
11
-285.96701436488195
21
211.493074438034
31
-3.0283023173577012e-14
0
LINE
5
612
100
AcDbEntity
8
0
100
AcDbLine
10
-285.96701436488195
20
211.493074438034
30
-3.0283023173577019e-14
11
-288.44000962741961
21
210.32716105659898
31
-3.0140239964511268e-14
0
LINE
5
613
100
AcDbEntity
8
0
100
AcDbLine
10
-286.48375850099745
20
205.8324861179095
30
-2.9589801036823877e-14
11
-287.76876271170738
21
208.55808252672264
31
-2.9923590328605934e-14
0
LINE
5
614
100
AcDbEntity
8
0
100
AcDbLine
10
-287.76876271170738
20
208.55808252672261
30
-2.9923590328605927e-14
11
-285.02959146859882
21
209.84948670155518
31
-3.0081741727517344e-14
0
LINE
5
615
100
AcDbEntity
8
0
100
AcDbLine
10
-285.02959146859882
20
209.84948670155518
30
-3.0081741727517344e-14
11
-283.7445872578889
21
207.12389029274203
31
-2.9747952435735287e-14
0
LINE
5
616
100
AcDbEntity
8
0
100
AcDbLine
10
-283.74458725788895
20
207.12389029274203
30
-2.9747952435735294e-14
11
-286.48375850099745
21
205.83248611790947
31
-2.9589801036823877e-14
0
ENDSEC
0
SECTION
2
OBJECTS
0
DICTIONARY
5
C
100
AcDbDictionary
3
ACAD_GROUP
350
D
3
ACAD_MLINESTYLE
350
17
0
DICTIONARY
5
D
100
AcDbDictionary
0
DICTIONARY
5
1A
330
C
100
AcDbDictionary
0
DICTIONARY
5
17
100
AcDbDictionary
0
ENDSEC
0
EOF
