0
SECTION
2
HEADER
9
$HANDSEED
5
739
9
$INSUNITS
70
4
9
$ACADVER
1
AC1021
0
ENDSEC
0
SECTION
2
CLASSES
0
ENDSEC
0
SECTION
2
TABLES
0
TABLE
2
LTYPE
5
737
330
0
100
AcDbSymbolTable
70
5
0
LTYPE
5
39E
330
737
100
AcDbSymbolTableRecord
100
AcDbLinetypeTableRecord
2
CONTINUOUS
3
______
70
0
72
65
73
0
40
0
0
LTYPE
5
39F
330
737
100
AcDbSymbolTableRecord
100
AcDbLinetypeTableRecord
2
DASHED
3
_ _ _ 
70
0
72
65
73
2
40
10
49
5
74
0
49
-5
74
0
0
LTYPE
5
3A0
330
737
100
AcDbSymbolTableRecord
100
AcDbLinetypeTableRecord
2
DOTTED
3
. . . 
70
0
72
65
73
2
40
5
49
0
74
0
49
-5
74
0
0
LTYPE
5
3A2
330
737
100
AcDbSymbolTableRecord
100
AcDbLinetypeTableRecord
2
ByBlock
3

70
0
72
65
73
0
40
0
0
LTYPE
5
3A3
330
737
100
AcDbSymbolTableRecord
100
AcDbLinetypeTableRecord
2
ByLayer
3

70
0
72
65
73
0
40
0
0
ENDTAB
0
TABLE
2
LAYER
5
738
330
0
100
AcDbSymbolTable
70
3
0
LAYER
5
3A1
330
738
100
AcDbSymbolTableRecord
100
AcDbLayerTableRecord
2
0
62
7
70
0
6
CONTINUOUS
390
1
0
LAYER
5
3B2
330
738
100
AcDbSymbolTableRecord
100
AcDbLayerTableRecord
2
Layer_0
420
0
70
0
6
CONTINUOUS
390
1
0
LAYER
5
5E0
330
738
100
AcDbSymbolTableRecord
100
AcDbLayerTableRecord
2
Layer_1
420
0
70
0
6
CONTINUOUS
390
1
0
ENDTAB
0
TABLE
2
VPORT
5
3A4
330
0
100
AcDbSymbolTable
70
1
0
VPORT
5
3AA
330
3A4
100
AcDbSymbolTableRecord
100
AcDbViewportTableRecord
2
*ACTIVE
40
1000
70
0
0
ENDTAB
0
TABLE
2
STYLE
5
3A5
330
0
100
AcDbSymbolTable
70
1
0
STYLE
5
3AB
330
3A5
100
AcDbSymbolTableRecord
100
AcDbTextStyleTableRecord
2
standard
70
0
40
0
41
1
50
0
71
0
42
1
3
txt
4

0
ENDTAB
0
TABLE
2
VIEW
5
3A6
330
0
100
AcDbSymbolTable
70
0
0
ENDTAB
0
TABLE
2
UCS
5
3A7
330
0
100
AcDbSymbolTable
70
0
0
ENDTAB
0
TABLE
2
APPID
5
3A8
330
0
100
AcDbSymbolTable
70
1
0
APPID
5
3AC
330
3A8
100
AcDbSymbolTableRecord
100
AcDbRegAppTableRecord
2
ACAD
70
0
0
ENDTAB
0
TABLE
2
DIMSTYLE
5
3A9
330
0
100
AcDbSymbolTable
100
AcDbDimStyleTable
70
0
71
1
0
ENDTAB
0
TABLE
2
BLOCK_RECORD
5
734
330
0
100
AcDbSymbolTable
70
2
0
BLOCK_RECORD
5
735
330
734
100
AcDbSymbolTableRecord
100
AcDbBlockTableRecord
2
*Model_Space
70
0
280
0
281
1
0
BLOCK_RECORD
5
736
330
734
100
AcDbSymbolTableRecord
100
AcDbBlockTableRecord
2
*Paper_Space
70
0
280
0
281
1
0
ENDTAB
0
ENDSEC
0
SECTION
2
BLOCKS
0
BLOCK
5
3AD
330
0
100
AcDbEntity
100
AcDbBlockBegin
2
*Model_Space
70
0
10
0
20
0
30
0
3
*Model_Space
1

0
ENDBLK
5
3AE
330
0
100
AcDbEntity
100
AcDbBlockEnd
0
BLOCK
5
3AF
330
0
100
AcDbEntity
100
AcDbBlockBegin
2
*Paper_Space
70
0
10
0
20
0
30
0
3
*Paper_Space
1

0
ENDBLK
5
3B0
330
0
100
AcDbEntity
100
AcDbBlockEnd
0
ENDSEC
0
SECTION
2
ENTITIES
0
SPLINE
5
3B3
330
3AD
100
AcDbEntity
100
AcDbSpline
8
Layer_0
210
0
220
0
230
1
70
8
71
3
72
8
73
4
74
0
42
1e-7
43
1e-7
44
1e-10
40
0
40
0
40
0
40
0
40
1
40
1
40
1
40
1
10
-11.673967657977414
20
12.695864639422137
30
0
10
-11.816632121270898
20
12.93706302800017
30
0
10
-11.936076648056373
20
13.120991754120173
30
0
10
-12.032300792546401
20
13.247650598325043
30
0
0
SPLINE
5
3B4
330
3AD
100
AcDbEntity
100
AcDbSpline
8
Layer_0
210
0
220
0
230
1
70
8
71
3
72
8
73
4
74
0
42
1e-7
43
1e-7
44
1e-10
40
0
40
0
40
0
40
0
40
1
40
1
40
1
40
1
10
-12.032300792546401
20
13.247650598325043
30
0
10
-12.11048287633866
20
13.350560865006416
30
0
10
-12.186332816635558
20
13.43807602224205
30
0
10
-12.259850521530314
20
13.510195581727725
30
0
0
SPLINE
5
3B5
330
3AD
100
AcDbEntity
100
AcDbSpline
8
Layer_0
210
0
220
0
230
1
70
8
71
3
72
8
73
4
74
0
42
1e-7
43
1e-7
44
1e-10
40
0
40
0
40
0
40
0
40
1
40
1
40
1
40
1
10
-12.259850521530314
20
13.510195581727725
30
0
10
-12.33336849527218
20
13.582315495094063
30
0
10
-12.414211513997227
20
13.633263589104786
30
0
10
-12.502380115399674
20
13.663040571521222
30
0
0
SPLINE
5
3B6
330
3AD
100
AcDbEntity
100
AcDbSpline
8
Layer_0
210
0
220
0
230
1
70
8
71
3
72
8
73
4
74
0
42
1e-7
43
1e-7
44
1e-10
40
0
40
0
40
0
40
0
40
1
40
1
40
1
40
1
10
-12.502380115399674
20
13.663040571521222
30
0
10
-12.590548865397936
20
13.692817627090028
30
0
10
-12.692693153542125
20
13.691688655172198
30
0
10
-12.808812979832243
20
13.659653655767736
30
0
0
SPLINE
5
3B7
330
3AD
100
AcDbEntity
100
AcDbSpline
8
Layer_0
210
0
220
0
230
1
70
8
71
3
72
8
73
4
74
0
42
1e-7
43
1e-7
44
1e-10
40
0
40
0
40
0
40
0
40
1
40
1
40
1
40
1
10
-12.808812979832243
20
13.659653655767736
30
0
10
-12.924932836757954
20
13.627618819131346
30
0
10
-13.063182743049708
20
13.55692310293154
30
0
10
-13.223562072543118
20
13.447565866618763
30
0
0
SPLINE
5
3B8
330
3AD
100
AcDbEntity
100
AcDbSpline
8
Layer_0
210
0
220
0
230
1
70
8
71
3
72
8
73
4
74
0
42
1e-7
43
1e-7
44
1e-10
40
0
40
0
40
0
40
0
40
1
40
1
40
1
40
1
10
-13.223562072543118
20
13.447565866618763
30
0
10
-13.15851282224924
20
13.37837623496728
30
0
10
-13.092435654773874
20
13.303725060983844
30
0
10
-13.025330570117026
20
13.223612344668457
30
0
0
SPLINE
5
3B9
330
3AD
100
AcDbEntity
100
AcDbSpline
8
Layer_0
210
0
220
0
230
1
70
8
71
3
72
8
73
4
74
0
42
1e-7
43
1e-7
44
1e-10
40
0
40
0
40
0
40
0
40
1
40
1
40
1
40
1
10
-13.025330570117026
20
13.223612344668457
30
0
10
-12.958225425334529
20
13.14349948798892
30
0
10
-12.893099269698878
20
13.06188317105909
30
0
10
-12.829952191680242
20
12.978763326667186
30
0
0
SPLINE
5
3BA
330
3AD
100
AcDbEntity
100
AcDbSpline
8
Layer_0
210
0
220
0
230
1
70
8
71
3
72
8
73
4
74
0
42
1e-7
43
1e-7
44
1e-10
40
0
40
0
40
0
40
0
40
1
40
1
40
1
40
1
10
-12.829952191680242
20
12.978763326667186
30
0
10
-12.658552749474993
20
12.753152017134305
30
0
10
-12.48399285910498
20
12.498729608843735
30
0
10
-12.306272163252924
20
12.215495815126589
30
0
0
SPLINE
5
3BB
330
3AD
100
AcDbEntity
100
AcDbSpline
8
Layer_0
210
0
220
0
230
1
70
8
71
3
72
8
73
4
74
0
42
1e-7
43
1e-7
44
1e-10
40
0
40
0
40
0
40
0
40
1
40
1
40
1
40
1
10
-12.306272163252924
20
12.215495815126589
30
0
10
-12.128551287023924
20
11.932261600317
30
0
10
-11.95277114182009
20
11.641310899922422
30
0
10
-11.778931770158199
20
11.342643402578965
30
0
0
SPLINE
5
3BC
330
3AD
100
AcDbEntity
100
AcDbSpline
8
Layer_0
210
0
220
0
230
1
70
8
71
3
72
8
73
4
74
0
42
1e-7
43
1e-7
44
1e-10
40
0
40
0
40
0
40
0
40
1
40
1
40
1
40
1
10
-11.778931770158199
20
11.342643402578965
30
0
10
-11.738442870810626
20
11.27308090616408
30
0
10
-11.69836280059257
20
11.204056914623893
30
0
10
-11.658691559504032
20
11.135571427958403
30
0
0
SPLINE
5
3BD
330
3AD
100
AcDbEntity
100
AcDbSpline
8
Layer_0
210
0
220
0
230
1
70
8
71
3
72
8
73
4
74
0
42
1e-7
43
1e-7
44
1e-10
40
0
40
0
40
0
40
0
40
1
40
1
40
1
40
1
10
-11.658691559504032
20
11.135571427958403
30
0
10
-11.759641028947303
20
11.034900459915798
30
0
10
-11.823260413180483
20
10.931538469200088
30
0
10
-11.849549666250185
20
10.825485211659164
30
0
0
SPLINE
5
3BE
330
3AD
100
AcDbEntity
100
AcDbSpline
8
Layer_0
210
0
220
0
230
1
70
8
71
3
72
8
73
4
74
0
42
1e-7
43
1e-7
44
1e-10
40
0
40
0
40
0
40
0
40
1
40
1
40
1
40
1
10
-11.849549666250185
20
10.825485211659164
30
0
10
-11.87719377625663
20
10.713966941132128
30
0
10
-11.839896749184929
20
10.590920333805261
30
0
10
-11.737658494846608
20
10.456345179132338
30
0
0
SPLINE
5
3BF
330
3AD
100
AcDbEntity
100
AcDbSpline
8
Layer_0
210
0
220
0
230
1
70
8
71
3
72
8
73
4
74
0
42
1e-7
43
1e-7
44
1e-10
40
0
40
0
40
0
40
0
40
1
40
1
40
1
40
1
10
-11.737658494846608
20
10.456345179132338
30
0
10
-11.716609513648248
20
10.428638623315148
30
0
10
-11.687053534989653
20
10.391788586478368
30
0
10
-11.648990380212185
20
10.34579492528756
30
0
0
SPLINE
5
3C0
330
3AD
100
AcDbEntity
100
AcDbSpline
8
Layer_0
210
0
220
0
230
1
70
8
71
3
72
8
73
4
74
0
42
1e-7
43
1e-7
44
1e-10
40
0
40
0
40
0
40
0
40
1
40
1
40
1
40
1
10
-11.648990380212185
20
10.34579492528756
30
0
10
-11.610927315623188
20
10.299801474642972
30
0
10
-11.579392169159108
20
10.264454754722049
30
0
10
-11.554385076961804
20
10.239755220223117
30
0
0
SPLINE
5
3C1
330
3AD
100
AcDbEntity
100
AcDbSpline
8
Layer_0
210
0
220
0
230
1
70
8
71
3
72
8
73
4
74
0
42
1e-7
43
1e-7
44
1e-10
40
0
40
0
40
0
40
0
40
1
40
1
40
1
40
1
10
-11.554385076961804
20
10.239755220223117
30
0
10
-11.481564557313703
20
10.347513615291257
30
0
10
-11.404158411845879
20
10.451047937191232
30
0
10
-11.322166640558333
20
10.550358185923045
30
0
0
SPLINE
5
3C2
330
3AD
100
AcDbEntity
100
AcDbSpline
8
Layer_0
210
0
220
0
230
1
70
8
71
3
72
8
73
4
74
0
42
1e-7
43
1e-7
44
1e-10
40
0
40
0
40
0
40
0
40
1
40
1
40
1
40
1
10
-11.322166640558333
20
10.550358185923045
30
0
10
-11.308039664091886
20
10.52560118373427
30
0
10
-11.29397267460315
20
10.500923815217782
30
0
10
-11.279965672092125
20
10.476326080373578
30
0
0
SPLINE
5
3C3
330
3AD
100
AcDbEntity
100
AcDbSpline
8
Layer_0
210
0
220
0
230
1
70
8
71
3
72
8
73
4
74
0
42
1e-7
43
1e-7
44
1e-10
40
0
40
0
40
0
40
0
40
1
40
1
40
1
40
1
10
-11.279965672092125
20
10.476326080373578
30
0
10
-11.121161083310135
20
10.197448895591036
30
0
10
-10.976202869066524
20
9.947068599842291
30
0
10
-10.845090650785632
20
9.7251850621404
30
0
0
SPLINE
5
3C4
330
3AD
100
AcDbEntity
100
AcDbSpline
8
Layer_0
210
0
220
0
230
1
70
8
71
3
72
8
73
4
74
0
42
1e-7
43
1e-7
44
1e-10
40
0
40
0
40
0
40
0
40
1
40
1
40
1
40
1
10
-10.845090650785632
20
9.7251850621404
30
0
10
-10.713978469080926
20
9.5033014501406
30
0
10
-10.601813811041707
20
9.331009270165225
30
0
10
-10.508596676667974
20
9.20830852221427
30
0
0
SPLINE
5
3C5
330
3AD
100
AcDbEntity
100
AcDbSpline
8
Layer_0
210
0
220
0
230
1
70
8
71
3
72
8
73
4
74
0
42
1e-7
43
1e-7
44
1e-10
40
0
40
0
40
0
40
0
40
1
40
1
40
1
40
1
10
-10.508596676667974
20
9.20830852221427
30
0
10
-10.38530954194896
20
9.046026944429405
30
0
10
-10.256039643222232
20
8.92106381674313
30
0
10
-10.120787075131709
20
8.833419171902179
30
0
0
SPLINE
5
3C6
330
3AD
100
AcDbEntity
100
AcDbSpline
8
Layer_0
210
0
220
0
230
1
70
8
71
3
72
8
73
4
74
0
42
1e-7
43
1e-7
44
1e-10
40
0
40
0
40
0
40
0
40
1
40
1
40
1
40
1
10
-10.120787075131709
20
8.833419171902179
30
0
10
-9.985534446003157
20
8.745774538549574
30
0
10
-9.837096328586306
20
8.696238533689375
30
0
10
-9.675472529137874
20
8.684811269627593
30
0
0
SPLINE
5
3C7
330
3AD
100
AcDbEntity
100
AcDbSpline
8
Layer_0
210
0
220
0
230
1
70
8
71
3
72
8
73
4
74
0
42
1e-7
43
1e-7
44
1e-10
40
0
40
0
40
0
40
0
40
1
40
1
40
1
40
1
10
-9.675472529137874
20
8.684811269627593
30
0
10
-9.513848794270535
20
8.673383968130473
30
0
10
-9.327364551380601
20
8.70113173247629
30
0
10
-9.116019800468074
20
8.768054562665043
30
0
0
SPLINE
5
3C8
330
3AD
100
AcDbEntity
100
AcDbSpline
8
Layer_0
210
0
220
0
230
1
70
8
71
3
72
8
73
4
74
0
42
1e-7
43
1e-7
44
1e-10
40
0
40
0
40
0
40
0
40
1
40
1
40
1
40
1
10
-9.116019800468074
20
8.768054562665043
30
0
10
-9.191838417328315
20
8.81033498882409
30
0
10
-9.278772466561223
20
8.881626159965252
30
0
10
-9.376821948166796
20
8.981928076088527
30
0
0
SPLINE
5
3C9
330
3AD
100
AcDbEntity
100
AcDbSpline
8
Layer_0
210
0
220
0
230
1
70
8
71
3
72
8
73
4
74
0
42
1e-7
43
1e-7
44
1e-10
40
0
40
0
40
0
40
0
40
1
40
1
40
1
40
1
10
-9.376821948166796
20
8.981928076088527
30
0
10
-9.474871335701222
20
9.082230052051067
30
0
10
-9.579525657236813
20
9.205605650732387
30
0
10
-9.690784807500464
20
9.352054917226727
30
0
0
SPLINE
5
3CA
330
3AD
100
AcDbEntity
100
AcDbSpline
8
Layer_0
210
0
220
0
230
1
70
8
71
3
72
8
73
4
74
0
42
1e-7
43
1e-7
44
1e-10
40
0
40
0
40
0
40
0
40
1
40
1
40
1
40
1
10
-9.690784807500464
20
9.352054917226727
30
0
10
-9.838128011947875
20
9.546001250297893
30
0
10
-9.997415155072686
20
9.782374583073619
30
0
10
-10.168646325345062
20
10.06117484834213
30
0
0
SPLINE
5
3CB
330
3AD
100
AcDbEntity
100
AcDbSpline
8
Layer_0
210
0
220
0
230
1
70
8
71
3
72
8
73
4
74
0
42
1e-7
43
1e-7
44
1e-10
40
0
40
0
40
0
40
0
40
1
40
1
40
1
40
1
10
-10.168646325345062
20
10.06117484834213
30
0
10
-10.339877562829216
20
10.339975202080808
30
0
10
-10.513954843992135
20
10.636901573825055
30
0
10
-10.690878324515758
20
10.951953984833256
30
0
0
SPLINE
5
3CC
330
3AD
100
AcDbEntity
100
AcDbSpline
8
Layer_0
210
0
220
0
230
1
70
8
71
3
72
8
73
4
74
0
42
1e-7
43
1e-7
44
1e-10
40
0
40
0
40
0
40
0
40
1
40
1
40
1
40
1
10
-10.690878324515758
20
10.951953984833256
30
0
10
-10.718946376087862
20
11.00193553871244
30
0
10
-10.746897633916477
20
11.05176182766292
30
0
10
-10.774732098001602
20
11.101432851684693
30
0
0
SPLINE
5
3CD
330
3AD
100
AcDbEntity
100
AcDbSpline
8
Layer_0
210
0
220
0
230
1
70
8
71
3
72
8
73
4
74
0
42
1e-7
43
1e-7
44
1e-10
40
0
40
0
40
0
40
0
40
1
40
1
40
1
40
1
10
-10.774732098001602
20
11.101432851684693
30
0
10
-10.606149491527992
20
11.24969067513803
30
0
10
-10.433238153669075
20
11.391145221088836
30
0
10
-10.255998084424853
20
11.525796489537115
30
0
0
SPLINE
5
3CE
330
3AD
100
AcDbEntity
100
AcDbSpline
8
Layer_0
210
0
220
0
230
1
70
8
71
3
72
8
73
4
74
0
42
1e-7
43
1e-7
44
1e-10
40
0
40
0
40
0
40
0
40
1
40
1
40
1
40
1
10
-10.255998084424853
20
11.525796489537115
30
0
10
-10.109548817930513
20
11.637055639800765
30
0
10
-9.961596023974101
20
11.746335712447403
30
0
10
-9.812139702555616
20
11.853636707477026
30
0
0
SPLINE
5
3CF
330
3AD
100
AcDbEntity
100
AcDbSpline
8
Layer_0
210
0
220
0
230
1
70
8
71
3
72
8
73
4
74
0
42
1e-7
43
1e-7
44
1e-10
40
0
40
0
40
0
40
0
40
1
40
1
40
1
40
1
10
-9.812139702555616
20
11.853636707477026
30
0
10
-9.662683515560685
20
11.960937879446982
30
0
10
-9.520667954455313
20
12.065707369707399
30
0
10
-9.386092976722722
20
12.167945489622165
30
0
0
SPLINE
5
3D0
330
3AD
100
AcDbEntity
100
AcDbSpline
8
Layer_0
210
0
220
0
230
1
70
8
71
3
72
8
73
4
74
0
42
1e-7
43
1e-7
44
1e-10
40
0
40
0
40
0
40
0
40
1
40
1
40
1
40
1
10
-9.386092976722722
20
12.167945489622165
30
0
10
-9.326721532913982
20
12.213050641366587
30
0
10
-9.271623094612712
20
12.265834038396093
30
0
10
-9.22079699657436
20
12.326295907041018
30
0
0
SPLINE
5
3D1
330
3AD
100
AcDbEntity
100
AcDbSpline
8
Layer_0
210
0
220
0
230
1
70
8
71
3
72
8
73
4
74
0
42
1e-7
43
1e-7
44
1e-10
40
0
40
0
40
0
40
0
40
1
40
1
40
1
40
1
10
-9.22079699657436
20
12.326295907041018
30
0
10
-9.16997138684023
20
12.386757683779166
30
0
10
-9.13038332752719
20
12.455849032442611
30
0
10
-9.102032953058798
20
12.533570129971686
30
0
0
SPLINE
5
3D2
330
3AD
100
AcDbEntity
100
AcDbSpline
8
Layer_0
210
0
220
0
230
1
70
8
71
3
72
8
73
4
74
0
42
1e-7
43
1e-7
44
1e-10
40
0
40
0
40
0
40
0
40
1
40
1
40
1
40
1
10
-9.102032953058798
20
12.533570129971686
30
0
10
-9.073682798047514
20
12.611290781713318
30
0
10
-9.064010911253659
20
12.69510981197493
30
0
10
-9.073017866015007
20
12.78502650612197
30
0
0
SPLINE
5
3D3
330
3AD
100
AcDbEntity
100
AcDbSpline
8
Layer_0
210
0
220
0
230
1
70
8
71
3
72
8
73
4
74
0
42
1e-7
43
1e-7
44
1e-10
40
0
40
0
40
0
40
0
40
1
40
1
40
1
40
1
10
-9.073017866015007
20
12.78502650612197
30
0
10
-9.076618010176968
20
12.82096767205072
30
0
10
-9.08455524805083
20
12.858351558834144
30
0
10
-9.096830152974366
20
12.89717745183769
30
0
0
SPLINE
5
3D4
330
3AD
100
AcDbEntity
100
AcDbSpline
8
Layer_0
210
0
220
0
230
1
70
8
71
3
72
8
73
4
74
0
42
1e-7
43
1e-7
44
1e-10
40
0
40
0
40
0
40
0
40
1
40
1
40
1
40
1
10
-9.096830152974366
20
12.89717745183769
30
0
10
-8.992430791914831
20
12.716390877962032
30
0
10
-8.890923176848554
20
12.539407740743396
30
0
10
-8.79230730777554
20
12.366228040181781
30
0
0
SPLINE
5
3D5
330
3AD
100
AcDbEntity
100
AcDbSpline
8
Layer_0
210
0
220
0
230
1
70
8
71
3
72
8
73
4
74
0
42
1e-7
43
1e-7
44
1e-10
40
0
40
0
40
0
40
0
40
1
40
1
40
1
40
1
10
-8.79230730777554
20
12.366228040181781
30
0
10
-8.633502807463715
20
12.087350788187461
30
0
10
-8.488544239339442
20
11.836970761285826
30
0
10
-8.357432109528716
20
11.615087156372157
30
0
0
SPLINE
5
3D6
330
3AD
100
AcDbEntity
100
AcDbSpline
8
Layer_0
210
0
220
0
230
1
70
8
71
3
72
8
73
4
74
0
42
1e-7
43
1e-7
44
1e-10
40
0
40
0
40
0
40
0
40
1
40
1
40
1
40
1
10
-8.357432109528716
20
11.615087156372157
30
0
10
-8.22631997971799
20
11.393203551458488
30
0
10
-8.11415551336413
20
11.220911225857595
30
0
10
-8.020938356586472
20
11.098210448416586
30
0
0
SPLINE
5
3D7
330
3AD
100
AcDbEntity
100
AcDbSpline
8
Layer_0
210
0
220
0
230
1
70
8
71
3
72
8
73
4
74
0
42
1e-7
43
1e-7
44
1e-10
40
0
40
0
40
0
40
0
40
1
40
1
40
1
40
1
10
-8.020938356586472
20
11.098210448416586
30
0
10
-7.897651221867457
20
10.93592887063172
30
0
10
-7.769370596538738
20
10.810214180849739
30
0
10
-7.636097238770477
20
10.721065907729049
30
0
0
SPLINE
5
3D8
330
3AD
100
AcDbEntity
100
AcDbSpline
8
Layer_0
210
0
220
0
230
1
70
8
71
3
72
8
73
4
74
0
42
1e-7
43
1e-7
44
1e-10
40
0
40
0
40
0
40
0
40
1
40
1
40
1
40
1
10
-7.636097238770477
20
10.721065907729049
30
0
10
-7.502823510318606
20
10.631917881337927
30
0
10
-7.35438548137192
20
10.582381809265948
30
0
10
-7.190782781246808
20
10.572457938242685
30
0
0
SPLINE
5
3D9
330
3AD
100
AcDbEntity
100
AcDbSpline
8
Layer_0
210
0
220
0
230
1
70
8
71
3
72
8
73
4
74
0
42
1e-7
43
1e-7
44
1e-10
40
0
40
0
40
0
40
0
40
1
40
1
40
1
40
1
10
-7.190782781246808
20
10.572457938242685
30
0
10
-7.027179731441768
20
10.562534341595917
30
0
10
-6.839706007323193
20
10.59103382302179
30
0
10
-6.6283612592111565
20
10.6579566568968
30
0
0
SPLINE
5
3DA
330
3AD
100
AcDbEntity
100
AcDbSpline
8
Layer_0
210
0
220
0
230
1
70
8
71
3
72
8
73
4
74
0
42
1e-7
43
1e-7
44
1e-10
40
0
40
0
40
0
40
0
40
1
40
1
40
1
40
1
10
-6.6283612592111565
20
10.6579566568968
30
0
10
-6.783005856928599
20
10.7464753366217
30
0
10
-6.974593956685619
20
10.941142300707002
30
0
10
-7.2031262662435465
20
11.241957011458485
30
0
0
SPLINE
5
3DB
330
3AD
100
AcDbEntity
100
AcDbSpline
8
Layer_0
210
0
220
0
230
1
70
8
71
3
72
8
73
4
74
0
42
1e-7
43
1e-7
44
1e-10
40
0
40
0
40
0
40
0
40
1
40
1
40
1
40
1
10
-7.2031262662435465
20
11.241957011458485
30
0
10
-7.350469470690957
20
11.43590334452965
30
0
10
-7.5097568792262654
20
11.672276475670044
30
0
10
-7.680987784088144
20
11.951076942573888
30
0
0
SPLINE
5
3DC
330
3AD
100
AcDbEntity
100
AcDbSpline
8
Layer_0
210
0
220
0
230
1
70
8
71
3
72
8
73
4
74
0
42
1e-7
43
1e-7
44
1e-10
40
0
40
0
40
0
40
0
40
1
40
1
40
1
40
1
10
-7.680987784088144
20
11.951076942573888
30
0
10
-7.852219110042464
20
12.229877229100788
30
0
10
-8.026296302735217
20
12.526803668056813
30
0
10
-8.20321978325884
20
12.841856079065014
30
0
0
SPLINE
5
3DD
330
3AD
100
AcDbEntity
100
AcDbSpline
8
Layer_0
210
0
220
0
230
1
70
8
71
3
72
8
73
4
74
0
42
1e-7
43
1e-7
44
1e-10
40
0
40
0
40
0
40
0
40
1
40
1
40
1
40
1
10
-8.20321978325884
20
12.841856079065014
30
0
10
-8.380143218974611
20
13.156908431093106
30
0
10
-8.552556117112013
20
13.466023609250266
30
0
10
-8.72045847767105
20
13.769201613536499
30
0
0
SPLINE
5
3DE
330
3AD
100
AcDbEntity
100
AcDbSpline
8
Layer_0
210
0
220
0
230
1
70
8
71
3
72
8
73
4
74
0
42
1e-7
43
1e-7
44
1e-10
40
0
40
0
40
0
40
0
40
1
40
1
40
1
40
1
10
-8.72045847767105
20
13.769201613536499
30
0
10
-8.888361062269345
20
14.072379912723285
30
0
10
-9.043644296109736
20
14.344568058406974
30
0
10
-9.186309205190662
20
14.585766666442115
30
0
0
SPLINE
5
3DF
330
3AD
100
AcDbEntity
100
AcDbSpline
8
Layer_0
210
0
220
0
230
1
70
8
71
3
72
8
73
4
74
0
42
1e-7
43
1e-7
44
1e-10
40
0
40
0
40
0
40
0
40
1
40
1
40
1
40
1
10
-9.186309205190662
20
14.585766666442115
30
0
10
-9.328973845424478
20
14.826964920596593
30
0
10
-9.448418195269623
20
15.010893781140153
30
0
10
-9.544642339759651
20
15.137552625345023
30
0
0
SPLINE
5
3E0
330
3AD
100
AcDbEntity
100
AcDbSpline
8
Layer_0
210
0
220
0
230
1
70
8
71
3
72
8
73
4
74
0
42
1e-7
43
1e-7
44
1e-10
40
0
40
0
40
0
40
0
40
1
40
1
40
1
40
1
10
-9.544642339759651
20
15.137552625345023
30
0
10
-9.62282442355191
20
15.240462892026397
30
0
10
-9.698674363848804
20
15.327978049262029
30
0
10
-9.772192245683893
20
15.400097474324149
30
0
0
SPLINE
5
3E1
330
3AD
100
AcDbEntity
100
AcDbSpline
8
Layer_0
210
0
220
0
230
1
70
8
71
3
72
8
73
4
74
0
42
1e-7
43
1e-7
44
1e-10
40
0
40
0
40
0
40
0
40
1
40
1
40
1
40
1
10
-9.772192245683893
20
15.400097474324149
30
0
10
-9.845710042485427
20
15.472217522114041
30
0
10
-9.926552884270142
20
15.52316575054832
30
0
10
-10.014721662612923
20
15.5529425985412
30
0
0
SPLINE
5
3E2
330
3AD
100
AcDbEntity
100
AcDbSpline
8
Layer_0
210
0
220
0
230
1
70
8
71
3
72
8
73
4
74
0
42
1e-7
43
1e-7
44
1e-10
40
0
40
0
40
0
40
0
40
1
40
1
40
1
40
1
10
-10.014721662612923
20
15.5529425985412
30
0
10
-10.102890440955703
20
15.582719446534082
30
0
10
-10.205034581649617
20
15.581590586635883
30
0
10
-10.321154438575327
20
15.549555749999493
30
0
0
SPLINE
5
3E3
330
3AD
100
AcDbEntity
100
AcDbSpline
8
Layer_0
210
0
220
0
230
1
70
8
71
3
72
8
73
4
74
0
42
1e-7
43
1e-7
44
1e-10
40
0
40
0
40
0
40
0
40
1
40
1
40
1
40
1
10
-10.321154438575327
20
15.549555749999493
30
0
10
-10.437274295501037
20
15.517520913363104
30
0
10
-10.57552420179279
20
15.446825197163296
30
0
10
-10.735903619756366
20
15.337467893638742
30
0
0
SPLINE
5
3E4
330
3AD
100
AcDbEntity
100
AcDbSpline
8
Layer_0
210
0
220
0
230
1
70
8
71
3
72
8
73
4
74
0
42
1e-7
43
1e-7
44
1e-10
40
0
40
0
40
0
40
0
40
1
40
1
40
1
40
1
10
-10.735903619756366
20
15.337467893638742
30
0
10
-10.670854341117968
20
15.268278469563183
30
0
10
-10.604777262112771
20
15.193627228367973
30
0
10
-10.537672028860108
20
15.113514438900214
30
0
0
SPLINE
5
3E5
330
3AD
100
AcDbEntity
100
AcDbSpline
8
Layer_0
210
0
220
0
230
1
70
8
71
3
72
8
73
4
74
0
42
1e-7
43
1e-7
44
1e-10
40
0
40
0
40
0
40
0
40
1
40
1
40
1
40
1
10
-10.537672028860108
20
15.113514438900214
30
0
10
-10.470566795607445
20
15.033401649432456
30
0
10
-10.405440816912128
20
14.95178519807907
30
0
10
-10.342293738893492
20
14.868665353687167
30
0
0
SPLINE
5
3E6
330
3AD
100
AcDbEntity
100
AcDbSpline
8
Layer_0
210
0
220
0
230
1
70
8
71
3
72
8
73
4
74
0
42
1e-7
43
1e-7
44
1e-10
40
0
40
0
40
0
40
0
40
1
40
1
40
1
40
1
10
-10.342293738893492
20
14.868665353687167
30
0
10
-10.170894296688243
20
14.643054044154285
30
0
10
-9.996334229377895
20
14.388631770287269
30
0
10
-9.818613621996006
20
14.105397909358345
30
0
0
SPLINE
5
3E7
330
3AD
100
AcDbEntity
100
AcDbSpline
8
Layer_0
210
0
220
0
230
1
70
8
71
3
72
8
73
4
74
0
42
1e-7
43
1e-7
44
1e-10
40
0
40
0
40
0
40
0
40
1
40
1
40
1
40
1
10
-9.818613621996006
20
14.105397909358345
30
0
10
-9.640892717422489
20
13.82216390212468
30
0
10
-9.465112615880969
20
13.531213075538213
30
0
10
-9.291273317371447
20
13.232545429598943
30
0
0
SPLINE
5
3E8
330
3AD
100
AcDbEntity
100
AcDbSpline
8
Layer_0
210
0
220
0
230
1
70
8
71
3
72
8
73
4
74
0
42
1e-7
43
1e-7
44
1e-10
40
0
40
0
40
0
40
0
40
1
40
1
40
1
40
1
10
-9.291273317371447
20
13.232545429598943
30
0
10
-9.259495562911608
20
13.177948859455087
30
0
10
-9.228003488877816
20
13.12374277574119
30
0
10
-9.19679709527007
20
13.06992717845725
30
0
0
SPLINE
5
3E9
330
3AD
100
AcDbEntity
100
AcDbSpline
8
Layer_0
210
0
220
0
230
1
70
8
71
3
72
8
73
4
74
0
42
1e-7
43
1e-7
44
1e-10
40
0
40
0
40
0
40
0
40
1
40
1
40
1
40
1
10
-9.19679709527007
20
13.06992717845725
30
0
10
-9.512779213992536
20
12.823728716943029
30
0
10
-9.814386877057554
20
12.58845069060908
30
0
10
-10.101619419220574
20
12.364093325785738
30
0
0
SPLINE
5
3EA
330
3AD
100
AcDbEntity
100
AcDbSpline
8
Layer_0
210
0
220
0
230
1
70
8
71
3
72
8
73
4
74
0
42
1e-7
43
1e-7
44
1e-10
40
0
40
0
40
0
40
0
40
1
40
1
40
1
40
1
10
-10.101619419220574
20
12.364093325785738
30
0
10
-10.393489974902119
20
12.136113342562338
30
0
10
-10.642335565377653
20
11.943941511310488
30
0
10
-10.8481560987404
20
11.787577343725971
30
0
0
LINE
5
3EB
330
3AD
100
AcDbEntity
100
AcDbLine
8
Layer_0
10
-10.8481560987404
20
11.787577343725971
30
0
11
-11.065561269540886
21
11.622412197152016
31
0
0
SPLINE
5
3EC
330
3AD
100
AcDbEntity
100
AcDbSpline
8
Layer_0
210
0
220
0
230
1
70
8
71
3
72
8
73
4
74
0
42
1e-7
43
1e-7
44
1e-10
40
0
40
0
40
0
40
0
40
1
40
1
40
1
40
1
10
-11.065561269540886
20
11.622412197152016
30
0
10
-11.113443987619766
20
11.708524835872383
30
0
10
-11.160962541258737
20
11.794153965660552
30
0
10
-11.208116930457802
20
11.87929958651652
30
0
0
SPLINE
5
3ED
330
3AD
100
AcDbEntity
100
AcDbSpline
8
Layer_0
210
0
220
0
230
1
70
8
71
3
72
8
73
4
74
0
42
1e-7
43
1e-7
44
1e-10
40
0
40
0
40
0
40
0
40
1
40
1
40
1
40
1
10
-11.208116930457802
20
11.87929958651652
30
0
10
-11.376019515056097
20
12.182477885703307
30
0
10
-11.531302748896488
20
12.454666031386996
30
0
10
-11.673967657977414
20
12.695864639422137
30
0
0
LINE
5
3EE
330
3AD
100
AcDbEntity
100
AcDbLine
8
Layer_0
10
-4.135988252411058
20
13.308657979233168
30
0
11
-4.081869841142371
21
13.312864020413748
31
0
0
SPLINE
5
3EF
330
3AD
100
AcDbEntity
100
AcDbSpline
8
Layer_0
210
0
220
0
230
1
70
8
71
3
72
8
73
4
74
0
42
1e-7
43
1e-7
44
1e-10
40
0
40
0
40
0
40
0
40
1
40
1
40
1
40
1
10
-4.081869841142371
20
13.312864020413748
30
0
10
-4.079601779185266
20
13.292494932117998
30
0
10
-4.075437182453958
20
13.274156540778348
30
0
10
-4.069375842660185
20
13.257848923812972
30
0
0
LINE
5
3F0
330
3AD
100
AcDbEntity
100
AcDbLine
8
Layer_0
10
-4.069375842660185
20
13.257848923812972
30
0
11
-4.0395020274103635
21
13.177475482797668
31
0
0
SPLINE
5
3F1
330
3AD
100
AcDbEntity
100
AcDbSpline
8
Layer_0
210
0
220
0
230
1
70
8
71
3
72
8
73
4
74
0
42
1e-7
43
1e-7
44
1e-10
40
0
40
0
40
0
40
0
40
1
40
1
40
1
40
1
10
-4.0395020274103635
20
13.177475482797668
30
0
10
-3.895761349172355
20
12.790751094658756
30
0
10
-3.721426523091143
20
12.521458697556257
30
0
10
-3.5164971180742994
20
12.369598407272468
30
0
0
SPLINE
5
3F2
330
3AD
100
AcDbEntity
100
AcDbSpline
8
Layer_0
210
0
220
0
230
1
70
8
71
3
72
8
73
4
74
0
42
1e-7
43
1e-7
44
1e-10
40
0
40
0
40
0
40
0
40
1
40
1
40
1
40
1
10
-3.5164971180742994
20
12.369598407272468
30
0
10
-3.311567989162259
20
12.217738009425108
30
0
10
-3.0487480561378213
20
12.1669402644932
30
0
10
-2.728037319000987
20
12.21720517247674
30
0
0
SPLINE
5
3F3
330
3AD
100
AcDbEntity
100
AcDbSpline
8
Layer_0
210
0
220
0
230
1
70
8
71
3
72
8
73
4
74
0
42
1e-7
43
1e-7
44
1e-10
40
0
40
0
40
0
40
0
40
1
40
1
40
1
40
1
10
-2.728037319000987
20
12.21720517247674
30
0
10
-2.8747863885524794
20
12.369478283305666
30
0
10
-2.9913119920306337
20
12.51177299905919
30
0
10
-3.0776137056009745
20
12.644089455046634
30
0
0
SPLINE
5
3F4
330
3AD
100
AcDbEntity
100
AcDbSpline
8
Layer_0
210
0
220
0
230
1
70
8
71
3
72
8
73
4
74
0
42
1e-7
43
1e-7
44
1e-10
40
0
40
0
40
0
40
0
40
1
40
1
40
1
40
1
10
-3.0776137056009745
20
12.644089455046634
30
0
10
-3.1639154191713152
20
12.776405911034079
30
0
10
-3.244299888157937
20
12.942739882108315
30
0
10
-3.3187679457138826
20
13.143091058596651
30
0
0
SPLINE
5
3F5
330
3AD
100
AcDbEntity
100
AcDbSpline
8
Layer_0
210
0
220
0
230
1
70
8
71
3
72
8
73
4
74
0
42
1e-7
43
1e-7
44
1e-10
40
0
40
0
40
0
40
0
40
1
40
1
40
1
40
1
10
-3.3187679457138826
20
13.143091058596651
30
0
10
-3.4140177701199037
20
13.399354146508095
30
0
10
-3.492661047735141
20
13.664441239550209
30
0
10
-3.5546977785595955
20
13.938352337722995
30
0
0
SPLINE
5
3F6
330
3AD
100
AcDbEntity
100
AcDbSpline
8
Layer_0
210
0
220
0
230
1
70
8
71
3
72
8
73
4
74
0
42
1e-7
43
1e-7
44
1e-10
40
0
40
0
40
0
40
0
40
1
40
1
40
1
40
1
10
-3.5546977785595955
20
13.938352337722995
30
0
10
-3.6167345093840497
20
14.21226343589578
30
0
10
-3.6697822204369746
20
14.476257857619027
30
0
10
-3.71384148313124
20
14.730335864632908
30
0
0
SPLINE
5
3F7
330
3AD
100
AcDbEntity
100
AcDbSpline
8
Layer_0
210
0
220
0
230
1
70
8
71
3
72
8
73
4
74
0
42
1e-7
43
1e-7
44
1e-10
40
0
40
0
40
0
40
0
40
1
40
1
40
1
40
1
10
-3.71384148313124
20
14.730335864632908
30
0
10
-3.7579003292489834
20
14.984414026483137
30
0
10
-3.7991241863956393
20
15.21303058764782
30
0
10
-3.837513625984077
20
15.41618580986713
30
0
0
SPLINE
5
3F8
330
3AD
100
AcDbEntity
100
AcDbSpline
8
Layer_0
210
0
220
0
230
1
70
8
71
3
72
8
73
4
74
0
42
1e-7
43
1e-7
44
1e-10
40
0
40
0
40
0
40
0
40
1
40
1
40
1
40
1
10
-3.837513625984077
20
15.41618580986713
30
0
10
-3.8759026231899347
20
15.619341117493368
30
0
10
-3.9176107138372624
20
15.78149003905689
30
0
10
-3.9626378979260597
20
15.9026325745577
30
0
0
SPLINE
5
3F9
330
3AD
100
AcDbEntity
100
AcDbSpline
8
Layer_0
210
0
220
0
230
1
70
8
71
3
72
8
73
4
74
0
42
1e-7
43
1e-7
44
1e-10
40
0
40
0
40
0
40
0
40
1
40
1
40
1
40
1
10
-3.9626378979260597
20
15.9026325745577
30
0
10
-4.0319105186081226
20
16.089005786208276
30
0
10
-4.134818837032878
20
16.212498393281244
30
0
10
-4.271362359205629
20
16.273110342324692
30
0
0
SPLINE
5
3FA
330
3AD
100
AcDbEntity
100
AcDbSpline
8
Layer_0
210
0
220
0
230
1
70
8
71
3
72
8
73
4
74
0
42
1e-7
43
1e-7
44
1e-10
40
0
40
0
40
0
40
0
40
1
40
1
40
1
40
1
10
-4.271362359205629
20
16.273110342324692
30
0
10
-4.407906297954902
20
16.333722136531794
30
0
10
-4.571694187503942
20
16.32852570885888
30
0
10
-4.762726599265619
20
16.257521321046124
30
0
0
SPLINE
5
3FB
330
3AD
100
AcDbEntity
100
AcDbSpline
8
Layer_0
210
0
220
0
230
1
70
8
71
3
72
8
73
4
74
0
42
1e-7
43
1e-7
44
1e-10
40
0
40
0
40
0
40
0
40
1
40
1
40
1
40
1
10
-4.762726599265619
20
16.257521321046124
30
0
10
-4.795342041484633
20
16.245398564040403
30
0
10
-4.829854057186937
20
16.23124521422271
30
0
10
-4.866262854660793
20
16.21506119417488
30
0
0
SPLINE
5
3FC
330
3AD
100
AcDbEntity
100
AcDbSpline
8
Layer_0
210
0
220
0
230
1
70
8
71
3
72
8
73
4
74
0
42
1e-7
43
1e-7
44
1e-10
40
0
40
0
40
0
40
0
40
1
40
1
40
1
40
1
10
-4.866262854660793
20
16.21506119417488
30
0
10
-4.902671497298301
20
16.198876757550526
30
0
10
-4.943306417618779
20
16.17979580583977
30
0
10
-4.9881681870351
20
16.157818600782782
30
0
0
SPLINE
5
3FD
330
3AD
100
AcDbEntity
100
AcDbSpline
8
Layer_0
210
0
220
0
230
1
70
8
71
3
72
8
73
4
74
0
42
1e-7
43
1e-7
44
1e-10
40
0
40
0
40
0
40
0
40
1
40
1
40
1
40
1
10
-4.9881681870351
20
16.157818600782782
30
0
10
-4.933162645545101
20
16.066899991479556
30
0
10
-4.877188056379733
20
15.959106564473666
30
0
10
-4.820244574375346
20
15.834438736341635
30
0
0
SPLINE
5
3FE
330
3AD
100
AcDbEntity
100
AcDbSpline
8
Layer_0
210
0
220
0
230
1
70
8
71
3
72
8
73
4
74
0
42
1e-7
43
1e-7
44
1e-10
40
0
40
0
40
0
40
0
40
1
40
1
40
1
40
1
10
-4.820244574375346
20
15.834438736341635
30
0
10
-4.763300937534611
20
15.709770491633082
30
0
10
-4.712315500343888
20
15.586865348525748
30
0
10
-4.667288316255091
20
15.46572281302494
30
0
0
SPLINE
5
3FF
330
3AD
100
AcDbEntity
100
AcDbSpline
8
Layer_0
210
0
220
0
230
1
70
8
71
3
72
8
73
4
74
0
42
1e-7
43
1e-7
44
1e-10
40
0
40
0
40
0
40
0
40
1
40
1
40
1
40
1
10
-4.667288316255091
20
15.46572281302494
30
0
10
-4.5356703498622
20
15.111613745603556
30
0
10
-4.448419237993345
20
14.755597431296021
30
0
10
-4.4055349806485244
20
14.397673870102336
30
0
0
SPLINE
5
400
330
3AD
100
AcDbEntity
100
AcDbSpline
8
Layer_0
210
0
220
0
230
1
70
8
71
3
72
8
73
4
74
0
42
1e-7
43
1e-7
44
1e-10
40
0
40
0
40
0
40
0
40
1
40
1
40
1
40
1
10
-4.4055349806485244
20
14.397673870102336
30
0
10
-4.362650558638805
20
14.039750291091346
30
0
10
-4.363040419984007
20
13.705514876000274
30
0
10
-4.406704564684129
20
13.394967624829116
30
0
0
SPLINE
5
401
330
3AD
100
AcDbEntity
100
AcDbSpline
8
Layer_0
210
0
220
0
230
1
70
8
71
3
72
8
73
4
74
0
42
1e-7
43
1e-7
44
1e-10
40
0
40
0
40
0
40
0
40
1
40
1
40
1
40
1
10
-4.406704564684129
20
13.394967624829116
30
0
10
-4.45036857052541
20
13.084420425270075
30
0
10
-4.530256408403732
20
12.82139413322962
30
0
10
-4.646367584324398
20
12.605888695255842
30
0
0
SPLINE
5
402
330
3AD
100
AcDbEntity
100
AcDbSpline
8
Layer_0
210
0
220
0
230
1
70
8
71
3
72
8
73
4
74
0
42
1e-7
43
1e-7
44
1e-10
40
0
40
0
40
0
40
0
40
1
40
1
40
1
40
1
10
-4.646367584324398
20
12.605888695255842
30
0
10
-4.762478786051123
20
12.390383326711484
30
0
10
-4.916050627510033
20
12.2471284356299
30
0
10
-5.10708310870113
20
12.176124022011086
30
0
0
SPLINE
5
403
330
3AD
100
AcDbEntity
100
AcDbSpline
8
Layer_0
210
0
220
0
230
1
70
8
71
3
72
8
73
4
74
0
42
1e-7
43
1e-7
44
1e-10
40
0
40
0
40
0
40
0
40
1
40
1
40
1
40
1
10
-5.10708310870113
20
12.176124022011086
30
0
10
-5.2887969119523435
20
12.10858324587789
30
0
10
-5.456718882172383
20
12.13234289777187
30
0
10
-5.610848772363899
20
12.24740295096707
30
0
0
SPLINE
5
404
330
3AD
100
AcDbEntity
100
AcDbSpline
8
Layer_0
210
0
220
0
230
1
70
8
71
3
72
8
73
4
74
0
42
1e-7
43
1e-7
44
1e-10
40
0
40
0
40
0
40
0
40
1
40
1
40
1
40
1
10
-5.610848772363899
20
12.24740295096707
30
0
10
-5.764978675458444
20
12.36246303887698
30
0
10
-5.894863995437154
20
12.562102643697482
30
0
10
-6.000504732300028
20
12.846321765428577
30
0
0
SPLINE
5
405
330
3AD
100
AcDbEntity
100
AcDbSpline
8
Layer_0
210
0
220
0
230
1
70
8
71
3
72
8
73
4
74
0
42
1e-7
43
1e-7
44
1e-10
40
0
40
0
40
0
40
0
40
1
40
1
40
1
40
1
10
-6.000504732300028
20
12.846321765428577
30
0
10
-6.106145469162902
20
13.130540887159672
30
0
10
-6.164656803212003
20
13.416368321957135
30
0
10
-6.1760386303032
20
13.70380410853005
30
0
0
SPLINE
5
406
330
3AD
100
AcDbEntity
100
AcDbSpline
8
Layer_0
210
0
220
0
230
1
70
8
71
3
72
8
73
4
74
0
42
1e-7
43
1e-7
44
1e-10
40
0
40
0
40
0
40
0
40
1
40
1
40
1
40
1
10
-6.1760386303032
20
13.70380410853005
30
0
10
-6.187420587344586
20
13.9912399258233
30
0
10
-6.156363295211913
20
14.267934714797658
30
0
10
-6.082866753905183
20
14.533888475453129
30
0
0
SPLINE
5
407
330
3AD
100
AcDbEntity
100
AcDbSpline
8
Layer_0
210
0
220
0
230
1
70
8
71
3
72
8
73
4
74
0
42
1e-7
43
1e-7
44
1e-10
40
0
40
0
40
0
40
0
40
1
40
1
40
1
40
1
10
-6.082866753905183
20
14.533888475453129
30
0
10
-6.009370264210569
20
14.79984237496744
30
0
10
-5.894331297000814
20
15.046767414817067
30
0
10
-5.737749852275918
20
15.27466359500201
30
0
0
SPLINE
5
408
330
3AD
100
AcDbEntity
100
AcDbSpline
8
Layer_0
210
0
220
0
230
1
70
8
71
3
72
8
73
4
74
0
42
1e-7
43
1e-7
44
1e-10
40
0
40
0
40
0
40
0
40
1
40
1
40
1
40
1
10
-5.737749852275918
20
15.27466359500201
30
0
10
-5.581168391573516
20
15.502559306998316
30
0
10
-5.388332577859487
20
15.693551999082885
30
0
10
-5.159242411133833
20
15.847641671255719
30
0
0
SPLINE
5
409
330
3AD
100
AcDbEntity
100
AcDbSpline
8
Layer_0
210
0
220
0
230
1
70
8
71
3
72
8
73
4
74
0
42
1e-7
43
1e-7
44
1e-10
40
0
40
0
40
0
40
0
40
1
40
1
40
1
40
1
10
-5.159242411133833
20
15.847641671255719
30
0
10
-5.283189095129898
20
15.838693541065496
30
0
10
-5.392456699746214
20
15.82592087598625
30
0
10
-5.48704537981913
20
15.809324092594506
30
0
0
SPLINE
5
40A
330
3AD
100
AcDbEntity
100
AcDbSpline
8
Layer_0
210
0
220
0
230
1
70
8
71
3
72
8
73
4
74
0
42
1e-7
43
1e-7
44
1e-10
40
0
40
0
40
0
40
0
40
1
40
1
40
1
40
1
10
-5.48704537981913
20
15.809324092594506
30
0
10
-5.581634059892046
20
15.792727309202762
30
0
10
-5.668532564895996
20
15.769708301516868
30
0
10
-5.747741049667328
20
15.74026748611335
30
0
0
SPLINE
5
40B
330
3AD
100
AcDbEntity
100
AcDbSpline
8
Layer_0
210
0
220
0
230
1
70
8
71
3
72
8
73
4
74
0
42
1e-7
43
1e-7
44
1e-10
40
0
40
0
40
0
40
0
40
1
40
1
40
1
40
1
10
-5.747741049667328
20
15.74026748611335
30
0
10
-6.013322954377496
20
15.641553972609595
30
0
10
-6.237918493250326
20
15.482506282633137
30
0
10
-6.421528341842821
20
15.26312463921506
30
0
0
SPLINE
5
40C
330
3AD
100
AcDbEntity
100
AcDbSpline
8
Layer_0
210
0
220
0
230
1
70
8
71
3
72
8
73
4
74
0
42
1e-7
43
1e-7
44
1e-10
40
0
40
0
40
0
40
0
40
1
40
1
40
1
40
1
10
-6.421528341842821
20
15.26312463921506
30
0
10
-6.6051381379033005
20
15.043743173364913
30
0
10
-6.74101009425171
20
14.785097631115518
30
0
10
-6.829144210888048
20
14.487188012466873
30
0
0
SPLINE
5
40D
330
3AD
100
AcDbEntity
100
AcDbSpline
8
Layer_0
210
0
220
0
230
1
70
8
71
3
72
8
73
4
74
0
42
1e-7
43
1e-7
44
1e-10
40
0
40
0
40
0
40
0
40
1
40
1
40
1
40
1
10
-6.829144210888048
20
14.487188012466873
30
0
10
-6.917278258094965
20
14.189278419624287
30
0
10
-6.9538502079585225
20
13.866783884751353
30
0
10
-6.938860060478719
20
13.51970440784807
30
0
0
SPLINE
5
40E
330
3AD
100
AcDbEntity
100
AcDbSpline
8
Layer_0
210
0
220
0
230
1
70
8
71
3
72
8
73
4
74
0
42
1e-7
43
1e-7
44
1e-10
40
0
40
0
40
0
40
0
40
1
40
1
40
1
40
1
10
-6.938860060478719
20
13.51970440784807
30
0
10
-6.923869981968386
20
13.172625063352115
30
0
10
-6.85143186888818
20
12.824360526878417
30
0
10
-6.7215457212380985
20
12.474910798426976
30
0
0
SPLINE
5
40F
330
3AD
100
AcDbEntity
100
AcDbSpline
8
Layer_0
210
0
220
0
230
1
70
8
71
3
72
8
73
4
74
0
42
1e-7
43
1e-7
44
1e-10
40
0
40
0
40
0
40
0
40
1
40
1
40
1
40
1
10
-6.7215457212380985
20
12.474910798426976
30
0
10
-6.558755069086765
20
12.036933768405477
30
0
10
-6.344970129036604
20
11.729274234223327
30
0
10
-6.080190901087614
20
11.551932195880525
30
0
0
SPLINE
5
410
330
3AD
100
AcDbEntity
100
AcDbSpline
8
Layer_0
210
0
220
0
230
1
70
8
71
3
72
8
73
4
74
0
42
1e-7
43
1e-7
44
1e-10
40
0
40
0
40
0
40
0
40
1
40
1
40
1
40
1
10
-6.080190901087614
20
11.551932195880525
30
0
10
-5.815411680818708
20
11.374590125050176
30
0
10
-5.526934527623592
20
11.343934901391838
30
0
10
-5.214759441502265
20
11.459966524905507
30
0
0
SPLINE
5
411
330
3AD
100
AcDbEntity
100
AcDbSpline
8
Layer_0
210
0
220
0
230
1
70
8
71
3
72
8
73
4
74
0
42
1e-7
43
1e-7
44
1e-10
40
0
40
0
40
0
40
0
40
1
40
1
40
1
40
1
10
-5.214759441502265
20
11.459966524905507
30
0
10
-5.0050895350019795
20
11.537898239301613
30
0
10
-4.819263048615525
20
11.66927817962672
30
0
10
-4.657279982342901
20
11.854106345880828
30
0
0
SPLINE
5
412
330
3AD
100
AcDbEntity
100
AcDbSpline
8
Layer_0
210
0
220
0
230
1
70
8
71
3
72
8
73
4
74
0
42
1e-7
43
1e-7
44
1e-10
40
0
40
0
40
0
40
0
40
1
40
1
40
1
40
1
10
-4.657279982342901
20
11.854106345880828
30
0
10
-4.495296777211436
20
12.03893456374705
30
0
10
-4.367537194151587
20
12.258769494221129
30
0
10
-4.274001233163352
20
12.513611137303062
30
0
0
SPLINE
5
413
330
3AD
100
AcDbEntity
100
AcDbSpline
8
Layer_0
210
0
220
0
230
1
70
8
71
3
72
8
73
4
74
0
42
1e-7
43
1e-7
44
1e-10
40
0
40
0
40
0
40
0
40
1
40
1
40
1
40
1
10
-4.274001233163352
20
12.513611137303062
30
0
10
-4.180465404582443
20
12.768452711415526
30
0
10
-4.134461077665011
20
13.033468325392226
30
0
10
-4.135988252411058
20
13.308657979233168
30
0
0
SPLINE
5
414
330
3AD
100
AcDbEntity
100
AcDbSpline
8
Layer_0
210
0
220
0
230
1
70
8
71
3
72
8
73
4
74
0
42
1e-7
43
1e-7
44
1e-10
40
0
40
0
40
0
40
0
40
1
40
1
40
1
40
1
10
-2.1867540282739113
20
12.645538289291586
30
0
10
-1.9389756084889203
20
12.48676385536549
30
0
10
-1.5921861112845124
20
12.426090735852283
30
0
10
-1.146385536660688
20
12.463518930751961
30
0
0
SPLINE
5
415
330
3AD
100
AcDbEntity
100
AcDbSpline
8
Layer_0
210
0
220
0
230
1
70
8
71
3
72
8
73
4
74
0
42
1e-7
43
1e-7
44
1e-10
40
0
40
0
40
0
40
0
40
1
40
1
40
1
40
1
10
-1.146385536660688
20
12.463518930751961
30
0
10
-0.8491849075430216
20
12.488471081341515
30
0
10
-0.5909206883744249
20
12.561283859957557
30
0
10
-0.37159221598569747
20
12.681957335779455
30
0
0
SPLINE
5
416
330
3AD
100
AcDbEntity
100
AcDbSpline
8
Layer_0
210
0
220
0
230
1
70
8
71
3
72
8
73
4
74
0
42
1e-7
43
1e-7
44
1e-10
40
0
40
0
40
0
40
0
40
1
40
1
40
1
40
1
10
-0.37159221598569747
20
12.681957335779455
30
0
10
-0.15226381708071393
20
12.80263080151207
30
0
10
0.014308159120240693
20
12.957533971016014
30
0
10
0.12812371261716748
20
13.146666844291286
30
0
0
SPLINE
5
417
330
3AD
100
AcDbEntity
100
AcDbSpline
8
Layer_0
210
0
220
0
230
1
70
8
71
3
72
8
73
4
74
0
42
1e-7
43
1e-7
44
1e-10
40
0
40
0
40
0
40
0
40
1
40
1
40
1
40
1
10
0.12812371261716748
20
13.146666844291286
30
0
10
0.24193926843794314
20
13.335799689887606
30
0
10
0.2890741247287606
20
13.546769644446673
30
0
10
0.2695282814896194
20
13.779576707968483
30
0
0
SPLINE
5
418
330
3AD
100
AcDbEntity
100
AcDbSpline
8
Layer_0
210
0
220
0
230
1
70
8
71
3
72
8
73
4
74
0
42
1e-7
43
1e-7
44
1e-10
40
0
40
0
40
0
40
0
40
1
40
1
40
1
40
1
10
0.2695282814896194
20
13.779576707968483
30
0
10
0.2549728634108447
20
13.952943704715187
30
0
10
0.19853129888840973
20
14.105335085485745
30
0
10
0.10020358792231487
20
14.236750850280153
30
0
0
SPLINE
5
419
330
3AD
100
AcDbEntity
100
AcDbSpline
8
Layer_0
210
0
220
0
230
1
70
8
71
3
72
8
73
4
74
0
42
1e-7
43
1e-7
44
1e-10
40
0
40
0
40
0
40
0
40
1
40
1
40
1
40
1
10
0.10020358792231487
20
14.236750850280153
30
0
10
0.0018755693202190254
20
14.36816673790791
30
0
10
-0.11894091620039218
20
14.48522388924307
30
0
10
-0.26224586863951904
20
14.587922304285636
30
0
0
SPLINE
5
41A
330
3AD
100
AcDbEntity
100
AcDbSpline
8
Layer_0
210
0
220
0
230
1
70
8
71
3
72
8
73
4
74
0
42
1e-7
43
1e-7
44
1e-10
40
0
40
0
40
0
40
0
40
1
40
1
40
1
40
1
10
-0.26224586863951904
20
14.587922304285636
30
0
10
-0.4055511163207863
20
14.69062069454048
30
0
10
-0.5572127693472229
20
14.788876285447301
30
0
10
-0.7172308277188284
20
14.882689077006102
30
0
0
SPLINE
5
41B
330
3AD
100
AcDbEntity
100
AcDbSpline
8
Layer_0
210
0
220
0
230
1
70
8
71
3
72
8
73
4
74
0
42
1e-7
43
1e-7
44
1e-10
40
0
40
0
40
0
40
0
40
1
40
1
40
1
40
1
10
-0.7172308277188284
20
14.882689077006102
30
0
10
-0.8772490399084345
20
14.976501929981577
30
0
10
-1.0287026073172425
20
15.072280820777152
30
0
10
-1.1715919913992545
20
15.170025933642851
30
0
0
SPLINE
5
41C
330
3AD
100
AcDbEntity
100
AcDbSpline
8
Layer_0
210
0
220
0
230
1
70
8
71
3
72
8
73
4
74
0
42
1e-7
43
1e-7
44
1e-10
40
0
40
0
40
0
40
0
40
1
40
1
40
1
40
1
10
-1.1715919913992545
20
15.170025933642851
30
0
10
-1.314481363087406
20
15.267770898887479
30
0
10
-1.4346740746220759
20
15.377397946514117
30
0
10
-1.532170126003265
20
15.498907076522768
30
0
0
SPLINE
5
41D
330
3AD
100
AcDbEntity
100
AcDbSpline
8
Layer_0
210
0
220
0
230
1
70
8
71
3
72
8
73
4
74
0
42
1e-7
43
1e-7
44
1e-10
40
0
40
0
40
0
40
0
40
1
40
1
40
1
40
1
10
-1.532170126003265
20
15.498907076522768
30
0
10
-1.6296661897783147
20
15.62041635415249
30
0
10
-1.6850681260109486
20
15.760424464541181
30
0
10
-1.6983759347011664
20
15.918931407688842
30
0
0
SPLINE
5
41E
330
3AD
100
AcDbEntity
100
AcDbSpline
8
Layer_0
210
0
220
0
230
1
70
8
71
3
72
8
73
4
74
0
42
1e-7
43
1e-7
44
1e-10
40
0
40
0
40
0
40
0
40
1
40
1
40
1
40
1
10
-1.6983759347011664
20
15.918931407688842
30
0
10
-1.7096043820165958
20
16.052671447217026
30
0
10
-1.686764734147983
20
16.16682488597233
30
0
10
-1.6298569539137464
20
16.261391281091537
30
0
0
SPLINE
5
41F
330
3AD
100
AcDbEntity
100
AcDbSpline
8
Layer_0
210
0
220
0
230
1
70
8
71
3
72
8
73
4
74
0
42
1e-7
43
1e-7
44
1e-10
40
0
40
0
40
0
40
0
40
1
40
1
40
1
40
1
10
-1.6298569539137464
20
16.261391281091537
30
0
10
-1.5729491184597655
20
16.355957903839283
30
0
10
-1.4954909189921042
20
16.428555520114905
30
0
10
-1.3974823555107625
20
16.47918412991841
30
0
0
SPLINE
5
420
330
3AD
100
AcDbEntity
100
AcDbSpline
8
Layer_0
210
0
220
0
230
1
70
8
71
3
72
8
73
4
74
0
42
1e-7
43
1e-7
44
1e-10
40
0
40
0
40
0
40
0
40
1
40
1
40
1
40
1
10
-1.3974823555107625
20
16.47918412991841
30
0
10
-1.2994738044232814
20
16.52981288734298
30
0
10
-1.1984593226920968
20
16.55949367748361
30
0
10
-1.094439168930395
20
16.568226924612716
30
0
0
SPLINE
5
421
330
3AD
100
AcDbEntity
100
AcDbSpline
8
Layer_0
210
0
220
0
230
1
70
8
71
3
72
8
73
4
74
0
42
1e-7
43
1e-7
44
1e-10
40
0
40
0
40
0
40
0
40
1
40
1
40
1
40
1
10
-1.094439168930395
20
16.568226924612716
30
0
10
-0.950792279381778
20
16.580287123914378
30
0
10
-0.815785921352217
20
16.546727712458512
30
0
10
-0.6894200576601306
20
16.467548247381913
30
0
0
SPLINE
5
422
330
3AD
100
AcDbEntity
100
AcDbSpline
8
Layer_0
210
0
220
0
230
1
70
8
71
3
72
8
73
4
74
0
42
1e-7
43
1e-7
44
1e-10
40
0
40
0
40
0
40
0
40
1
40
1
40
1
40
1
10
-0.6894200576601306
20
16.467548247381913
30
0
10
-0.56305428017244
20
16.388368923729452
30
0
10
-0.4923857536880448
20
16.259619161740567
30
0
10
-0.47741447820694516
20
16.08129896141525
30
0
0
SPLINE
5
423
330
3AD
100
AcDbEntity
100
AcDbSpline
8
Layer_0
210
0
220
0
230
1
70
8
71
3
72
8
73
4
74
0
42
1e-7
43
1e-7
44
1e-10
40
0
40
0
40
0
40
0
40
1
40
1
40
1
40
1
10
-0.47741447820694516
20
16.08129896141525
30
0
10
-0.472008183250393
20
16.016905543440462
30
0
10
-0.47979823507960706
20
15.931451056058652
30
0
10
-0.5007850951485882
20
15.824935683519836
30
0
0
SPLINE
5
424
330
3AD
100
AcDbEntity
100
AcDbSpline
8
Layer_0
210
0
220
0
230
1
70
8
71
3
72
8
73
4
74
0
42
1e-7
43
1e-7
44
1e-10
40
0
40
0
40
0
40
0
40
1
40
1
40
1
40
1
10
-0.5007850951485882
20
15.824935683519836
30
0
10
-0.5217719552175692
20
15.71842031098102
30
0
10
-0.5634038058596458
20
15.62014810024015
30
0
10
-0.6256808870972148
20
15.530119254138041
30
0
0
SPLINE
5
425
330
3AD
100
AcDbEntity
100
AcDbSpline
8
Layer_0
210
0
220
0
230
1
70
8
71
3
72
8
73
4
74
0
42
1e-7
43
1e-7
44
1e-10
40
0
40
0
40
0
40
0
40
1
40
1
40
1
40
1
10
-0.6256808870972148
20
15.530119254138041
30
0
10
-0.569530612329583
20
15.514880337089892
30
0
10
-0.5174072118940437
20
15.503044701815767
30
0
10
-0.46931088863141035
20
15.49461210829327
30
0
0
SPLINE
5
426
330
3AD
100
AcDbEntity
100
AcDbSpline
8
Layer_0
210
0
220
0
230
1
70
8
71
3
72
8
73
4
74
0
42
1e-7
43
1e-7
44
1e-10
40
0
40
0
40
0
40
0
40
1
40
1
40
1
40
1
10
-0.46931088863141035
20
15.49461210829327
30
0
10
-0.42121456536877705
20
15.486179514770772
30
0
10
-0.37982952691750566
20
15.483418774690032
30
0
10
-0.3451562161408068
20
15.48632985086947
30
0
0
SPLINE
5
427
330
3AD
100
AcDbEntity
100
AcDbSpline
8
Layer_0
210
0
220
0
230
1
70
8
71
3
72
8
73
4
74
0
42
1e-7
43
1e-7
44
1e-10
40
0
40
0
40
0
40
0
40
1
40
1
40
1
40
1
10
-0.3451562161408068
20
15.48632985086947
30
0
10
-0.17178929320463732
20
15.500885262751314
30
0
10
-0.04149852420282668
20
15.582906748978916
30
0
10
0.04571609086462569
20
15.732394309552276
30
0
0
SPLINE
5
428
330
3AD
100
AcDbEntity
100
AcDbSpline
8
Layer_0
210
0
220
0
230
1
70
8
71
3
72
8
73
4
74
0
42
1e-7
43
1e-7
44
1e-10
40
0
40
0
40
0
40
0
40
1
40
1
40
1
40
1
10
0.04571609086462569
20
15.732394309552276
30
0
10
0.13293053972021696
20
15.88188207916338
30
0
10
0.1692602951310217
20
16.043309259501473
30
0
10
0.154704877052247
20
16.216676256248178
30
0
0
SPLINE
5
429
330
3AD
100
AcDbEntity
100
AcDbSpline
8
Layer_0
210
0
220
0
230
1
70
8
71
3
72
8
73
4
74
0
42
1e-7
43
1e-7
44
1e-10
40
0
40
0
40
0
40
0
40
1
40
1
40
1
40
1
10
0.154704877052247
20
16.216676256248178
30
0
10
0.1426446777505859
20
16.360323145796794
30
0
10
0.0939540694315123
20
16.494659332031656
30
0
10
0.008633513549026972
20
16.61968463070274
30
0
0
SPLINE
5
42A
330
3AD
100
AcDbEntity
100
AcDbSpline
8
Layer_0
210
0
220
0
230
1
70
8
71
3
72
8
73
4
74
0
42
1e-7
43
1e-7
44
1e-10
40
0
40
0
40
0
40
0
40
1
40
1
40
1
40
1
10
0.008633513549026972
20
16.61968463070274
30
0
10
-0.07668707951504021
20
16.744710372237034
30
0
10
-0.20585088008190003
20
16.84236042779765
30
0
10
-0.37885751965150494
20
16.912635720292595
30
0
0
SPLINE
5
42B
330
3AD
100
AcDbEntity
100
AcDbSpline
8
Layer_0
210
0
220
0
230
1
70
8
71
3
72
8
73
4
74
0
42
1e-7
43
1e-7
44
1e-10
40
0
40
0
40
0
40
0
40
1
40
1
40
1
40
1
10
-0.37885751965150494
20
16.912635720292595
30
0
10
-0.5518641592211099
20
16.98291101278754
30
0
10
-0.7721077399657017
20
17.006820193128792
30
0
10
-1.0395882618852805
20
16.984363261316354
30
0
0
SPLINE
5
42C
330
3AD
100
AcDbEntity
100
AcDbSpline
8
Layer_0
210
0
220
0
230
1
70
8
71
3
72
8
73
4
74
0
42
1e-7
43
1e-7
44
1e-10
40
0
40
0
40
0
40
0
40
1
40
1
40
1
40
1
10
-1.0395882618852805
20
16.984363261316354
30
0
10
-1.3367886695713418
20
16.95941112931759
30
0
10
-1.5899958100309461
20
16.88577564188353
30
0
10
-1.7992094990140703
20
16.763457260468176
30
0
0
SPLINE
5
42D
330
3AD
100
AcDbEntity
100
AcDbSpline
8
Layer_0
210
0
220
0
230
1
70
8
71
3
72
8
73
4
74
0
42
1e-7
43
1e-7
44
1e-10
40
0
40
0
40
0
40
0
40
1
40
1
40
1
40
1
10
-1.7992094990140703
20
16.763457260468176
30
0
10
-2.008423298712997
20
16.641138869757423
30
0
10
-2.166119005694053
20
16.484486936093226
30
0
10
-2.272296638133557
20
16.293501011964672
30
0
0
SPLINE
5
42E
330
3AD
100
AcDbEntity
100
AcDbSpline
8
Layer_0
210
0
220
0
230
1
70
8
71
3
72
8
73
4
74
0
42
1e-7
43
1e-7
44
1e-10
40
0
40
0
40
0
40
0
40
1
40
1
40
1
40
1
10
-2.272296638133557
20
16.293501011964672
30
0
10
-2.378474276908148
20
16.10251538462749
30
0
10
-2.4217901777743385
20
15.890619076103267
30
0
10
-2.4022443407321274
20
15.657812086391992
30
0
0
SPLINE
5
42F
330
3AD
100
AcDbEntity
100
AcDbSpline
8
Layer_0
210
0
220
0
230
1
70
8
71
3
72
8
73
4
74
0
42
1e-7
43
1e-7
44
1e-10
40
0
40
0
40
0
40
0
40
1
40
1
40
1
40
1
10
-2.4022443407321274
20
15.657812086391992
30
0
10
-2.385193703876239
20
15.4547249824472
30
0
10
-2.3294613514164553
20
15.28107394418177
30
0
10
-2.235047227994874
20
15.136858976243403
30
0
0
SPLINE
5
430
330
3AD
100
AcDbEntity
100
AcDbSpline
8
Layer_0
210
0
220
0
230
1
70
8
71
3
72
8
73
4
74
0
42
1e-7
43
1e-7
44
1e-10
40
0
40
0
40
0
40
0
40
1
40
1
40
1
40
1
10
-2.235047227994874
20
15.136858976243403
30
0
10
-2.1406330799237283
20
14.992643936043732
30
0
10
-2.0229077724002624
20
14.867844932470911
30
0
10
-1.8818713054244758
20
14.762461965524937
30
0
0
SPLINE
5
431
330
3AD
100
AcDbEntity
100
AcDbSpline
8
Layer_0
210
0
220
0
230
1
70
8
71
3
72
8
73
4
74
0
42
1e-7
43
1e-7
44
1e-10
40
0
40
0
40
0
40
0
40
1
40
1
40
1
40
1
10
-1.8818713054244758
20
14.762461965524937
30
0
10
-1.7408348384486891
20
14.657078998578962
30
0
10
-1.594334456027701
20
14.560884028949458
30
0
10
-1.4423701953430934
20
14.473877499499633
30
0
0
SPLINE
5
432
330
3AD
100
AcDbEntity
100
AcDbSpline
8
Layer_0
210
0
220
0
230
1
70
8
71
3
72
8
73
4
74
0
42
1e-7
43
1e-7
44
1e-10
40
0
40
0
40
0
40
0
40
1
40
1
40
1
40
1
10
-1.4423701953430934
20
14.473877499499633
30
0
10
-1.2904059222646251
20
14.386870822428738
30
0
10
-1.1446333228315897
20
14.29934434656711
30
0
10
-1.0050523970439875
20
14.211298071914753
30
0
0
SPLINE
5
433
330
3AD
100
AcDbEntity
100
AcDbSpline
8
Layer_0
210
0
220
0
230
1
70
8
71
3
72
8
73
4
74
0
42
1e-7
43
1e-7
44
1e-10
40
0
40
0
40
0
40
0
40
1
40
1
40
1
40
1
10
-1.0050523970439875
20
14.211298071914753
30
0
10
-0.8654713974458501
20
14.123251803459326
30
0
10
-0.750033422962376
20
14.025696153026518
30
0
10
-0.6587384735935649
20
13.918631120616329
30
0
0
SPLINE
5
434
330
3AD
100
AcDbEntity
100
AcDbSpline
8
Layer_0
210
0
220
0
230
1
70
8
71
3
72
8
73
4
74
0
42
1e-7
43
1e-7
44
1e-10
40
0
40
0
40
0
40
0
40
1
40
1
40
1
40
1
10
-0.6587384735935649
20
13.918631120616329
30
0
10
-0.5674432351795436
20
13.811566186804397
30
0
10
-0.5155575783251449
20
13.683733562619015
30
0
10
-0.5030815030303679
20
13.53513324806018
30
0
0
SPLINE
5
435
330
3AD
100
AcDbEntity
100
AcDbSpline
8
Layer_0
210
0
220
0
230
1
70
8
71
3
72
8
73
4
74
0
42
1e-7
43
1e-7
44
1e-10
40
0
40
0
40
0
40
0
40
1
40
1
40
1
40
1
10
-0.5030815030303679
20
13.53513324806018
30
0
10
-0.49185304022261284
20
13.401393024005658
30
0
10
-0.5184077676935158
20
13.286927807423956
30
0
10
-0.582745685443077
20
13.191737598315072
30
0
0
SPLINE
5
436
330
3AD
100
AcDbEntity
100
AcDbSpline
8
Layer_0
210
0
220
0
230
1
70
8
71
3
72
8
73
4
74
0
42
1e-7
43
1e-7
44
1e-10
40
0
40
0
40
0
40
0
40
1
40
1
40
1
40
1
10
-0.582745685443077
20
13.191737598315072
30
0
10
-0.6470833771133353
20
13.096547352439078
30
0
10
-0.7318677136150885
20
13.02208763360391
30
0
10
-0.8370982497612776
20
12.968358451312199
30
0
0
SPLINE
5
437
330
3AD
100
AcDbEntity
100
AcDbSpline
8
Layer_0
210
0
220
0
230
1
70
8
71
3
72
8
73
4
74
0
42
1e-7
43
1e-7
44
1e-10
40
0
40
0
40
0
40
0
40
1
40
1
40
1
40
1
10
-0.8370982497612776
20
12.968358451312199
30
0
10
-0.9423290081136881
20
12.914629259656014
30
0
10
-1.0519078153704258
20
12.882982170467182
30
0
10
-1.16583467153149
20
12.873417183745705
30
0
0
SPLINE
5
438
330
3AD
100
AcDbEntity
100
AcDbSpline
8
Layer_0
210
0
220
0
230
1
70
8
71
3
72
8
73
4
74
0
42
1e-7
43
1e-7
44
1e-10
40
0
40
0
40
0
40
0
40
1
40
1
40
1
40
1
10
-1.16583467153149
20
12.873417183745705
30
0
10
-1.3986416612427648
20
12.853871346703494
30
0
10
-1.5764884990406065
20
12.907528328997545
30
0
10
-1.6993750765330617
20
13.034388167602206
30
0
0
SPLINE
5
439
330
3AD
100
AcDbEntity
100
AcDbSpline
8
Layer_0
210
0
220
0
230
1
70
8
71
3
72
8
73
4
74
0
42
1e-7
43
1e-7
44
1e-10
40
0
40
0
40
0
40
0
40
1
40
1
40
1
40
1
10
-1.6993750765330617
20
13.034388167602206
30
0
10
-1.8222616178948656
20
13.161248018531648
30
0
10
-1.89098259451669
20
13.311361405464455
30
0
10
-1.9055380063985343
20
13.484728328400625
30
0
0
SPLINE
5
43A
330
3AD
100
AcDbEntity
100
AcDbSpline
8
Layer_0
210
0
220
0
230
1
70
8
71
3
72
8
73
4
74
0
42
1e-7
43
1e-7
44
1e-10
40
0
40
0
40
0
40
0
40
1
40
1
40
1
40
1
10
-1.9055380063985343
20
13.484728328400625
30
0
10
-1.9126077774413637
20
13.568935114268868
30
0
10
-1.9050255435975099
20
13.65686621273538
30
0
10
-1.882791074139972
20
13.748521531675152
30
0
0
SPLINE
5
43B
330
3AD
100
AcDbEntity
100
AcDbSpline
8
Layer_0
210
0
220
0
230
1
70
8
71
3
72
8
73
4
74
0
42
1e-7
43
1e-7
44
1e-10
40
0
40
0
40
0
40
0
40
1
40
1
40
1
40
1
10
-1.882791074139972
20
13.748521531675152
30
0
10
-1.8605567585004346
20
13.840176912031598
30
0
10
-1.8273759921605355
20
13.920280660178143
30
0
10
-1.7832487751202748
20
13.988832776114785
30
0
0
SPLINE
5
43C
330
3AD
100
AcDbEntity
100
AcDbSpline
8
Layer_0
210
0
220
0
230
1
70
8
71
3
72
8
73
4
74
0
42
1e-7
43
1e-7
44
1e-10
40
0
40
0
40
0
40
0
40
1
40
1
40
1
40
1
10
-1.7832487751202748
20
13.988832776114785
30
0
10
-1.8299081679856013
20
14.009856639432382
30
0
10
-1.8746015509170149
20
14.02231619011659
30
0
10
-1.917328693187514
20
14.026211336042394
30
0
0
SPLINE
5
43D
330
3AD
100
AcDbEntity
100
AcDbSpline
8
Layer_0
210
0
220
0
230
1
70
8
71
3
72
8
73
4
74
0
42
1e-7
43
1e-7
44
1e-10
40
0
40
0
40
0
40
0
40
1
40
1
40
1
40
1
10
-1.917328693187514
20
14.026211336042394
30
0
10
-1.9600559461738158
20
14.030106472672804
30
0
10
-2.0012329359127263
20
14.030390509543828
30
0
10
-2.0408596716996414
20
14.027063557371275
30
0
0
SPLINE
5
43E
330
3AD
100
AcDbEntity
100
AcDbSpline
8
Layer_0
210
0
220
0
230
1
70
8
71
3
72
8
73
4
74
0
42
1e-7
43
1e-7
44
1e-10
40
0
40
0
40
0
40
0
40
1
40
1
40
1
40
1
10
-2.0408596716996414
20
14.027063557371275
30
0
10
-2.2092732434361295
20
14.012924015285616
30
0
10
-2.3474098690299154
20
13.935232041756613
30
0
10
-2.4552695484809988
20
13.79398763678427
30
0
0
SPLINE
5
43F
330
3AD
100
AcDbEntity
100
AcDbSpline
8
Layer_0
210
0
220
0
230
1
70
8
71
3
72
8
73
4
74
0
42
1e-7
43
1e-7
44
1e-10
40
0
40
0
40
0
40
0
40
1
40
1
40
1
40
1
10
-2.4552695484809988
20
13.79398763678427
30
0
10
-2.5631291910268144
20
13.652743234910389
30
0
10
-2.608117830272523
20
13.475624204611908
30
0
10
-2.5902354662181244
20
13.262630545888824
30
0
0
SPLINE
5
440
330
3AD
100
AcDbEntity
100
AcDbSpline
8
Layer_0
210
0
220
0
230
1
70
8
71
3
72
8
73
4
74
0
42
1e-7
43
1e-7
44
1e-10
40
0
40
0
40
0
40
0
40
1
40
1
40
1
40
1
10
-2.5902354662181244
20
13.262630545888824
30
0
10
-2.5690261484419383
20
13.01001013292619
30
0
10
-2.4345323546338093
20
12.80431271712437
30
0
10
-2.1867540282739113
20
12.645538289291586
30
0
0
SPLINE
5
441
330
3AD
100
AcDbEntity
100
AcDbSpline
8
Layer_0
210
0
220
0
230
1
70
8
71
3
72
8
73
4
74
0
42
1e-7
43
1e-7
44
1e-10
40
0
40
0
40
0
40
0
40
1
40
1
40
1
40
1
10
0.8822957289387556
20
12.808510363406015
30
0
10
1.083355145759029
20
12.593618350786674
30
0
10
1.4045311472279285
20
12.449430421738505
30
0
10
1.8458237333454537
20
12.37594657626151
30
0
0
SPLINE
5
442
330
3AD
100
AcDbEntity
100
AcDbSpline
8
Layer_0
210
0
220
0
230
1
70
8
71
3
72
8
73
4
74
0
42
1e-7
43
1e-7
44
1e-10
40
0
40
0
40
0
40
0
40
1
40
1
40
1
40
1
10
1.8458237333454537
20
12.37594657626151
30
0
10
2.1400190343043177
20
12.326957305388145
30
0
10
2.408260201791723
20
12.333941838124662
30
0
10
2.6505478955950075
20
12.396900078242988
30
0
0
SPLINE
5
443
330
3AD
100
AcDbEntity
100
AcDbSpline
8
Layer_0
210
0
220
0
230
1
70
8
71
3
72
8
73
4
74
0
42
1e-7
43
1e-7
44
1e-10
40
0
40
0
40
0
40
0
40
1
40
1
40
1
40
1
10
2.6505478955950075
20
12.396900078242988
30
0
10
2.892835515692539
20
12.459858326674931
30
0
10
3.0924183633099465
20
12.568981661094227
30
0
10
3.249296438447229
20
12.72427008150088
30
0
0
SPLINE
5
444
330
3AD
100
AcDbEntity
100
AcDbSpline
8
Layer_0
210
0
220
0
230
1
70
8
71
3
72
8
73
4
74
0
42
1e-7
43
1e-7
44
1e-10
40
0
40
0
40
0
40
0
40
1
40
1
40
1
40
1
10
3.249296438447229
20
12.72427008150088
30
0
10
3.4061745090220326
20
12.879558474508473
30
0
10
3.5038010008265386
20
13.072429116396126
30
0
10
3.5421759138607474
20
13.302882007163836
30
0
0
SPLINE
5
445
330
3AD
100
AcDbEntity
100
AcDbSpline
8
Layer_0
210
0
220
0
230
1
70
8
71
3
72
8
73
4
74
0
42
1e-7
43
1e-7
44
1e-10
40
0
40
0
40
0
40
0
40
1
40
1
40
1
40
1
10
3.5421759138607474
20
13.302882007163836
30
0
10
3.5707529824535715
20
13.474495896191096
30
0
10
3.553568915778465
20
13.63609258858114
30
0
10
3.4906237138354266
20
13.787672084333968
30
0
0
SPLINE
5
446
330
3AD
100
AcDbEntity
100
AcDbSpline
8
Layer_0
210
0
220
0
230
1
70
8
71
3
72
8
73
4
74
0
42
1e-7
43
1e-7
44
1e-10
40
0
40
0
40
0
40
0
40
1
40
1
40
1
40
1
10
3.4906237138354266
20
13.787672084333968
30
0
10
3.4276782439689923
20
13.939251774881546
30
0
10
3.3394013294003773
20
14.082451587054956
30
0
10
3.2257929701295804
20
14.217271520854203
30
0
0
SPLINE
5
447
330
3AD
100
AcDbEntity
100
AcDbSpline
8
Layer_0
210
0
220
0
230
1
70
8
71
3
72
8
73
4
74
0
42
1e-7
43
1e-7
44
1e-10
40
0
40
0
40
0
40
0
40
1
40
1
40
1
40
1
10
3.2257929701295804
20
14.217271520854203
30
0
10
3.112184318602167
20
14.35209150331989
30
0
10
2.98938264296861
20
14.484662867515748
30
0
10
2.8573879432289093
20
14.614985613441775
30
0
0
SPLINE
5
448
330
3AD
100
AcDbEntity
100
AcDbSpline
8
Layer_0
210
0
220
0
230
1
70
8
71
3
72
8
73
4
74
0
42
1e-7
43
1e-7
44
1e-10
40
0
40
0
40
0
40
0
40
1
40
1
40
1
40
1
10
2.8573879432289093
20
14.614985613441775
30
0
10
2.7253931095275106
20
14.745308456765176
30
0
10
2.602183329406681
20
14.875428128934537
30
0
10
2.487758200981328
20
15.005344922141983
30
0
0
SPLINE
5
449
330
3AD
100
AcDbEntity
100
AcDbSpline
8
Layer_0
210
0
220
0
230
1
70
8
71
3
72
8
73
4
74
0
42
1e-7
43
1e-7
44
1e-10
40
0
40
0
40
0
40
0
40
1
40
1
40
1
40
1
10
2.487758200981328
20
15.005344922141983
30
0
10
2.3733330482227535
20
15.13526156922112
30
0
10
2.283831351358625
20
15.271106420930087
30
0
10
2.219253110388942
20
15.412879477268886
30
0
0
SPLINE
5
44A
330
3AD
100
AcDbEntity
100
AcDbSpline
8
Layer_0
210
0
220
0
230
1
70
8
71
3
72
8
73
4
74
0
42
1e-7
43
1e-7
44
1e-10
40
0
40
0
40
0
40
0
40
1
40
1
40
1
40
1
10
2.219253110388942
20
15.412879477268886
30
0
10
2.15467489375248
20
15.554652679735993
30
0
10
2.1354495861338356
20
15.703991331999582
30
0
10
2.1615771875330085
20
15.860895434059653
30
0
0
SPLINE
5
44B
330
3AD
100
AcDbEntity
100
AcDbSpline
8
Layer_0
210
0
220
0
230
1
70
8
71
3
72
8
73
4
74
0
42
1e-7
43
1e-7
44
1e-10
40
0
40
0
40
0
40
0
40
1
40
1
40
1
40
1
10
2.1615771875330085
20
15.860895434059653
30
0
10
2.1836223192762083
20
15.993283078379433
30
0
10
2.233864437010101
20
16.098299204284153
30
0
10
2.312303467735024
20
16.175943373388893
30
0
0
SPLINE
5
44C
330
3AD
100
AcDbEntity
100
AcDbSpline
8
Layer_0
210
0
220
0
230
1
70
8
71
3
72
8
73
4
74
0
42
1e-7
43
1e-7
44
1e-10
40
0
40
0
40
0
40
0
40
1
40
1
40
1
40
1
10
2.312303467735024
20
16.175943373388893
30
0
10
2.3907426080239325
20
16.253587749519486
30
0
10
2.483690552426757
20
16.3048797195047
30
0
10
2.591147300943498
20
16.329819283344538
30
0
0
SPLINE
5
44D
330
3AD
100
AcDbEntity
100
AcDbSpline
8
Layer_0
210
0
220
0
230
1
70
8
71
3
72
8
73
4
74
0
42
1e-7
43
1e-7
44
1e-10
40
0
40
0
40
0
40
0
40
1
40
1
40
1
40
1
10
2.591147300943498
20
16.329819283344538
30
0
10
2.6986040737934602
20
16.354758993312682
30
0
10
2.803816678103773
20
16.358655493926513
30
0
10
2.9067849676816366
20
16.341509260070783
30
0
0
SPLINE
5
44E
330
3AD
100
AcDbEntity
100
AcDbSpline
8
Layer_0
210
0
220
0
230
1
70
8
71
3
72
8
73
4
74
0
42
1e-7
43
1e-7
44
1e-10
40
0
40
0
40
0
40
0
40
1
40
1
40
1
40
1
10
2.9067849676816366
20
16.341509260070783
30
0
10
3.048979282774518
20
16.31783112586526
30
0
10
3.1715671135123626
20
16.252065066528704
30
0
10
3.2745483868955074
20
16.14421064367619
30
0
0
SPLINE
5
44F
330
3AD
100
AcDbEntity
100
AcDbSpline
8
Layer_0
210
0
220
0
230
1
70
8
71
3
72
8
73
4
74
0
42
1e-7
43
1e-7
44
1e-10
40
0
40
0
40
0
40
0
40
1
40
1
40
1
40
1
10
3.2745483868955074
20
16.14421064367619
30
0
10
3.377529611547719
20
16.03635637911859
30
0
10
3.4143234572117476
20
15.89417074422912
30
0
10
3.3849299238875936
20
15.71765373900777
30
0
0
SPLINE
5
450
330
3AD
100
AcDbEntity
100
AcDbSpline
8
Layer_0
210
0
220
0
230
1
70
8
71
3
72
8
73
4
74
0
42
1e-7
43
1e-7
44
1e-10
40
0
40
0
40
0
40
0
40
1
40
1
40
1
40
1
10
3.3849299238875936
20
15.71765373900777
30
0
10
3.3743155903816584
20
15.653911474944925
30
0
10
3.3457257206761843
20
15.573005519222157
30
0
10
3.2991599128860774
20
15.474936164031597
30
0
0
SPLINE
5
451
330
3AD
100
AcDbEntity
100
AcDbSpline
8
Layer_0
210
0
220
0
230
1
70
8
71
3
72
8
73
4
74
0
42
1e-7
43
1e-7
44
1e-10
40
0
40
0
40
0
40
0
40
1
40
1
40
1
40
1
10
3.2991599128860774
20
15.474936164031597
30
0
10
3.2525941050959704
20
15.376866808841037
30
0
10
3.188048360107076
20
15.291869837156094
30
0
10
3.1055224952267633
20
15.219945504669067
30
0
0
SPLINE
5
452
330
3AD
100
AcDbEntity
100
AcDbSpline
8
Layer_0
210
0
220
0
230
1
70
8
71
3
72
8
73
4
74
0
42
1e-7
43
1e-7
44
1e-10
40
0
40
0
40
0
40
0
40
1
40
1
40
1
40
1
10
3.1055224952267633
20
15.219945504669067
30
0
10
3.156192339284158
20
15.191351014771882
30
0
10
3.2037971855711573
20
15.167046493684298
30
0
10
3.2483367783954677
20
15.14703175871368
30
0
0
SPLINE
5
453
330
3AD
100
AcDbEntity
100
AcDbSpline
8
Layer_0
210
0
220
0
230
1
70
8
71
3
72
8
73
4
74
0
42
1e-7
43
1e-7
44
1e-10
40
0
40
0
40
0
40
0
40
1
40
1
40
1
40
1
10
3.2483367783954677
20
15.14703175871368
30
0
10
3.292876371219778
20
15.127017023743063
30
0
10
3.332307731888629
20
15.114151920198605
30
0
10
3.366630422017096
20
15.108436521079973
30
0
0
SPLINE
5
454
330
3AD
100
AcDbEntity
100
AcDbSpline
8
Layer_0
210
0
220
0
230
1
70
8
71
3
72
8
73
4
74
0
42
1e-7
43
1e-7
44
1e-10
40
0
40
0
40
0
40
0
40
1
40
1
40
1
40
1
10
3.366630422017096
20
15.108436521079973
30
0
10
3.5382442379802024
20
15.07985946465376
30
0
10
3.6847186379165366
20
15.127277381661562
30
0
10
3.806053621826099
20
15.25069027210338
30
0
0
SPLINE
5
455
330
3AD
100
AcDbEntity
100
AcDbSpline
8
Layer_0
210
0
220
0
230
1
70
8
71
3
72
8
73
4
74
0
42
1e-7
43
1e-7
44
1e-10
40
0
40
0
40
0
40
0
40
1
40
1
40
1
40
1
10
3.806053621826099
20
15.25069027210338
30
0
10
3.9273884961071848
20
15.374103406070882
30
0
10
4.002344650236771
20
15.521616661875969
30
0
10
4.030921718829595
20
15.693230550903229
30
0
0
SPLINE
5
456
330
3AD
100
AcDbEntity
100
AcDbSpline
8
Layer_0
210
0
220
0
230
1
70
8
71
3
72
8
73
4
74
0
42
1e-7
43
1e-7
44
1e-10
40
0
40
0
40
0
40
0
40
1
40
1
40
1
40
1
10
4.030921718829595
20
15.693230550903229
30
0
10
4.054599853035117
20
15.83542486599611
30
0
10
4.040482801937398
20
15.977613807686078
30
0
10
3.9885709674215324
20
16.11979708378101
30
0
0
SPLINE
5
457
330
3AD
100
AcDbEntity
100
AcDbSpline
8
Layer_0
210
0
220
0
230
1
70
8
71
3
72
8
73
4
74
0
42
1e-7
43
1e-7
44
1e-10
40
0
40
0
40
0
40
0
40
1
40
1
40
1
40
1
10
3.9885709674215324
20
16.11979708378101
30
0
10
3.93665920590533
20
16.261980798260865
30
0
10
3.835513740946759
20
16.388426105197034
30
0
10
3.685135156930072
20
16.4991338083597
30
0
0
SPLINE
5
458
330
3AD
100
AcDbEntity
100
AcDbSpline
8
Layer_0
210
0
220
0
230
1
70
8
71
3
72
8
73
4
74
0
42
1e-7
43
1e-7
44
1e-10
40
0
40
0
40
0
40
0
40
1
40
1
40
1
40
1
10
3.685135156930072
20
16.4991338083597
30
0
10
3.534756572913385
20
16.60984151152237
30
0
10
3.3271794173927995
20
16.68724053134674
30
0
10
3.0624036903683143
20
16.7313308678328
30
0
0
SPLINE
5
459
330
3AD
100
AcDbEntity
100
AcDbSpline
8
Layer_0
210
0
220
0
230
1
70
8
71
3
72
8
73
4
74
0
42
1e-7
43
1e-7
44
1e-10
40
0
40
0
40
0
40
0
40
1
40
1
40
1
40
1
10
3.0624036903683143
20
16.7313308678328
30
0
10
2.7682086086019124
20
16.780320102206332
30
0
10
2.5046662893266016
20
16.771293090498595
30
0
10
2.271777024734507
20
16.704250234594678
30
0
0
SPLINE
5
45A
330
3AD
100
AcDbEntity
100
AcDbSpline
8
Layer_0
210
0
220
0
230
1
70
8
71
3
72
8
73
4
74
0
42
1e-7
43
1e-7
44
1e-10
40
0
40
0
40
0
40
0
40
1
40
1
40
1
40
1
10
2.271777024734507
20
16.704250234594678
30
0
10
2.0388876505461813
20
16.637207396940678
30
0
10
1.8474772724110184
20
16.52420371796012
30
0
10
1.6975457625312398
20
16.365238768393034
30
0
0
SPLINE
5
45B
330
3AD
100
AcDbEntity
100
AcDbSpline
8
Layer_0
210
0
220
0
230
1
70
8
71
3
72
8
73
4
74
0
42
1e-7
43
1e-7
44
1e-10
40
0
40
0
40
0
40
0
40
1
40
1
40
1
40
1
10
1.6975457625312398
20
16.365238768393034
30
0
10
1.5476143195839418
20
16.206274108040915
30
0
10
1.4534611476764936
20
16.011565369013073
30
0
10
1.4150862468088952
20
15.78111255130952
30
0
0
SPLINE
5
45C
330
3AD
100
AcDbEntity
100
AcDbSpline
8
Layer_0
210
0
220
0
230
1
70
8
71
3
72
8
73
4
74
0
42
1e-7
43
1e-7
44
1e-10
40
0
40
0
40
0
40
0
40
1
40
1
40
1
40
1
10
1.4150862468088952
20
15.78111255130952
30
0
10
1.381610243828768
20
15.58007908834788
30
0
10
1.3928726221260284
20
15.398051790844313
30
0
10
1.448873436498792
20
15.23503064967386
30
0
0
SPLINE
5
45D
330
3AD
100
AcDbEntity
100
AcDbSpline
8
Layer_0
210
0
220
0
230
1
70
8
71
3
72
8
73
4
74
0
42
1e-7
43
1e-7
44
1e-10
40
0
40
0
40
0
40
0
40
1
40
1
40
1
40
1
10
1.448873436498792
20
15.23503064967386
30
0
10
1.5048742569709839
20
15.072009432397598
30
0
10
1.5882490398996638
20
14.922067160519854
30
0
10
1.698997785284832
20
14.785203834040626
30
0
0
SPLINE
5
45E
330
3AD
100
AcDbEntity
100
AcDbSpline
8
Layer_0
210
0
220
0
230
1
70
8
71
3
72
8
73
4
74
0
42
1e-7
43
1e-7
44
1e-10
40
0
40
0
40
0
40
0
40
1
40
1
40
1
40
1
10
1.698997785284832
20
14.785203834040626
30
0
10
1.80974653067
20
14.648340507561398
30
0
10
1.9280531580969096
20
14.519037080930904
30
0
10
2.0539177405652236
20
14.397293992534069
30
0
0
SPLINE
5
45F
330
3AD
100
AcDbEntity
100
AcDbSpline
8
Layer_0
210
0
220
0
230
1
70
8
71
3
72
8
73
4
74
0
42
1e-7
43
1e-7
44
1e-10
40
0
40
0
40
0
40
0
40
1
40
1
40
1
40
1
10
2.0539177405652236
20
14.397293992534069
30
0
10
2.179782298700317
20
14.275550758008926
30
0
10
2.299517803281758
20
14.154828168304894
30
0
10
2.4131242543095475
20
14.035126223421976
30
0
0
SPLINE
5
460
330
3AD
100
AcDbEntity
100
AcDbSpline
8
Layer_0
210
0
220
0
230
1
70
8
71
3
72
8
73
4
74
0
42
1e-7
43
1e-7
44
1e-10
40
0
40
0
40
0
40
0
40
1
40
1
40
1
40
1
10
2.4131242543095475
20
14.035126223421976
30
0
10
2.526730778401491
20
13.915424266372447
30
0
10
2.6145961842204724
20
13.792449873328689
30
0
10
2.676720471766491
20
13.666203044290697
30
0
0
SPLINE
5
461
330
3AD
100
AcDbEntity
100
AcDbSpline
8
Layer_0
210
0
220
0
230
1
70
8
71
3
72
8
73
4
74
0
42
1e-7
43
1e-7
44
1e-10
40
0
40
0
40
0
40
0
40
1
40
1
40
1
40
1
10
2.676720471766491
20
13.666203044290697
30
0
10
2.7388450637357376
20
13.539956239650417
30
0
10
2.7576600420020196
20
13.40328401209056
30
0
10
2.733165406565337
20
13.256186361611128
30
0
0
SPLINE
5
462
330
3AD
100
AcDbEntity
100
AcDbSpline
8
Layer_0
210
0
220
0
230
1
70
8
71
3
72
8
73
4
74
0
42
1e-7
43
1e-7
44
1e-10
40
0
40
0
40
0
40
0
40
1
40
1
40
1
40
1
10
2.733165406565337
20
13.256186361611128
30
0
10
2.711120244405611
20
13.123798534630962
30
0
10
2.6572006464233735
20
13.019394912511881
30
0
10
2.571406612618625
20
12.942975495253883
30
0
0
SPLINE
5
463
330
3AD
100
AcDbEntity
100
AcDbSpline
8
Layer_0
210
0
220
0
230
1
70
8
71
3
72
8
73
4
74
0
42
1e-7
43
1e-7
44
1e-10
40
0
40
0
40
0
40
0
40
1
40
1
40
1
40
1
10
2.571406612618625
20
12.942975495253883
30
0
10
2.4856127888813804
20
12.866555986697938
30
0
10
2.3851057632688004
20
12.815262992560658
30
0
10
2.2698859696033313
20
12.789096412443321
30
0
0
SPLINE
5
464
330
3AD
100
AcDbEntity
100
AcDbSpline
8
Layer_0
210
0
220
0
230
1
70
8
71
3
72
8
73
4
74
0
42
1e-7
43
1e-7
44
1e-10
40
0
40
0
40
0
40
0
40
1
40
1
40
1
40
1
10
2.2698859696033313
20
12.789096412443321
30
0
10
2.154665958266226
20
12.762929877958834
30
0
10
2.040668545486345
20
12.759236216709006
30
0
10
1.9278937312636886
20
12.778015428693836
30
0
0
SPLINE
5
465
330
3AD
100
AcDbEntity
100
AcDbSpline
8
Layer_0
210
0
220
0
230
1
70
8
71
3
72
8
73
4
74
0
42
1e-7
43
1e-7
44
1e-10
40
0
40
0
40
0
40
0
40
1
40
1
40
1
40
1
10
1.9278937312636886
20
12.778015428693836
30
0
10
1.697440913560133
20
12.816390329561434
30
0
10
1.5382795586838582
20
12.91218298365111
30
0
10
1.4504097807935745
20
13.06539340011201
30
0
0
SPLINE
5
466
330
3AD
100
AcDbEntity
100
AcDbSpline
8
Layer_0
210
0
220
0
230
1
70
8
71
3
72
8
73
4
74
0
42
1e-7
43
1e-7
44
1e-10
40
0
40
0
40
0
40
0
40
1
40
1
40
1
40
1
10
1.4504097807935745
20
13.06539340011201
30
0
10
1.3625400409561943
20
13.218603819622622
30
0
10
1.3328936992506109
20
13.381015937359482
30
0
10
1.3614707556768246
20
13.552629753322588
30
0
0
SPLINE
5
467
330
3AD
100
AcDbEntity
100
AcDbSpline
8
Layer_0
210
0
220
0
230
1
70
8
71
3
72
8
73
4
74
0
42
1e-7
43
1e-7
44
1e-10
40
0
40
0
40
0
40
0
40
1
40
1
40
1
40
1
10
1.3614707556768246
20
13.552629753322588
30
0
10
1.3753510393576562
20
13.635985030142942
30
0
10
1.404349251025027
20
13.719342525712836
30
0
10
1.4484655916214828
20
13.802702093936208
30
0
0
SPLINE
5
468
330
3AD
100
AcDbEntity
100
AcDbSpline
8
Layer_0
210
0
220
0
230
1
70
8
71
3
72
8
73
4
74
0
42
1e-7
43
1e-7
44
1e-10
40
0
40
0
40
0
40
0
40
1
40
1
40
1
40
1
10
1.4484655916214828
20
13.802702093936208
30
0
10
1.4925817982562408
20
13.886061759556954
30
0
10
1.5444633799385696
20
13.955530279076
30
0
10
1.6041103366684695
20
14.01110765249334
30
0
0
SPLINE
5
469
330
3AD
100
AcDbEntity
100
AcDbSpline
8
Layer_0
210
0
220
0
230
1
70
8
71
3
72
8
73
4
74
0
42
1e-7
43
1e-7
44
1e-10
40
0
40
0
40
0
40
0
40
1
40
1
40
1
40
1
10
1.6041103366684695
20
14.01110765249334
30
0
10
1.5640635185192742
20
14.042972274372207
30
0
10
1.5238135839657851
20
14.066052171459198
30
0
10
1.483360733950549
20
14.08034719765825
30
0
0
SPLINE
5
46A
330
3AD
100
AcDbEntity
100
AcDbSpline
8
Layer_0
210
0
220
0
230
1
70
8
71
3
72
8
73
4
74
0
42
1e-7
43
1e-7
44
1e-10
40
0
40
0
40
0
40
0
40
1
40
1
40
1
40
1
10
1.483360733950549
20
14.08034719765825
30
0
10
1.4429077743390817
20
14.094642242107218
30
0
10
1.4030682726508812
20
14.105055659708484
30
0
10
1.3638422471358636
20
14.111587560058277
30
0
0
SPLINE
5
46B
330
3AD
100
AcDbEntity
100
AcDbSpline
8
Layer_0
210
0
220
0
230
1
70
8
71
3
72
8
73
4
74
0
42
1e-7
43
1e-7
44
1e-10
40
0
40
0
40
0
40
0
40
1
40
1
40
1
40
1
10
1.3638422471358636
20
14.111587560058277
30
0
10
1.197131693495154
20
14.139348127419941
30
0
10
1.0441189195885472
20
14.09805816371598
30
0
10
0.9048039254160435
20
13.987717668946392
30
0
0
SPLINE
5
46C
330
3AD
100
AcDbEntity
100
AcDbSpline
8
Layer_0
210
0
220
0
230
1
70
8
71
3
72
8
73
4
74
0
42
1e-7
43
1e-7
44
1e-10
40
0
40
0
40
0
40
0
40
1
40
1
40
1
40
1
10
0.9048039254160435
20
13.987717668946392
30
0
10
0.7654889677756168
20
13.8773771680935
30
0
10
0.6782770105673999
20
13.71678699692799
30
0
10
0.6431680537913929
20
13.505947155449865
30
0
0
SPLINE
5
46D
330
3AD
100
AcDbEntity
100
AcDbSpline
8
Layer_0
210
0
220
0
230
1
70
8
71
3
72
8
73
4
74
0
42
1e-7
43
1e-7
44
1e-10
40
0
40
0
40
0
40
0
40
1
40
1
40
1
40
1
10
0.6431680537913929
20
13.505947155449865
30
0
10
0.6015271936239399
20
13.255881270190685
30
0
10
0.6812364011674354
20
13.023402347117564
30
0
10
0.8822957289387556
20
12.808510363406015
30
0
0
LINE
5
46E
330
3AD
100
AcDbEntity
100
AcDbLine
8
Layer_0
10
6.536247526134258
20
12.314319356641226
30
0
11
6.577494687530802
21
12.279032462510587
31
0
0
SPLINE
5
46F
330
3AD
100
AcDbEntity
100
AcDbSpline
8
Layer_0
210
0
220
0
230
1
70
8
71
3
72
8
73
4
74
0
42
1e-7
43
1e-7
44
1e-10
40
0
40
0
40
0
40
0
40
1
40
1
40
1
40
1
10
6.577494687530802
20
12.279032462510587
30
0
10
6.564697844571086
20
12.26302356894152
30
0
10
6.554677958857288
20
12.24710997873871
30
0
10
6.547435232428905
20
12.231291599394774
30
0
0
LINE
5
470
330
3AD
100
AcDbEntity
100
AcDbLine
8
Layer_0
10
6.547435232428905
20
12.231291599394774
30
0
11
6.511738855293144
21
12.153329406521546
31
0
0
SPLINE
5
471
330
3AD
100
AcDbEntity
100
AcDbSpline
8
Layer_0
210
0
220
0
230
1
70
8
71
3
72
8
73
4
74
0
42
1e-7
43
1e-7
44
1e-10
40
0
40
0
40
0
40
0
40
1
40
1
40
1
40
1
10
6.511738855293144
20
12.153329406521546
30
0
10
6.339982371656033
20
11.778206966123276
30
0
10
6.272886524235319
20
11.464504600845498
30
0
10
6.310451699764862
20
11.212222087791048
30
0
0
SPLINE
5
472
330
3AD
100
AcDbEntity
100
AcDbSpline
8
Layer_0
210
0
220
0
230
1
70
8
71
3
72
8
73
4
74
0
42
1e-7
43
1e-7
44
1e-10
40
0
40
0
40
0
40
0
40
1
40
1
40
1
40
1
10
6.310451699764862
20
11.212222087791048
30
0
10
6.348016603981172
20
10.959939693870613
30
0
10
6.497973777078
20
10.73820206891277
30
0
10
6.760323219055346
20
10.54700921291752
30
0
0
SPLINE
5
473
330
3AD
100
AcDbEntity
100
AcDbSpline
8
Layer_0
210
0
220
0
230
1
70
8
71
3
72
8
73
4
74
0
42
1e-7
43
1e-7
44
1e-10
40
0
40
0
40
0
40
0
40
1
40
1
40
1
40
1
10
6.760323219055346
20
10.54700921291752
30
0
10
6.764196079863639
20
10.758450435589227
30
0
10
6.782388834559036
20
10.941466899531456
30
0
10
6.814901878547966
20
11.096058400788246
30
0
0
SPLINE
5
474
330
3AD
100
AcDbEntity
100
AcDbSpline
8
Layer_0
210
0
220
0
230
1
70
8
71
3
72
8
73
4
74
0
42
1e-7
43
1e-7
44
1e-10
40
0
40
0
40
0
40
0
40
1
40
1
40
1
40
1
10
6.814901878547966
20
11.096058400788246
30
0
10
6.847414922536895
20
11.250649902045037
30
0
10
6.908162983151672
20
11.425115732278725
30
0
10
6.997145252234309
20
11.619456261518822
30
0
0
SPLINE
5
475
330
3AD
100
AcDbEntity
100
AcDbSpline
8
Layer_0
210
0
220
0
230
1
70
8
71
3
72
8
73
4
74
0
42
1e-7
43
1e-7
44
1e-10
40
0
40
0
40
0
40
0
40
1
40
1
40
1
40
1
10
6.997145252234309
20
11.619456261518822
30
0
10
7.110959762556443
20
11.868031313596497
30
0
10
7.242757253135518
20
12.11110610350414
30
0
10
7.392537723971532
20
12.34868063124175
30
0
0
SPLINE
5
476
330
3AD
100
AcDbEntity
100
AcDbSpline
8
Layer_0
210
0
220
0
230
1
70
8
71
3
72
8
73
4
74
0
42
1e-7
43
1e-7
44
1e-10
40
0
40
0
40
0
40
0
40
1
40
1
40
1
40
1
10
7.392537723971532
20
12.34868063124175
30
0
10
7.542318194807547
20
12.58625515897936
30
0
10
7.691444814052006
20
12.810461237803429
30
0
10
7.839917362640671
20
13.021299456807704
30
0
0
SPLINE
5
477
330
3AD
100
AcDbEntity
100
AcDbSpline
8
Layer_0
210
0
220
0
230
1
70
8
71
3
72
8
73
4
74
0
42
1e-7
43
1e-7
44
1e-10
40
0
40
0
40
0
40
0
40
1
40
1
40
1
40
1
10
7.839917362640671
20
13.021299456807704
30
0
10
7.98839031530833
20
13.232137490797221
30
0
10
8.120866981802765
20
13.42296430042138
30
0
10
8.23734714305974
20
13.593780474773931
30
0
0
SPLINE
5
478
330
3AD
100
AcDbEntity
100
AcDbSpline
8
Layer_0
210
0
220
0
230
1
70
8
71
3
72
8
73
4
74
0
42
1e-7
43
1e-7
44
1e-10
40
0
40
0
40
0
40
0
40
1
40
1
40
1
40
1
10
8.23734714305974
20
13.593780474773931
30
0
10
8.353827677559915
20
13.764596396765226
30
0
10
8.438969552976786
20
13.908758453632343
30
0
10
8.49277276931035
20
14.02626664537528
30
0
0
SPLINE
5
479
330
3AD
100
AcDbEntity
100
AcDbSpline
8
Layer_0
210
0
220
0
230
1
70
8
71
3
72
8
73
4
74
0
42
1e-7
43
1e-7
44
1e-10
40
0
40
0
40
0
40
0
40
1
40
1
40
1
40
1
10
8.49277276931035
20
14.02626664537528
30
0
10
8.575546983864824
20
14.207048556533453
30
0
10
8.590077116977346
20
14.367140471489895
30
0
10
8.536363480219533
20
14.506542003190361
30
0
0
SPLINE
5
47A
330
3AD
100
AcDbEntity
100
AcDbSpline
8
Layer_0
210
0
220
0
230
1
70
8
71
3
72
8
73
4
74
0
42
1e-7
43
1e-7
44
1e-10
40
0
40
0
40
0
40
0
40
1
40
1
40
1
40
1
10
8.536363480219533
20
14.506542003190361
30
0
10
8.482649439382726
20
14.645943719905583
30
0
10
8.36314186216522
20
14.758066039766932
30
0
10
8.17784052950278
20
14.842909551868157
30
0
0
SPLINE
5
47B
330
3AD
100
AcDbEntity
100
AcDbSpline
8
Layer_0
210
0
220
0
230
1
70
8
71
3
72
8
73
4
74
0
42
1e-7
43
1e-7
44
1e-10
40
0
40
0
40
0
40
0
40
1
40
1
40
1
40
1
10
8.17784052950278
20
14.842909551868157
30
0
10
8.146203568775414
20
14.8573950972323
30
0
10
8.111789697055821
20
14.871785440249939
30
0
10
8.0745987123045
20
14.886080673428447
30
0
0
SPLINE
5
47C
330
3AD
100
AcDbEntity
100
AcDbSpline
8
Layer_0
210
0
220
0
230
1
70
8
71
3
72
8
73
4
74
0
42
1e-7
43
1e-7
44
1e-10
40
0
40
0
40
0
40
0
40
1
40
1
40
1
40
1
10
8.0745987123045
20
14.886080673428447
30
0
10
8.037407542538423
20
14.900375502527963
30
0
10
7.995179650008234
20
14.915609824308035
30
0
10
7.947914815649696
20
14.931784227862416
30
0
0
SPLINE
5
47D
330
3AD
100
AcDbEntity
100
AcDbSpline
8
Layer_0
210
0
220
0
230
1
70
8
71
3
72
8
73
4
74
0
42
1e-7
43
1e-7
44
1e-10
40
0
40
0
40
0
40
0
40
1
40
1
40
1
40
1
10
7.947914815649696
20
14.931784227862416
30
0
10
7.922536656707585
20
14.828596282050176
30
0
10
7.8859134027994795
20
14.712789050794575
30
0
10
7.838045238940136
20
14.584362938174607
30
0
0
SPLINE
5
47E
330
3AD
100
AcDbEntity
100
AcDbSpline
8
Layer_0
210
0
220
0
230
1
70
8
71
3
72
8
73
4
74
0
42
1e-7
43
1e-7
44
1e-10
40
0
40
0
40
0
40
0
40
1
40
1
40
1
40
1
10
7.838045238940136
20
14.584362938174607
30
0
10
7.790176890066036
20
14.455936421475645
30
0
10
7.73934130098933
20
14.332969223040502
30
0
10
7.685538084655766
20
14.215461031297565
30
0
0
SPLINE
5
47F
330
3AD
100
AcDbEntity
100
AcDbSpline
8
Layer_0
210
0
220
0
230
1
70
8
71
3
72
8
73
4
74
0
42
1e-7
43
1e-7
44
1e-10
40
0
40
0
40
0
40
0
40
1
40
1
40
1
40
1
10
7.685538084655766
20
14.215461031297565
30
0
10
7.528267092420163
20
13.871975433770288
30
0
10
7.338270651740414
20
13.558508170560078
30
0
10
7.11554876261652
20
13.275059241666934
30
0
0
SPLINE
5
480
330
3AD
100
AcDbEntity
100
AcDbSpline
8
Layer_0
210
0
220
0
230
1
70
8
71
3
72
8
73
4
74
0
42
1e-7
43
1e-7
44
1e-10
40
0
40
0
40
0
40
0
40
1
40
1
40
1
40
1
10
7.11554876261652
20
13.275059241666934
30
0
10
6.892826977349831
20
12.991610183755707
30
0
10
6.656248273775884
20
12.755508549478767
30
0
10
6.405812651894681
20
12.566754338836116
30
0
0
SPLINE
5
481
330
3AD
100
AcDbEntity
100
AcDbSpline
8
Layer_0
210
0
220
0
230
1
70
8
71
3
72
8
73
4
74
0
42
1e-7
43
1e-7
44
1e-10
40
0
40
0
40
0
40
0
40
1
40
1
40
1
40
1
10
6.405812651894681
20
12.566754338836116
30
0
10
6.155377164706476
20
12.37800006652188
30
0
10
5.912920610708059
20
12.248463521992411
30
0
10
5.678443301471043
20
12.178144318193457
30
0
0
SPLINE
5
482
330
3AD
100
AcDbEntity
100
AcDbSpline
8
Layer_0
210
0
220
0
230
1
70
8
71
3
72
8
73
4
74
0
42
1e-7
43
1e-7
44
1e-10
40
0
40
0
40
0
40
0
40
1
40
1
40
1
40
1
10
5.678443301471043
20
12.178144318193457
30
0
10
5.443966023069821
20
12.107825181741001
30
0
10
5.23407668386474
20
12.115087384983282
30
0
10
5.0487752838558
20
12.199930927920299
30
0
0
SPLINE
5
483
330
3AD
100
AcDbEntity
100
AcDbSpline
8
Layer_0
210
0
220
0
230
1
70
8
71
3
72
8
73
4
74
0
42
1e-7
43
1e-7
44
1e-10
40
0
40
0
40
0
40
0
40
1
40
1
40
1
40
1
10
5.0487752838558
20
12.199930927920299
30
0
10
4.872512996241394
20
12.280635752420643
30
0
10
4.7705535456982116
20
12.416159106812554
30
0
10
4.742897088012063
20
12.606500797568902
30
0
0
SPLINE
5
484
330
3AD
100
AcDbEntity
100
AcDbSpline
8
Layer_0
210
0
220
0
230
1
70
8
71
3
72
8
73
4
74
0
42
1e-7
43
1e-7
44
1e-10
40
0
40
0
40
0
40
0
40
1
40
1
40
1
40
1
10
4.742897088012063
20
12.606500797568902
30
0
10
4.71524064574381
20
12.7968425219985
30
0
10
4.76452775742576
20
13.029859578843936
30
0
10
4.8907584230579095
20
13.305551968105211
30
0
0
SPLINE
5
485
330
3AD
100
AcDbEntity
100
AcDbSpline
8
Layer_0
210
0
220
0
230
1
70
8
71
3
72
8
73
4
74
0
42
1e-7
43
1e-7
44
1e-10
40
0
40
0
40
0
40
0
40
1
40
1
40
1
40
1
10
4.8907584230579095
20
13.305551968105211
30
0
10
5.016989088690059
20
13.581244357366486
30
0
10
5.177687581422853
20
13.82475389132463
30
0
10
5.372854002276039
20
14.036080523725946
30
0
0
SPLINE
5
486
330
3AD
100
AcDbEntity
100
AcDbSpline
8
Layer_0
210
0
220
0
230
1
70
8
71
3
72
8
73
4
74
0
42
1e-7
43
1e-7
44
1e-10
40
0
40
0
40
0
40
0
40
1
40
1
40
1
40
1
10
5.372854002276039
20
14.036080523725946
30
0
10
5.56802035294527
20
14.247407269727452
30
0
10
5.785606639443131
20
14.421133403536532
30
0
10
6.02561286176962
20
14.557258925153189
30
0
0
SPLINE
5
487
330
3AD
100
AcDbEntity
100
AcDbSpline
8
Layer_0
210
0
220
0
230
1
70
8
71
3
72
8
73
4
74
0
42
1e-7
43
1e-7
44
1e-10
40
0
40
0
40
0
40
0
40
1
40
1
40
1
40
1
10
6.02561286176962
20
14.557258925153189
30
0
10
6.265619145767695
20
14.693384581462844
30
0
10
6.521551691873465
20
14.786682336662228
30
0
10
6.793410500086933
20
14.83715219075134
30
0
0
SPLINE
5
488
330
3AD
100
AcDbEntity
100
AcDbSpline
8
Layer_0
210
0
220
0
230
1
70
8
71
3
72
8
73
4
74
0
42
1e-7
43
1e-7
44
1e-10
40
0
40
0
40
0
40
0
40
1
40
1
40
1
40
1
10
6.793410500086933
20
14.83715219075134
30
0
10
7.065268988592647
20
14.887621702433044
30
0
10
7.33667692930508
20
14.886361068188187
30
0
10
7.607634322224232
20
14.833370288016766
30
0
0
SPLINE
5
489
330
3AD
100
AcDbEntity
100
AcDbSpline
8
Layer_0
210
0
220
0
230
1
70
8
71
3
72
8
73
4
74
0
42
1e-7
43
1e-7
44
1e-10
40
0
40
0
40
0
40
0
40
1
40
1
40
1
40
1
10
7.607634322224232
20
14.833370288016766
30
0
10
7.513650720893473
20
14.914671777476816
30
0
10
7.427344497534217
20
14.982890442087584
30
0
10
7.348715837161221
20
15.038026685928063
30
0
0
SPLINE
5
48A
330
3AD
100
AcDbEntity
100
AcDbSpline
8
Layer_0
210
0
220
0
230
1
70
8
71
3
72
8
73
4
74
0
42
1e-7
43
1e-7
44
1e-10
40
0
40
0
40
0
40
0
40
1
40
1
40
1
40
1
10
7.348715837161221
20
15.038026685928063
30
0
10
7.270087176788224
20
15.093162929768543
30
0
10
7.192356661110578
20
15.138320341333557
30
0
10
7.11552447514304
20
15.173499324702098
30
0
0
SPLINE
5
48B
330
3AD
100
AcDbEntity
100
AcDbSpline
8
Layer_0
210
0
220
0
230
1
70
8
71
3
72
8
73
4
74
0
42
1e-7
43
1e-7
44
1e-10
40
0
40
0
40
0
40
0
40
1
40
1
40
1
40
1
10
7.11552447514304
20
15.173499324702098
30
0
10
6.857910175977834
20
15.29145261513249
30
0
10
6.586626167227676
20
15.337759314052507
30
0
10
6.30167212880858
20
15.31242005680959
30
0
0
SPLINE
5
48C
330
3AD
100
AcDbEntity
100
AcDbSpline
8
Layer_0
210
0
220
0
230
1
70
8
71
3
72
8
73
4
74
0
42
1e-7
43
1e-7
44
1e-10
40
0
40
0
40
0
40
0
40
1
40
1
40
1
40
1
10
6.30167212880858
20
15.31242005680959
30
0
10
6.016718253080818
20
15.28708088800598
30
0
10
5.7377659000967896
20
15.20022301667527
30
0
10
5.464815069856495
20
15.05184644281746
30
0
0
SPLINE
5
48D
330
3AD
100
AcDbEntity
100
AcDbSpline
8
Layer_0
210
0
220
0
230
1
70
8
71
3
72
8
73
4
74
0
42
1e-7
43
1e-7
44
1e-10
40
0
40
0
40
0
40
0
40
1
40
1
40
1
40
1
10
5.464815069856495
20
15.05184644281746
30
0
10
5.191864306962699
20
14.903469838123858
30
0
10
4.93799773445738
20
14.701252143783984
30
0
10
4.703215352340543
20
14.445193359797836
30
0
0
SPLINE
5
48E
330
3AD
100
AcDbEntity
100
AcDbSpline
8
Layer_0
210
0
220
0
230
1
70
8
71
3
72
8
73
4
74
0
42
1e-7
43
1e-7
44
1e-10
40
0
40
0
40
0
40
0
40
1
40
1
40
1
40
1
10
4.703215352340543
20
14.445193359797836
30
0
10
4.4684330150586655
20
14.189134718213634
30
0
10
4.273441029909094
20
13.891622376756526
30
0
10
4.118239396891826
20
13.552656335426516
30
0
0
SPLINE
5
48F
330
3AD
100
AcDbEntity
100
AcDbSpline
8
Layer_0
210
0
220
0
230
1
70
8
71
3
72
8
73
4
74
0
42
1e-7
43
1e-7
44
1e-10
40
0
40
0
40
0
40
0
40
1
40
1
40
1
40
1
10
4.118239396891826
20
13.552656335426516
30
0
10
3.923720000397761
20
13.127818861041437
30
0
10
3.8573985800224073
20
12.759091510869492
30
0
10
3.9192751357657647
20
12.446474284910682
30
0
0
SPLINE
5
490
330
3AD
100
AcDbEntity
100
AcDbSpline
8
Layer_0
210
0
220
0
230
1
70
8
71
3
72
8
73
4
74
0
42
1e-7
43
1e-7
44
1e-10
40
0
40
0
40
0
40
0
40
1
40
1
40
1
40
1
10
3.9192751357657647
20
12.446474284910682
30
0
10
3.9811516631090753
20
12.133857041405882
30
0
10
4.163494756329918
20
11.908225024600297
30
0
10
4.4663044154282945
20
11.769578234493924
30
0
0
SPLINE
5
491
330
3AD
100
AcDbEntity
100
AcDbSpline
8
Layer_0
210
0
220
0
230
1
70
8
71
3
72
8
73
4
74
0
42
1e-7
43
1e-7
44
1e-10
40
0
40
0
40
0
40
0
40
1
40
1
40
1
40
1
10
4.4663044154282945
20
11.769578234493924
30
0
10
4.6696841075728
20
11.67645722384777
30
0
10
4.893988970057134
20
11.637992949144511
30
0
10
5.139219002881298
20
11.654185410384144
30
0
0
SPLINE
5
492
330
3AD
100
AcDbEntity
100
AcDbSpline
8
Layer_0
210
0
220
0
230
1
70
8
71
3
72
8
73
4
74
0
42
1e-7
43
1e-7
44
1e-10
40
0
40
0
40
0
40
0
40
1
40
1
40
1
40
1
10
5.139219002881298
20
11.654185410384144
30
0
10
5.384449170398459
20
11.670377809952193
30
0
10
5.630225373929715
20
11.73552353504549
30
0
10
5.8765476134750685
20
11.849622585664036
30
0
0
SPLINE
5
493
330
3AD
100
AcDbEntity
100
AcDbSpline
8
Layer_0
210
0
220
0
230
1
70
8
71
3
72
8
73
4
74
0
42
1e-7
43
1e-7
44
1e-10
40
0
40
0
40
0
40
0
40
1
40
1
40
1
40
1
10
5.8765476134750685
20
11.849622585664036
30
0
10
6.122869710618476
20
11.963721681117544
30
0
10
6.342769681504873
20
12.118620604776607
30
0
10
6.536247526134258
20
12.314319356641226
30
0
0
LINE
5
494
330
3AD
100
AcDbEntity
100
AcDbLine
8
Layer_0
10
9.767525627204234
20
11.818943567017213
30
0
11
9.737413777487912
21
11.85285922849429
31
0
0
SPLINE
5
495
330
3AD
100
AcDbEntity
100
AcDbSpline
8
Layer_0
210
0
220
0
230
1
70
8
71
3
72
8
73
4
74
0
42
1e-7
43
1e-7
44
1e-10
40
0
40
0
40
0
40
0
40
1
40
1
40
1
40
1
10
9.737413777487912
20
11.85285922849429
30
0
10
9.814616762583702
20
11.924682197024408
30
0
10
9.887357859848617
20
11.996914948272142
30
0
10
9.955637295357043
20
12.069557585253705
30
0
0
SPLINE
5
496
330
3AD
100
AcDbEntity
100
AcDbSpline
8
Layer_0
210
0
220
0
230
1
70
8
71
3
72
8
73
4
74
0
42
1e-7
43
1e-7
44
1e-10
40
0
40
0
40
0
40
0
40
1
40
1
40
1
40
1
10
9.955637295357043
20
12.069557585253705
30
0
10
10.023916591212446
20
12.142200049392544
30
0
10
10.08773422531136
20
12.215252399265214
30
0
10
10.147089831926378
20
12.288714359012777
30
0
0
SPLINE
5
497
330
3AD
100
AcDbEntity
100
AcDbSpline
8
Layer_0
210
0
220
0
230
1
70
8
71
3
72
8
73
4
74
0
42
1e-7
43
1e-7
44
1e-10
40
0
40
0
40
0
40
0
40
1
40
1
40
1
40
1
10
10.147089831926378
20
12.288714359012777
30
0
10
10.328281108827294
20
12.5129672484936
30
0
10
10.445073541264906
20
12.744518729300093
30
0
10
10.497467494966617
20
12.983369077291195
30
0
0
SPLINE
5
498
330
3AD
100
AcDbEntity
100
AcDbSpline
8
Layer_0
210
0
220
0
230
1
70
8
71
3
72
8
73
4
74
0
42
1e-7
43
1e-7
44
1e-10
40
0
40
0
40
0
40
0
40
1
40
1
40
1
40
1
10
10.497467494966617
20
12.983369077291195
30
0
10
10.54986150189999
20
13.22221966795153
30
0
10
10.495249085608183
20
13.486818773882682
30
0
10
10.333630246091197
20
13.777166395084649
30
0
0
SPLINE
5
499
330
3AD
100
AcDbEntity
100
AcDbSpline
8
Layer_0
210
0
220
0
230
1
70
8
71
3
72
8
73
4
74
0
42
1e-7
43
1e-7
44
1e-10
40
0
40
0
40
0
40
0
40
1
40
1
40
1
40
1
10
10.333630246091197
20
13.777166395084649
30
0
10
10.25908853088877
20
13.613725497215887
30
0
10
10.170194827358412
20
13.452295001851628
30
0
10
10.066949135500126
20
13.292874908991873
30
0
0
SPLINE
5
49A
330
3AD
100
AcDbEntity
100
AcDbSpline
8
Layer_0
210
0
220
0
230
1
70
8
71
3
72
8
73
4
74
0
42
1e-7
43
1e-7
44
1e-10
40
0
40
0
40
0
40
0
40
1
40
1
40
1
40
1
10
10.066949135500126
20
13.292874908991873
30
0
10
9.963703446982167
20
13.133454908659614
30
0
10
9.85116297204928
20
12.978349564099693
30
0
10
9.729327581069425
20
12.82755898005188
30
0
0
SPLINE
5
49B
330
3AD
100
AcDbEntity
100
AcDbSpline
8
Layer_0
210
0
220
0
230
1
70
8
71
3
72
8
73
4
74
0
42
1e-7
43
1e-7
44
1e-10
40
0
40
0
40
0
40
0
40
1
40
1
40
1
40
1
10
9.729327581069425
20
12.82755898005188
30
0
10
9.573128189983839
20
12.634237505722613
30
0
10
9.397334137098346
20
12.442369841314308
30
0
10
9.201945089875236
20
12.251955398472285
30
0
0
SPLINE
5
49C
330
3AD
100
AcDbEntity
100
AcDbSpline
8
Layer_0
210
0
220
0
230
1
70
8
71
3
72
8
73
4
74
0
42
1e-7
43
1e-7
44
1e-10
40
0
40
0
40
0
40
0
40
1
40
1
40
1
40
1
10
9.201945089875236
20
12.251955398472285
30
0
10
9.006556275407164
20
12.061541243701466
30
0
10
8.813734492557163
20
11.880236183818347
30
0
10
8.623479741325237
20
11.708040218822928
30
0
0
SPLINE
5
49D
330
3AD
100
AcDbEntity
100
AcDbSpline
8
Layer_0
210
0
220
0
230
1
70
8
71
3
72
8
73
4
74
0
42
1e-7
43
1e-7
44
1e-10
40
0
40
0
40
0
40
0
40
1
40
1
40
1
40
1
10
8.623479741325237
20
11.708040218822928
30
0
10
8.433225083195325
20
11.53584436905599
30
0
10
8.262271171339362
20
11.381604261421582
30
0
10
8.110618005757345
20
11.245319895919703
30
0
0
SPLINE
5
49E
330
3AD
100
AcDbEntity
100
AcDbSpline
8
Layer_0
210
0
220
0
230
1
70
8
71
3
72
8
73
4
74
0
42
1e-7
43
1e-7
44
1e-10
40
0
40
0
40
0
40
0
40
1
40
1
40
1
40
1
10
8.110618005757345
20
11.245319895919703
30
0
10
7.958964840175328
20
11.109035530417824
30
0
10
7.848774408569363
20
10.998362644631715
30
0
10
7.780046710939451
20
10.913301238561376
30
0
0
SPLINE
5
49F
330
3AD
100
AcDbEntity
100
AcDbSpline
8
Layer_0
210
0
220
0
230
1
70
8
71
3
72
8
73
4
74
0
42
1e-7
43
1e-7
44
1e-10
40
0
40
0
40
0
40
0
40
1
40
1
40
1
40
1
10
7.780046710939451
20
10.913301238561376
30
0
10
7.6363434024145525
20
10.73544564465061
30
0
10
7.57674918803848
20
10.57270874369213
30
0
10
7.6012640678112335
20
10.425090535685936
30
0
0
SPLINE
5
4A0
330
3AD
100
AcDbEntity
100
AcDbSpline
8
Layer_0
210
0
220
0
230
1
70
8
71
3
72
8
73
4
74
0
42
1e-7
43
1e-7
44
1e-10
40
0
40
0
40
0
40
0
40
1
40
1
40
1
40
1
10
7.6012640678112335
20
10.425090535685936
30
0
10
7.625778931141977
20
10.277472366259028
30
0
10
7.721164523022706
20
10.13649760296406
30
0
10
7.887420843453419
20
10.002166245801035
30
0
0
SPLINE
5
4A1
330
3AD
100
AcDbEntity
100
AcDbSpline
8
Layer_0
210
0
220
0
230
1
70
8
71
3
72
8
73
4
74
0
42
1e-7
43
1e-7
44
1e-10
40
0
40
0
40
0
40
0
40
1
40
1
40
1
40
1
10
7.887420843453419
20
10.002166245801035
30
0
10
7.910619448755126
20
9.983422297426504
30
0
10
7.937498832122316
20
9.963301996129148
30
0
10
7.968058993554988
20
9.941805341908967
30
0
0
SPLINE
5
4A2
330
3AD
100
AcDbEntity
100
AcDbSpline
8
Layer_0
210
0
220
0
230
1
70
8
71
3
72
8
73
4
74
0
42
1e-7
43
1e-7
44
1e-10
40
0
40
0
40
0
40
0
40
1
40
1
40
1
40
1
10
7.968058993554988
20
9.941805341908967
30
0
10
7.998619155715019
20
9.920308688589008
30
0
10
8.034793428398716
20
9.895873593696368
30
0
10
8.076581639308877
20
9.868500197559237
30
0
0
SPLINE
5
4A3
330
3AD
100
AcDbEntity
100
AcDbSpline
8
Layer_0
210
0
220
0
230
1
70
8
71
3
72
8
73
4
74
0
42
1e-7
43
1e-7
44
1e-10
40
0
40
0
40
0
40
0
40
1
40
1
40
1
40
1
10
8.076581639308877
20
9.868500197559237
30
0
10
8.142339520188052
20
9.981523248581404
30
0
10
8.211554093177467
20
10.086960470639363
30
0
10
8.284225358277121
20
10.184811863733119
30
0
0
SPLINE
5
4A4
330
3AD
100
AcDbEntity
100
AcDbSpline
8
Layer_0
210
0
220
0
230
1
70
8
71
3
72
8
73
4
74
0
42
1e-7
43
1e-7
44
1e-10
40
0
40
0
40
0
40
0
40
1
40
1
40
1
40
1
10
8.284225358277121
20
10.184811863733119
30
0
10
8.356896577113027
20
10.282663258497037
30
0
10
8.429157979179838
20
10.376052900072612
30
0
10
8.501009633442287
20
10.464980697027995
30
0
0
SPLINE
5
4A5
330
3AD
100
AcDbEntity
100
AcDbSpline
8
Layer_0
210
0
220
0
230
1
70
8
71
3
72
8
73
4
74
0
42
1e-7
43
1e-7
44
1e-10
40
0
40
0
40
0
40
0
40
1
40
1
40
1
40
1
10
8.501009633442287
20
10.464980697027995
30
0
10
8.769672405957095
20
10.797493409907222
30
0
10
9.054536055621462
20
11.068986991977724
30
0
10
9.355600773596514
20
11.279461503045034
30
0
0
SPLINE
5
4A6
330
3AD
100
AcDbEntity
100
AcDbSpline
8
Layer_0
210
0
220
0
230
1
70
8
71
3
72
8
73
4
74
0
42
1e-7
43
1e-7
44
1e-10
40
0
40
0
40
0
40
0
40
1
40
1
40
1
40
1
10
9.355600773596514
20
11.279461503045034
30
0
10
9.656665416213439
20
11.489935979773607
30
0
10
9.947755612937707
20
11.644564381436808
30
0
10
10.228871363769318
20
11.743346708034634
30
0
0
SPLINE
5
4A7
330
3AD
100
AcDbEntity
100
AcDbSpline
8
Layer_0
210
0
220
0
230
1
70
8
71
3
72
8
73
4
74
0
42
1e-7
43
1e-7
44
1e-10
40
0
40
0
40
0
40
0
40
1
40
1
40
1
40
1
10
10.228871363769318
20
11.743346708034634
30
0
10
10.50998687078266
20
11.842128850726503
30
0
10
10.760195331649927
20
11.890794598252821
30
0
10
10.979496746371119
20
11.889343950613585
30
0
0
SPLINE
5
4A8
330
3AD
100
AcDbEntity
100
AcDbSpline
8
Layer_0
210
0
220
0
230
1
70
8
71
3
72
8
73
4
74
0
42
1e-7
43
1e-7
44
1e-10
40
0
40
0
40
0
40
0
40
1
40
1
40
1
40
1
10
10.979496746371119
20
11.889343950613585
30
0
10
11.198797974888281
20
11.887893072517384
30
0
10
11.362578748525788
20
11.843431971221923
30
0
10
11.470838615134873
20
11.755960440694775
30
0
0
SPLINE
5
4A9
330
3AD
100
AcDbEntity
100
AcDbSpline
8
Layer_0
210
0
220
0
230
1
70
8
71
3
72
8
73
4
74
0
42
1e-7
43
1e-7
44
1e-10
40
0
40
0
40
0
40
0
40
1
40
1
40
1
40
1
10
11.470838615134873
20
11.755960440694775
30
0
10
11.625495690892652
20
11.63100101161812
30
0
10
11.59973273383478
20
11.440929074937094
30
0
10
11.393549710771556
20
11.185744943147437
30
0
0
SPLINE
5
4AA
330
3AD
100
AcDbEntity
100
AcDbSpline
8
Layer_0
210
0
220
0
230
1
70
8
71
3
72
8
73
4
74
0
42
1e-7
43
1e-7
44
1e-10
40
0
40
0
40
0
40
0
40
1
40
1
40
1
40
1
10
11.393549710771556
20
11.185744943147437
30
0
10
11.274838311337492
20
11.038820793195347
30
0
10
11.137498593724967
20
10.892569097954572
30
0
10
10.98153055793398
20
10.746989857425115
30
0
0
SPLINE
5
4AB
330
3AD
100
AcDbEntity
100
AcDbSpline
8
Layer_0
210
0
220
0
230
1
70
8
71
3
72
8
73
4
74
0
42
1e-7
43
1e-7
44
1e-10
40
0
40
0
40
0
40
0
40
1
40
1
40
1
40
1
10
10.98153055793398
20
10.746989857425115
30
0
10
10.825562568694
20
10.601410674509898
30
0
10
10.665728400239798
20
10.458955562881181
30
0
10
10.50202760042261
20
10.319624316506541
30
0
0
SPLINE
5
4AC
330
3AD
100
AcDbEntity
100
AcDbSpline
8
Layer_0
210
0
220
0
230
1
70
8
71
3
72
8
73
4
74
0
42
1e-7
43
1e-7
44
1e-10
40
0
40
0
40
0
40
0
40
1
40
1
40
1
40
1
10
10.50202760042261
20
10.319624316506541
30
0
10
10.33832673077891
20
10.18029298371054
30
0
10
10.184740429038776
20
10.04557059623767
30
0
10
10.04126838270646
20
9.915457120898232
30
0
0
SPLINE
5
4AD
330
3AD
100
AcDbEntity
100
AcDbSpline
8
Layer_0
210
0
220
0
230
1
70
8
71
3
72
8
73
4
74
0
42
1e-7
43
1e-7
44
1e-10
40
0
40
0
40
0
40
0
40
1
40
1
40
1
40
1
10
10.04126838270646
20
9.915457120898232
30
0
10
9.89779635964965
20
9.785343674365913
30
0
10
9.779200568036375
20
9.662290554892367
30
0
10
9.685481007866635
20
9.546297762477593
30
0
0
SPLINE
5
4AE
330
3AD
100
AcDbEntity
100
AcDbSpline
8
Layer_0
210
0
220
0
230
1
70
8
71
3
72
8
73
4
74
0
42
1e-7
43
1e-7
44
1e-10
40
0
40
0
40
0
40
0
40
1
40
1
40
1
40
1
10
9.685481007866635
20
9.546297762477593
30
0
10
9.476173999076492
20
9.287247203793992
30
0
10
9.388533956132482
20
9.064093755744743
30
0
10
9.422560680006937
20
8.876837525574853
30
0
0
SPLINE
5
4AF
330
3AD
100
AcDbEntity
100
AcDbSpline
8
Layer_0
210
0
220
0
230
1
70
8
71
3
72
8
73
4
74
0
42
1e-7
43
1e-7
44
1e-10
40
0
40
0
40
0
40
0
40
1
40
1
40
1
40
1
10
9.422560680006937
20
8.876837525574853
30
0
10
9.456587467314508
20
8.689581256055737
30
0
10
9.603126086296742
20
8.491299660542676
30
0
10
9.86217653695364
20
8.281992739035672
30
0
0
LINE
5
4B0
330
3AD
100
AcDbEntity
100
AcDbLine
8
Layer_0
10
9.86217653695364
20
8.281992739035672
30
0
11
9.966570084695482
21
8.197645106952303
31
0
0
SPLINE
5
4B1
330
3AD
100
AcDbEntity
100
AcDbSpline
8
Layer_0
210
0
220
0
230
1
70
8
71
3
72
8
73
4
74
0
42
1e-7
43
1e-7
44
1e-10
40
0
40
0
40
0
40
0
40
1
40
1
40
1
40
1
10
9.966570084695482
20
8.197645106952303
30
0
10
10.00136781871428
20
8.169529322693194
30
0
10
10.039660964294244
20
8.141784593179635
30
0
10
10.081449171385767
20
8.114411192316336
30
0
0
SPLINE
5
4B2
330
3AD
100
AcDbEntity
100
AcDbSpline
8
Layer_0
210
0
220
0
230
1
70
8
71
3
72
8
73
4
74
0
42
1e-7
43
1e-7
44
1e-10
40
0
40
0
40
0
40
0
40
1
40
1
40
1
40
1
10
10.081449171385767
20
8.114411192316336
30
0
10
10.022430736720784
20
8.270735870382316
30
0
10
10.00100108205179
20
8.41426362954442
30
0
10
10.017160900931756
20
8.54499391389123
30
0
0
SPLINE
5
4B3
330
3AD
100
AcDbEntity
100
AcDbSpline
8
Layer_0
210
0
220
0
230
1
70
8
71
3
72
8
73
4
74
0
42
1e-7
43
1e-7
44
1e-10
40
0
40
0
40
0
40
0
40
1
40
1
40
1
40
1
10
10.017160900931756
20
8.54499391389123
30
0
10
10.03332072417588
20
8.675724203639373
30
0
10
10.114814101352813
20
8.83195048776615
30
0
10
10.261641413061255
20
9.013672530176201
30
0
0
SPLINE
5
4B4
330
3AD
100
AcDbEntity
100
AcDbSpline
8
Layer_0
210
0
220
0
230
1
70
8
71
3
72
8
73
4
74
0
42
1e-7
43
1e-7
44
1e-10
40
0
40
0
40
0
40
0
40
1
40
1
40
1
40
1
10
10.261641413061255
20
9.013672530176201
30
0
10
10.44283255030915
20
9.237925246814301
30
0
10
10.64647979196722
20
9.45042448637017
30
0
10
10.872583138035463
20
9.651170248843812
30
0
0
LINE
5
4B5
330
3AD
100
AcDbEntity
100
AcDbLine
8
Layer_0
10
10.872583138035463
20
9.651170248843812
30
0
11
11.533935674592248
21
10.238351488348403
31
0
0
SPLINE
5
4B6
330
3AD
100
AcDbEntity
100
AcDbSpline
8
Layer_0
210
0
220
0
230
1
70
8
71
3
72
8
73
4
74
0
42
1e-7
43
1e-7
44
1e-10
40
0
40
0
40
0
40
0
40
1
40
1
40
1
40
1
10
11.533935674592248
20
10.238351488348403
30
0
10
11.748733580774402
20
10.42906004962205
30
0
10
11.931108364154195
20
10.617208436060519
30
0
10
12.08105967904618
20
10.802796926969854
30
0
0
SPLINE
5
4B7
330
3AD
100
AcDbEntity
100
AcDbSpline
8
Layer_0
210
0
220
0
230
1
70
8
71
3
72
8
73
4
74
0
42
1e-7
43
1e-7
44
1e-10
40
0
40
0
40
0
40
0
40
1
40
1
40
1
40
1
10
12.08105967904618
20
10.802796926969854
30
0
10
12.284118710563614
20
11.054114624663786
30
0
10
12.402287704894208
20
11.289347000371805
30
0
10
12.435566662037958
20
11.508494054093912
30
0
0
SPLINE
5
4B8
330
3AD
100
AcDbEntity
100
AcDbSpline
8
Layer_0
210
0
220
0
230
1
70
8
71
3
72
8
73
4
74
0
42
1e-7
43
1e-7
44
1e-10
40
0
40
0
40
0
40
0
40
1
40
1
40
1
40
1
10
12.435566662037958
20
11.508494054093912
30
0
10
12.468845526079695
20
11.727640992587537
30
0
10
12.371425320736828
20
11.929372362002443
30
0
10
12.143306285231485
20
12.113687397694115
30
0
0
SPLINE
5
4B9
330
3AD
100
AcDbEntity
100
AcDbSpline
8
Layer_0
210
0
220
0
230
1
70
8
71
3
72
8
73
4
74
0
42
1e-7
43
1e-7
44
1e-10
40
0
40
0
40
0
40
0
40
1
40
1
40
1
40
1
10
12.143306285231485
20
12.113687397694115
30
0
10
12.004114888242363
20
12.226150907138608
30
0
10
11.807245452744136
20
12.290956542582455
30
0
10
11.5526979787368
20
12.308104304025655
30
0
0
SPLINE
5
4BA
330
3AD
100
AcDbEntity
100
AcDbSpline
8
Layer_0
210
0
220
0
230
1
70
8
71
3
72
8
73
4
74
0
42
1e-7
43
1e-7
44
1e-10
40
0
40
0
40
0
40
0
40
1
40
1
40
1
40
1
10
11.5526979787368
20
12.308104304025655
30
0
10
11.298150504729465
20
12.325252065468854
30
0
10
11.015224400477564
20
12.293435565061072
30
0
10
10.703919665981095
20
12.212654802802309
30
0
0
SPLINE
5
4BB
330
3AD
100
AcDbEntity
100
AcDbSpline
8
Layer_0
210
0
220
0
230
1
70
8
71
3
72
8
73
4
74
0
42
1e-7
43
1e-7
44
1e-10
40
0
40
0
40
0
40
0
40
1
40
1
40
1
40
1
10
10.703919665981095
20
12.212654802802309
30
0
10
10.392615175302897
20
12.131874224449502
30
0
10
10.080483829043942
20
12.000637145854471
30
0
10
9.767525627204234
20
11.818943567017213
30
0
0
SPLINE
5
4BC
330
3AD
100
AcDbEntity
100
AcDbSpline
8
Layer_0
210
0
220
0
230
1
70
8
71
3
72
8
73
4
74
0
42
1e-7
43
1e-7
44
1e-10
40
0
40
0
40
0
40
0
40
1
40
1
40
1
40
1
10
9.526495760523298
20
-10.652384513940127
30
0
10
9.469985784916034
20
-10.664731576191672
30
0
10
9.413715568533593
20
-10.691976716527922
30
0
10
9.357684798279703
20
-10.73412017044374
30
0
0
SPLINE
5
4BD
330
3AD
100
AcDbEntity
100
AcDbSpline
8
Layer_0
210
0
220
0
230
1
70
8
71
3
72
8
73
4
74
0
42
1e-7
43
1e-7
44
1e-10
40
0
40
0
40
0
40
0
40
1
40
1
40
1
40
1
10
9.357684798279703
20
-10.73412017044374
30
0
10
9.319163624161636
20
-10.763093809729293
30
0
10
9.272119711611778
20
-10.80807319994471
30
0
10
9.216553001756417
20
-10.869058262815923
30
0
0
SPLINE
5
4BE
330
3AD
100
AcDbEntity
100
AcDbSpline
8
Layer_0
210
0
220
0
230
1
70
8
71
3
72
8
73
4
74
0
42
1e-7
43
1e-7
44
1e-10
40
0
40
0
40
0
40
0
40
1
40
1
40
1
40
1
10
9.216553001756417
20
-10.869058262815923
30
0
10
9.160986455140195
20
-10.930043325462917
30
0
10
9.119659523575786
20
-10.989913348845336
30
0
10
9.092572207063187
20
-11.048668332963178
30
0
0
SPLINE
5
4BF
330
3AD
100
AcDbEntity
100
AcDbSpline
8
Layer_0
210
0
220
0
230
1
70
8
71
3
72
8
73
4
74
0
42
1e-7
43
1e-7
44
1e-10
40
0
40
0
40
0
40
0
40
1
40
1
40
1
40
1
10
9.092572207063187
20
-11.048668332963178
30
0
10
9.125499082436214
20
-11.413199426584196
30
0
10
9.150539170811868
20
-11.778179487831617
30
0
10
9.167692472190149
20
-12.143608516705434
30
0
0
SPLINE
5
4C0
330
3AD
100
AcDbEntity
100
AcDbSpline
8
Layer_0
210
0
220
0
230
1
70
8
71
3
72
8
73
4
74
0
42
1e-7
43
1e-7
44
1e-10
40
0
40
0
40
0
40
0
40
1
40
1
40
1
40
1
10
9.167692472190149
20
-12.143608516705434
30
0
10
9.18484577356843
20
-12.509037545579252
30
0
10
9.20835192262572
20
-12.87380052890625
30
0
10
9.23821091936202
20
-13.237897466686427
30
0
0
SPLINE
5
4C1
330
3AD
100
AcDbEntity
100
AcDbSpline
8
Layer_0
210
0
220
0
230
1
70
8
71
3
72
8
73
4
74
0
42
1e-7
43
1e-7
44
1e-10
40
0
40
0
40
0
40
0
40
1
40
1
40
1
40
1
10
9.23821091936202
20
-13.237897466686427
30
0
10
9.262802801423216
20
-13.537767621297357
30
0
10
9.30120541663441
20
-13.830038854115754
30
0
10
9.353418764995602
20
-14.11471116514162
30
0
0
SPLINE
5
4C2
330
3AD
100
AcDbEntity
100
AcDbSpline
8
Layer_0
210
0
220
0
230
1
70
8
71
3
72
8
73
4
74
0
42
1e-7
43
1e-7
44
1e-10
40
0
40
0
40
0
40
0
40
1
40
1
40
1
40
1
10
9.353418764995602
20
-14.11471116514162
30
0
10
9.296667107536296
20
-14.021907594268903
30
0
10
9.24101068253849
20
-13.92903764114623
30
0
10
9.186449490002188
20
-13.836101305773605
30
0
0
SPLINE
5
4C3
330
3AD
100
AcDbEntity
100
AcDbSpline
8
Layer_0
210
0
220
0
230
1
70
8
71
3
72
8
73
4
74
0
42
1e-7
43
1e-7
44
1e-10
40
0
40
0
40
0
40
0
40
1
40
1
40
1
40
1
10
9.186449490002188
20
-13.836101305773605
30
0
10
9.040189171252546
20
-13.586970686591151
30
0
10
8.900947589180594
20
-13.343526987288318
30
0
10
8.768725056882612
20
-13.105769972370242
30
0
0
SPLINE
5
4C4
330
3AD
100
AcDbEntity
100
AcDbSpline
8
Layer_0
210
0
220
0
230
1
70
8
71
3
72
8
73
4
74
0
42
1e-7
43
1e-7
44
1e-10
40
0
40
0
40
0
40
0
40
1
40
1
40
1
40
1
10
8.768725056882612
20
-13.105769972370242
30
0
10
8.63650264233206
20
-12.868013114000304
30
0
10
8.513723328547938
20
-12.646456409867248
30
0
10
8.400387859470232
20
-12.441099545529493
30
0
0
SPLINE
5
4C5
330
3AD
100
AcDbEntity
100
AcDbSpline
8
Layer_0
210
0
220
0
230
1
70
8
71
3
72
8
73
4
74
0
42
1e-7
43
1e-7
44
1e-10
40
0
40
0
40
0
40
0
40
1
40
1
40
1
40
1
10
8.400387859470232
20
-12.441099545529493
30
0
10
8.28705207729625
20
-12.235742916686599
30
0
10
8.182950298543556
20
-12.053597772192845
30
0
10
8.088082210115868
20
-11.894664347543094
30
0
0
SPLINE
5
4C6
330
3AD
100
AcDbEntity
100
AcDbSpline
8
Layer_0
210
0
220
0
230
1
70
8
71
3
72
8
73
4
74
0
42
1e-7
43
1e-7
44
1e-10
40
0
40
0
40
0
40
0
40
1
40
1
40
1
40
1
10
8.088082210115868
20
-11.894664347543094
30
0
10
7.993214434784456
20
-11.73573068739848
30
0
10
7.908905015130123
20
-11.607236920308342
30
0
10
7.83515395115287
20
-11.509183046272675
30
0
0
SPLINE
5
4C7
330
3AD
100
AcDbEntity
100
AcDbSpline
8
Layer_0
210
0
220
0
230
1
70
8
71
3
72
8
73
4
74
0
42
1e-7
43
1e-7
44
1e-10
40
0
40
0
40
0
40
0
40
1
40
1
40
1
40
1
10
7.83515395115287
20
-11.509183046272675
30
0
10
7.727161394648874
20
-11.36560425620263
30
0
10
7.614611799424904
20
-11.254239012350645
30
0
10
7.4975058358288
20
-11.17508690243255
30
0
0
SPLINE
5
4C8
330
3AD
100
AcDbEntity
100
AcDbSpline
8
Layer_0
210
0
220
0
230
1
70
8
71
3
72
8
73
4
74
0
42
1e-7
43
1e-7
44
1e-10
40
0
40
0
40
0
40
0
40
1
40
1
40
1
40
1
10
7.4975058358288
20
-11.17508690243255
30
0
10
7.380399544417991
20
-11.0959350084408
30
0
10
7.248882025672761
20
-11.05229626481775
30
0
10
7.102952638682128
20
-11.044171122984606
30
0
0
SPLINE
5
4C9
330
3AD
100
AcDbEntity
100
AcDbSpline
8
Layer_0
210
0
220
0
230
1
70
8
71
3
72
8
73
4
74
0
42
1e-7
43
1e-7
44
1e-10
40
0
40
0
40
0
40
0
40
1
40
1
40
1
40
1
10
7.102952638682128
20
-11.044171122984606
30
0
10
6.957023255371102
20
-11.036045986043591
30
0
10
6.7855107954692855
20
-11.064983044551397
30
0
10
6.58841463646373
20
-11.13098277438987
30
0
0
SPLINE
5
4CA
330
3AD
100
AcDbEntity
100
AcDbSpline
8
Layer_0
210
0
220
0
230
1
70
8
71
3
72
8
73
4
74
0
42
1e-7
43
1e-7
44
1e-10
40
0
40
0
40
0
40
0
40
1
40
1
40
1
40
1
10
6.58841463646373
20
-11.13098277438987
30
0
10
6.724362615104003
20
-11.209670549109376
30
0
10
6.8924269796595015
20
-11.382087731748465
30
0
10
7.092608356322778
20
-11.648233851317414
30
0
0
SPLINE
5
4CB
330
3AD
100
AcDbEntity
100
AcDbSpline
8
Layer_0
210
0
220
0
230
1
70
8
71
3
72
8
73
4
74
0
42
1e-7
43
1e-7
44
1e-10
40
0
40
0
40
0
40
0
40
1
40
1
40
1
40
1
10
7.092608356322778
20
-11.648233851317414
30
0
10
7.22167266922154
20
-11.81982806565144
30
0
10
7.361086132517092
20
-12.028873359649737
30
0
10
7.5108481200168775
20
-12.275370204302027
30
0
0
SPLINE
5
4CC
330
3AD
100
AcDbEntity
100
AcDbSpline
8
Layer_0
210
0
220
0
230
1
70
8
71
3
72
8
73
4
74
0
42
1e-7
43
1e-7
44
1e-10
40
0
40
0
40
0
40
0
40
1
40
1
40
1
40
1
10
7.5108481200168775
20
-12.275370204302027
30
0
10
7.660610479486655
20
-12.521866891733525
30
0
10
7.812804961507589
20
-12.78435412626633
30
0
10
7.967430998760845
20
-13.06283245716423
30
0
0
SPLINE
5
4CD
330
3AD
100
AcDbEntity
100
AcDbSpline
8
Layer_0
210
0
220
0
230
1
70
8
71
3
72
8
73
4
74
0
42
1e-7
43
1e-7
44
1e-10
40
0
40
0
40
0
40
0
40
1
40
1
40
1
40
1
10
7.967430998760845
20
-13.06283245716423
30
0
10
8.122057309861233
20
-13.341310500384557
30
0
10
8.272732645173228
20
-13.614535623017968
30
0
10
8.41945700469683
20
-13.882507825064462
30
0
0
SPLINE
5
4CE
330
3AD
100
AcDbEntity
100
AcDbSpline
8
Layer_0
210
0
220
0
230
1
70
8
71
3
72
8
73
4
74
0
42
1e-7
43
1e-7
44
1e-10
40
0
40
0
40
0
40
0
40
1
40
1
40
1
40
1
10
8.41945700469683
20
-13.882507825064462
30
0
10
8.566181560466147
20
-14.150480288024518
30
0
10
8.70191328448183
20
-14.391080528060195
30
0
10
8.826653078577307
20
-14.604309092417324
30
0
0
SPLINE
5
4CF
330
3AD
100
AcDbEntity
100
AcDbSpline
8
Layer_0
210
0
220
0
230
1
70
8
71
3
72
8
73
4
74
0
42
1e-7
43
1e-7
44
1e-10
40
0
40
0
40
0
40
0
40
1
40
1
40
1
40
1
10
8.826653078577307
20
-14.604309092417324
30
0
10
8.951392637177923
20
-14.817537343678177
30
0
10
9.05590583159334
20
-14.980182513858065
30
0
10
9.140192739424975
20
-15.092244054365848
30
0
0
SPLINE
5
4D0
330
3AD
100
AcDbEntity
100
AcDbSpline
8
Layer_0
210
0
220
0
230
1
70
8
71
3
72
8
73
4
74
0
42
1e-7
43
1e-7
44
1e-10
40
0
40
0
40
0
40
0
40
1
40
1
40
1
40
1
10
9.140192739424975
20
-15.092244054365848
30
0
10
9.208675822601322
20
-15.183294016891386
30
0
10
9.279545770085441
20
-15.257470413213804
30
0
10
9.352802659478751
20
-15.314772694741965
30
0
0
SPLINE
5
4D1
330
3AD
100
AcDbEntity
100
AcDbSpline
8
Layer_0
210
0
220
0
230
1
70
8
71
3
72
8
73
4
74
0
42
1e-7
43
1e-7
44
1e-10
40
0
40
0
40
0
40
0
40
1
40
1
40
1
40
1
10
9.352802659478751
20
-15.314772694741965
30
0
10
9.426059471270648
20
-15.372075524861263
30
0
10
9.503454059346808
20
-15.41118735292122
30
0
10
9.584986659202087
20
-15.432108492018113
30
0
0
SPLINE
5
4D2
330
3AD
100
AcDbEntity
100
AcDbSpline
8
Layer_0
210
0
220
0
230
1
70
8
71
3
72
8
73
4
74
0
42
1e-7
43
1e-7
44
1e-10
40
0
40
0
40
0
40
0
40
1
40
1
40
1
40
1
10
9.584986659202087
20
-15.432108492018113
30
0
10
9.66651949455223
20
-15.453029944211282
30
0
10
9.754157678621837
20
-15.452909333163676
30
0
10
9.847901917895497
20
-15.431747598164122
30
0
0
SPLINE
5
4D3
330
3AD
100
AcDbEntity
100
AcDbSpline
8
Layer_0
210
0
220
0
230
1
70
8
71
3
72
8
73
4
74
0
42
1e-7
43
1e-7
44
1e-10
40
0
40
0
40
0
40
0
40
1
40
1
40
1
40
1
10
9.847901917895497
20
-15.431747598164122
30
0
10
9.941645921674295
20
-15.410585550068292
30
0
10
10.043246892633631
20
-15.367064942164298
30
0
10
10.152704595278644
20
-15.30118546135586
30
0
0
SPLINE
5
4D4
330
3AD
100
AcDbEntity
100
AcDbSpline
8
Layer_0
210
0
220
0
230
1
70
8
71
3
72
8
73
4
74
0
42
1e-7
43
1e-7
44
1e-10
40
0
40
0
40
0
40
0
40
1
40
1
40
1
40
1
10
10.152704595278644
20
-15.30118546135586
30
0
10
10.04725563935118
20
-15.095379917069279
30
0
10
9.960169047552377
20
-14.85931370529804
30
0
10
9.89144536847337
20
-14.592986903643562
30
0
0
SPLINE
5
4D5
330
3AD
100
AcDbEntity
100
AcDbSpline
8
Layer_0
210
0
220
0
230
1
70
8
71
3
72
8
73
4
74
0
42
1e-7
43
1e-7
44
1e-10
40
0
40
0
40
0
40
0
40
1
40
1
40
1
40
1
10
9.89144536847337
20
-14.592986903643562
30
0
10
9.822721376298087
20
-14.326660337483943
30
0
10
9.76822228506348
20
-14.048263870404147
30
0
10
9.727947781673272
20
-13.757797737899036
30
0
0
SPLINE
5
4D6
330
3AD
100
AcDbEntity
100
AcDbSpline
8
Layer_0
210
0
220
0
230
1
70
8
71
3
72
8
73
4
74
0
42
1e-7
43
1e-7
44
1e-10
40
0
40
0
40
0
40
0
40
1
40
1
40
1
40
1
10
9.727947781673272
20
-13.757797737899036
30
0
10
9.687673355884478
20
-13.467331056802788
30
0
10
9.656161409024598
20
-13.175757329726588
30
0
10
9.63341147010391
20
-12.883075930477883
30
0
0
SPLINE
5
4D7
330
3AD
100
AcDbEntity
100
AcDbSpline
8
Layer_0
210
0
220
0
230
1
70
8
71
3
72
8
73
4
74
0
42
1e-7
43
1e-7
44
1e-10
40
0
40
0
40
0
40
0
40
1
40
1
40
1
40
1
10
9.63341147010391
20
-12.883075930477883
30
0
10
9.610661426817797
20
-12.590394609727465
30
0
10
9.593845462062124
20
-12.311070008917039
30
0
10
9.582963575836889
20
-12.045102128046608
30
0
0
SPLINE
5
4D8
330
3AD
100
AcDbEntity
100
AcDbSpline
8
Layer_0
210
0
220
0
230
1
70
8
71
3
72
8
73
4
74
0
42
1e-7
43
1e-7
44
1e-10
40
0
40
0
40
0
40
0
40
1
40
1
40
1
40
1
10
9.582963575836889
20
-12.045102128046608
30
0
10
9.572081898342505
20
-11.779134090179603
30
0
10
9.561237590396525
20
-11.540553114234982
30
0
10
9.550430651998946
20
-11.329359200212743
30
0
0
SPLINE
5
4D9
330
3AD
100
AcDbEntity
100
AcDbSpline
8
Layer_0
210
0
220
0
230
1
70
8
71
3
72
8
73
4
74
0
42
1e-7
43
1e-7
44
1e-10
40
0
40
0
40
0
40
0
40
1
40
1
40
1
40
1
10
9.550430651998946
20
-11.329359200212743
30
0
10
10.133731254025713
20
-11.696639819849956
30
0
10
10.620982407558301
20
-12.001828951667772
30
0
10
11.01218411259671
20
-12.244926595666184
30
0
0
SPLINE
5
4DA
330
3AD
100
AcDbEntity
100
AcDbSpline
8
Layer_0
210
0
220
0
230
1
70
8
71
3
72
8
73
4
74
0
42
1e-7
43
1e-7
44
1e-10
40
0
40
0
40
0
40
0
40
1
40
1
40
1
40
1
10
11.01218411259671
20
-12.244926595666184
30
0
10
11.403385817635119
20
-12.488024239664597
30
0
10
11.723089121303845
20
-12.677979779633818
30
0
10
11.971294023602889
20
-12.814793215573845
30
0
0
SPLINE
5
4DB
330
3AD
100
AcDbEntity
100
AcDbSpline
8
Layer_0
210
0
220
0
230
1
70
8
71
3
72
8
73
4
74
0
42
1e-7
43
1e-7
44
1e-10
40
0
40
0
40
0
40
0
40
1
40
1
40
1
40
1
10
11.971294023602889
20
-12.814793215573845
30
0
10
12.219498925901933
20
-12.951606651513872
30
0
10
12.419222508097633
20
-13.044009982440784
30
0
10
12.57046477018999
20
-13.092003208354578
30
0
0
SPLINE
5
4DC
330
3AD
100
AcDbEntity
100
AcDbSpline
8
Layer_0
210
0
220
0
230
1
70
8
71
3
72
8
73
4
74
0
42
1e-7
43
1e-7
44
1e-10
40
0
40
0
40
0
40
0
40
1
40
1
40
1
40
1
10
12.57046477018999
20
-13.092003208354578
30
0
10
12.721707137096208
20
-13.139996682248368
30
0
10
12.847485370203502
20
-13.152312461364254
30
0
10
12.947799469511875
20
-13.128950545702235
30
0
0
SPLINE
5
4DD
330
3AD
100
AcDbEntity
100
AcDbSpline
8
Layer_0
210
0
220
0
230
1
70
8
71
3
72
8
73
4
74
0
42
1e-7
43
1e-7
44
1e-10
40
0
40
0
40
0
40
0
40
1
40
1
40
1
40
1
10
12.947799469511875
20
-13.128950545702235
30
0
10
13.048113490546177
20
-13.105588688913931
30
0
10
13.147297267814693
20
-13.057031866373446
30
0
10
13.245351037484934
20
-12.98328088089448
30
0
0
SPLINE
5
4DE
330
3AD
100
AcDbEntity
100
AcDbSpline
8
Layer_0
210
0
220
0
230
1
70
8
71
3
72
8
73
4
74
0
42
1e-7
43
1e-7
44
1e-10
40
0
40
0
40
0
40
0
40
1
40
1
40
1
40
1
10
13.245351037484934
20
-12.98328088089448
30
0
10
13.273366422611879
20
-12.962209153936572
30
0
10
13.302683804944278
20
-12.931933654593347
30
0
10
13.333303184482132
20
-12.89245438286481
30
0
0
SPLINE
5
4DF
330
3AD
100
AcDbEntity
100
AcDbSpline
8
Layer_0
210
0
220
0
230
1
70
8
71
3
72
8
73
4
74
0
42
1e-7
43
1e-7
44
1e-10
40
0
40
0
40
0
40
0
40
1
40
1
40
1
40
1
10
13.333303184482132
20
-12.89245438286481
30
0
10
13.36392228938809
20
-12.852974827476855
30
0
10
13.38971527617423
20
-12.808901242033082
30
0
10
13.4106816347138
20
-12.760233029777797
30
0
0
SPLINE
5
4E0
330
3AD
100
AcDbEntity
100
AcDbSpline
8
Layer_0
210
0
220
0
230
1
70
8
71
3
72
8
73
4
74
0
42
1e-7
43
1e-7
44
1e-10
40
0
40
0
40
0
40
0
40
1
40
1
40
1
40
1
10
13.4106816347138
20
-12.760233029777797
30
0
10
13.43164799325337
20
-12.711564817522513
30
0
10
13.445602942733956
20
-12.662687077078376
30
0
10
13.452546718650423
20
-12.613600121541658
30
0
0
SPLINE
5
4E1
330
3AD
100
AcDbEntity
100
AcDbSpline
8
Layer_0
210
0
220
0
230
1
70
8
71
3
72
8
73
4
74
0
42
1e-7
43
1e-7
44
1e-10
40
0
40
0
40
0
40
0
40
1
40
1
40
1
40
1
10
13.452546718650423
20
-12.613600121541658
30
0
10
13.270957345121236
20
-12.597849290678658
30
0
10
13.065298364413088
20
-12.546652337489862
30
0
10
12.835569776525983
20
-12.460009261975266
30
0
0
SPLINE
5
4E2
330
3AD
100
AcDbEntity
100
AcDbSpline
8
Layer_0
210
0
220
0
230
1
70
8
71
3
72
8
73
4
74
0
42
1e-7
43
1e-7
44
1e-10
40
0
40
0
40
0
40
0
40
1
40
1
40
1
40
1
10
12.835569776525983
20
-12.460009261975266
30
0
10
12.826532568507083
20
-12.44821192128991
30
0
10
12.817390415272904
20
-12.436166045776652
30
0
10
12.808143003054514
20
-12.423871381212932
30
0
0
SPLINE
5
4E3
330
3AD
100
AcDbEntity
100
AcDbSpline
8
Layer_0
210
0
220
0
230
1
70
8
71
3
72
8
73
4
74
0
42
1e-7
43
1e-7
44
1e-10
40
0
40
0
40
0
40
0
40
1
40
1
40
1
40
1
10
12.808143003054514
20
-12.423871381212932
30
0
10
12.694882455937325
20
-12.273288666587082
30
0
10
12.568205026746691
20
-12.08482074890215
30
0
10
12.428110637208542
20
-11.858467687031855
30
0
0
SPLINE
5
4E4
330
3AD
100
AcDbEntity
100
AcDbSpline
8
Layer_0
210
0
220
0
230
1
70
8
71
3
72
8
73
4
74
0
42
1e-7
43
1e-7
44
1e-10
40
0
40
0
40
0
40
0
40
1
40
1
40
1
40
1
10
12.428110637208542
20
-11.858467687031855
30
0
10
12.288016325944461
20
-11.632114566287845
30
0
10
12.144831487297392
20
-11.388895206959422
30
0
10
11.99855616074069
20
-11.128809824468444
30
0
0
SPLINE
5
4E5
330
3AD
100
AcDbEntity
100
AcDbSpline
8
Layer_0
210
0
220
0
230
1
70
8
71
3
72
8
73
4
74
0
42
1e-7
43
1e-7
44
1e-10
40
0
40
0
40
0
40
0
40
1
40
1
40
1
40
1
10
11.99855616074069
20
-11.128809824468444
30
0
10
11.852280873433134
20
-10.868724494160178
30
0
10
11.708856490983091
20
-10.61060701727369
30
0
10
11.568283013390564
20
-10.354457393808978
30
0
0
SPLINE
5
4E6
330
3AD
100
AcDbEntity
100
AcDbSpline
8
Layer_0
210
0
220
0
230
1
70
8
71
3
72
8
73
4
74
0
42
1e-7
43
1e-7
44
1e-10
40
0
40
0
40
0
40
0
40
1
40
1
40
1
40
1
10
11.568283013390564
20
-10.354457393808978
30
0
10
11.42770950970668
20
-10.098307789968839
30
0
10
11.297454902637758
20
-9.857699857035461
30
0
10
11.1775191921838
20
-9.632633595008846
30
0
0
SPLINE
5
4E7
330
3AD
100
AcDbEntity
100
AcDbSpline
8
Layer_0
210
0
220
0
230
1
70
8
71
3
72
8
73
4
74
0
42
1e-7
43
1e-7
44
1e-10
40
0
40
0
40
0
40
0
40
1
40
1
40
1
40
1
10
11.1775191921838
20
-9.632633595008846
30
0
10
11.057583534136771
20
-9.407567456972227
30
0
10
10.95588364701137
20
-9.219503454055662
30
0
10
10.872419530807598
20
-9.068441586259151
30
0
0
SPLINE
5
4E8
330
3AD
100
AcDbEntity
100
AcDbSpline
8
Layer_0
210
0
220
0
230
1
70
8
71
3
72
8
73
4
74
0
42
1e-7
43
1e-7
44
1e-10
40
0
40
0
40
0
40
0
40
1
40
1
40
1
40
1
10
10.872419530807598
20
-9.068441586259151
30
0
10
10.788955463665255
20
-8.91737978369103
30
0
10
10.73010263488139
20
-8.819086440780962
30
0
10
10.69586106385636
20
-8.773561420381158
30
0
0
SPLINE
5
4E9
330
3AD
100
AcDbEntity
100
AcDbSpline
8
Layer_0
210
0
220
0
230
1
70
8
71
3
72
8
73
4
74
0
42
1e-7
43
1e-7
44
1e-10
40
0
40
0
40
0
40
0
40
1
40
1
40
1
40
1
10
10.69586106385636
20
-8.773561420381158
30
0
10
10.661619522268186
20
-8.728036439118389
30
0
10
10.620381677438841
20
-8.693256741812501
30
0
10
10.572147480531111
20
-8.669222426474244
30
0
0
SPLINE
5
4EA
330
3AD
100
AcDbEntity
100
AcDbSpline
8
Layer_0
210
0
220
0
230
1
70
8
71
3
72
8
73
4
74
0
42
1e-7
43
1e-7
44
1e-10
40
0
40
0
40
0
40
0
40
1
40
1
40
1
40
1
10
10.572147480531111
20
-8.669222426474244
30
0
10
10.523913237907454
20
-8.645188104669202
30
0
10
10.466931762334092
20
-8.633216071749475
30
0
10
10.401203053811024
20
-8.633306327715058
30
0
0
SPLINE
5
4EB
330
3AD
100
AcDbEntity
100
AcDbSpline
8
Layer_0
210
0
220
0
230
1
70
8
71
3
72
8
73
4
74
0
42
1e-7
43
1e-7
44
1e-10
40
0
40
0
40
0
40
0
40
1
40
1
40
1
40
1
10
10.401203053811024
20
-8.633306327715058
30
0
10
10.335474285746029
20
-8.633396613145527
30
0
10
10.261005769902718
20
-8.651026598524401
30
0
10
10.177797506281088
20
-8.68619628385168
30
0
0
SPLINE
5
4EC
330
3AD
100
AcDbEntity
100
AcDbSpline
8
Layer_0
210
0
220
0
230
1
70
8
71
3
72
8
73
4
74
0
42
1e-7
43
1e-7
44
1e-10
40
0
40
0
40
0
40
0
40
1
40
1
40
1
40
1
10
10.177797506281088
20
-8.68619628385168
30
0
10
10.094589190476746
20
-8.721366008428102
30
0
10
10.002207156816244
20
-8.777143368468309
30
0
10
9.900651405299582
20
-8.8535283639723
30
0
0
SPLINE
5
4ED
330
3AD
100
AcDbEntity
100
AcDbSpline
8
Layer_0
210
0
220
0
230
1
70
8
71
3
72
8
73
4
74
0
42
1e-7
43
1e-7
44
1e-10
40
0
40
0
40
0
40
0
40
1
40
1
40
1
40
1
10
9.900651405299582
20
-8.8535283639723
30
0
10
9.956832697181559
20
-8.92093280698038
30
0
10
10.015206385506337
20
-8.989429763034225
30
0
10
10.07577254854798
20
-9.059019173260118
30
0
0
SPLINE
5
4EE
330
3AD
100
AcDbEntity
100
AcDbSpline
8
Layer_0
210
0
220
0
230
1
70
8
71
3
72
8
73
4
74
0
42
1e-7
43
1e-7
44
1e-10
40
0
40
0
40
0
40
0
40
1
40
1
40
1
40
1
10
10.07577254854798
20
-9.059019173260118
30
0
10
10.136338648033982
20
-9.128608661928244
30
0
10
10.194278417683307
20
-9.200173540367707
30
0
10
10.249591686229389
20
-9.273713906757422
30
0
0
SPLINE
5
4EF
330
3AD
100
AcDbEntity
100
AcDbSpline
8
Layer_0
210
0
220
0
230
1
70
8
71
3
72
8
73
4
74
0
42
1e-7
43
1e-7
44
1e-10
40
0
40
0
40
0
40
0
40
1
40
1
40
1
40
1
10
10.249591686229389
20
-9.273713906757422
30
0
10
10.547229814791422
20
-9.669431202107013
30
0
10
10.806084605674576
20
-10.062791649099276
30
0
10
11.026156058878849
20
-10.453795247734206
30
0
0
SPLINE
5
4F0
330
3AD
100
AcDbEntity
100
AcDbSpline
8
Layer_0
210
0
220
0
230
1
70
8
71
3
72
8
73
4
74
0
42
1e-7
43
1e-7
44
1e-10
40
0
40
0
40
0
40
0
40
1
40
1
40
1
40
1
10
11.026156058878849
20
-10.453795247734206
30
0
10
11.246227590581409
20
-10.844798950734562
30
0
10
11.453346320233624
20
-11.216759085722588
30
0
10
11.647512247835497
20
-11.569675652698287
30
0
0
SPLINE
5
4F1
330
3AD
100
AcDbEntity
100
AcDbSpline
8
Layer_0
210
0
220
0
230
1
70
8
71
3
72
8
73
4
74
0
42
1e-7
43
1e-7
44
1e-10
40
0
40
0
40
0
40
0
40
1
40
1
40
1
40
1
10
11.647512247835497
20
-11.569675652698287
30
0
10
11.734928091749401
20
-11.728562976227174
30
0
10
11.824288205043429
20
-11.880430912084028
30
0
10
11.91559258771758
20
-12.025279460268852
30
0
0
SPLINE
5
4F2
330
3AD
100
AcDbEntity
100
AcDbSpline
8
Layer_0
210
0
220
0
230
1
70
8
71
3
72
8
73
4
74
0
42
1e-7
43
1e-7
44
1e-10
40
0
40
0
40
0
40
0
40
1
40
1
40
1
40
1
10
11.91559258771758
20
-12.025279460268852
30
0
10
11.837100814963565
20
-11.982930233527906
30
0
10
11.757528988952851
20
-11.938844205648937
30
0
10
11.676877109685435
20
-11.89302137663195
30
0
0
SPLINE
5
4F3
330
3AD
100
AcDbEntity
100
AcDbSpline
8
Layer_0
210
0
220
0
230
1
70
8
71
3
72
8
73
4
74
0
42
1e-7
43
1e-7
44
1e-10
40
0
40
0
40
0
40
0
40
1
40
1
40
1
40
1
10
11.676877109685435
20
-11.89302137663195
30
0
10
11.332188707865233
20
-11.697184579489244
30
0
10
10.985075863458004
20
-11.490834443623854
30
0
10
10.635538576463746
20
-11.273970969035771
30
0
0
SPLINE
5
4F4
330
3AD
100
AcDbEntity
100
AcDbSpline
8
Layer_0
210
0
220
0
230
1
70
8
71
3
72
8
73
4
74
0
42
1e-7
43
1e-7
44
1e-10
40
0
40
0
40
0
40
0
40
1
40
1
40
1
40
1
10
10.635538576463746
20
-11.273970969035771
30
0
10
10.286001289469489
20
-11.057107494447688
30
0
10
9.955979108810373
20
-10.851610309663062
30
0
10
9.645472034486398
20
-10.657479414681891
30
0
0
SPLINE
5
4F5
330
3AD
100
AcDbEntity
100
AcDbSpline
8
Layer_0
210
0
220
0
230
1
70
8
71
3
72
8
73
4
74
0
42
1e-7
43
1e-7
44
1e-10
40
0
40
0
40
0
40
0
40
1
40
1
40
1
40
1
10
9.645472034486398
20
-10.657479414681891
30
0
10
9.622664461560122
20
-10.641735817276336
30
0
10
9.583005579582425
20
-10.640037569436013
30
0
10
9.526495760523298
20
-10.652384513940127
30
0
0
LINE
5
4F6
330
3AD
100
AcDbEntity
100
AcDbLine
8
Layer_0
10
4.357275708026547
20
-13.427696487043345
30
0
11
4.3095881431127605
21
-13.431651706992888
31
0
0
SPLINE
5
4F7
330
3AD
100
AcDbEntity
100
AcDbSpline
8
Layer_0
210
0
220
0
230
1
70
8
71
3
72
8
73
4
74
0
42
1e-7
43
1e-7
44
1e-10
40
0
40
0
40
0
40
0
40
1
40
1
40
1
40
1
10
4.3095881431127605
20
-13.431651706992888
30
0
10
4.307495638851432
20
-13.413706193206263
30
0
10
4.303740575843365
20
-13.397559464939246
30
0
10
4.298322770831028
20
-13.383211591390493
30
0
0
LINE
5
4F8
330
3AD
100
AcDbEntity
100
AcDbLine
8
Layer_0
10
4.298322770831028
20
-13.383211591390493
30
0
11
4.271620670057139
21
-13.312496908134557
31
0
0
SPLINE
5
4F9
330
3AD
100
AcDbEntity
100
AcDbSpline
8
Layer_0
210
0
220
0
230
1
70
8
71
3
72
8
73
4
74
0
42
1e-7
43
1e-7
44
1e-10
40
0
40
0
40
0
40
0
40
1
40
1
40
1
40
1
10
4.271620670057139
20
-13.312496908134557
30
0
10
4.14314099501324
20
-12.972246543472654
30
0
10
3.98822879435036
20
-12.73565546696466
30
0
10
3.80688368857869
20
-12.602723782647105
30
0
0
SPLINE
5
4FA
330
3AD
100
AcDbEntity
100
AcDbSpline
8
Layer_0
210
0
220
0
230
1
70
8
71
3
72
8
73
4
74
0
42
1e-7
43
1e-7
44
1e-10
40
0
40
0
40
0
40
0
40
1
40
1
40
1
40
1
10
3.80688368857869
20
-12.602723782647105
30
0
10
3.625538825708757
20
-12.46979200224681
30
0
10
3.3936238614236185
20
-12.426214337057301
30
0
10
3.1111387957232735
20
-12.47199078707858
30
0
0
SPLINE
5
4FB
330
3AD
100
AcDbEntity
100
AcDbSpline
8
Layer_0
210
0
220
0
230
1
70
8
71
3
72
8
73
4
74
0
42
1e-7
43
1e-7
44
1e-10
40
0
40
0
40
0
40
0
40
1
40
1
40
1
40
1
10
3.1111387957232735
20
-12.47199078707858
30
0
10
3.241198297391352
20
-12.605552443090014
30
0
10
3.3445693895220177
20
-12.730456094449973
30
0
10
3.4212516991128337
20
-12.84670186237538
30
0
0
SPLINE
5
4FC
330
3AD
100
AcDbEntity
100
AcDbSpline
8
Layer_0
210
0
220
0
230
1
70
8
71
3
72
8
73
4
74
0
42
1e-7
43
1e-7
44
1e-10
40
0
40
0
40
0
40
0
40
1
40
1
40
1
40
1
10
3.4212516991128337
20
-12.84670186237538
30
0
10
3.4979340087036497
20
-12.962947630300786
30
0
10
3.5695556745797434
20
-13.10920778979438
30
0
10
3.636117429771242
20
-13.28548206406154
30
0
0
SPLINE
5
4FD
330
3AD
100
AcDbEntity
100
AcDbSpline
8
Layer_0
210
0
220
0
230
1
70
8
71
3
72
8
73
4
74
0
42
1e-7
43
1e-7
44
1e-10
40
0
40
0
40
0
40
0
40
1
40
1
40
1
40
1
10
3.636117429771242
20
-13.28548206406154
30
0
10
3.7212545436187967
20
-13.51094911963274
30
0
10
3.791792903145141
20
-13.744270709193449
30
0
10
3.8477325083502745
20
-13.98544683274367
30
0
0
SPLINE
5
4FE
330
3AD
100
AcDbEntity
100
AcDbSpline
8
Layer_0
210
0
220
0
230
1
70
8
71
3
72
8
73
4
74
0
42
1e-7
43
1e-7
44
1e-10
40
0
40
0
40
0
40
0
40
1
40
1
40
1
40
1
10
3.8477325083502745
20
-13.98544683274367
30
0
10
3.903672113555408
20
-14.22662295629389
30
0
10
3.951642312914583
20
-14.459098376336309
30
0
10
3.991643611340175
20
-14.682873320988676
30
0
0
SPLINE
5
4FF
330
3AD
100
AcDbEntity
100
AcDbSpline
8
Layer_0
210
0
220
0
230
1
70
8
71
3
72
8
73
4
74
0
42
1e-7
43
1e-7
44
1e-10
40
0
40
0
40
0
40
0
40
1
40
1
40
1
40
1
10
3.991643611340175
20
-14.682873320988676
30
0
10
4.031644543250705
20
-14.906648404038357
30
0
10
4.069029921728897
20
-15.107991382605425
30
0
10
4.1038002516871295
20
-15.28690248480763
30
0
0
SPLINE
5
500
330
3AD
100
AcDbEntity
100
AcDbSpline
8
Layer_0
210
0
220
0
230
1
70
8
71
3
72
8
73
4
74
0
42
1e-7
43
1e-7
44
1e-10
40
0
40
0
40
0
40
0
40
1
40
1
40
1
40
1
10
4.1038002516871295
20
-15.28690248480763
30
0
10
4.13857019206408
20
-15.465813664321304
30
0
10
4.1760784775547535
20
-15.608561460549243
30
0
10
4.2163251081591495
20
-15.715145873491444
30
0
0
SPLINE
5
501
330
3AD
100
AcDbEntity
100
AcDbSpline
8
Layer_0
210
0
220
0
230
1
70
8
71
3
72
8
73
4
74
0
42
1e-7
43
1e-7
44
1e-10
40
0
40
0
40
0
40
0
40
1
40
1
40
1
40
1
10
4.2163251081591495
20
-15.715145873491444
30
0
10
4.27824302801155
20
-15.87912196388619
30
0
10
4.369524143822569
20
-15.98751333526523
30
0
10
4.490168019878487
20
-16.040319942768356
30
0
0
SPLINE
5
502
330
3AD
100
AcDbEntity
100
AcDbSpline
8
Layer_0
210
0
220
0
230
1
70
8
71
3
72
8
73
4
74
0
42
1e-7
43
1e-7
44
1e-10
40
0
40
0
40
0
40
0
40
1
40
1
40
1
40
1
10
4.490168019878487
20
-16.040319942768356
30
0
10
4.610812262449468
20
-16.093126411874167
30
0
10
4.755171820338099
20
-16.087796620068424
30
0
10
4.923247198456755
20
-16.024330795468874
30
0
0
SPLINE
5
503
330
3AD
100
AcDbEntity
100
AcDbSpline
8
Layer_0
210
0
220
0
230
1
70
8
71
3
72
8
73
4
74
0
42
1e-7
43
1e-7
44
1e-10
40
0
40
0
40
0
40
0
40
1
40
1
40
1
40
1
10
4.923247198456755
20
-16.024330795468874
30
0
10
4.951943128811792
20
-16.013495116245544
30
0
10
4.982301652512898
20
-16.000860743131373
30
0
10
5.0143229528176
20
-15.986427606927702
30
0
0
SPLINE
5
504
330
3AD
100
AcDbEntity
100
AcDbSpline
8
Layer_0
210
0
220
0
230
1
70
8
71
3
72
8
73
4
74
0
42
1e-7
43
1e-7
44
1e-10
40
0
40
0
40
0
40
0
40
1
40
1
40
1
40
1
10
5.0143229528176
20
-15.986427606927702
30
0
10
5.046344114724989
20
-15.971994104208969
30
0
10
5.082077605469167
20
-15.95498792062649
30
0
10
5.121523929962509
20
-15.935409284298018
30
0
0
SPLINE
5
505
330
3AD
100
AcDbEntity
100
AcDbSpline
8
Layer_0
210
0
220
0
230
1
70
8
71
3
72
8
73
4
74
0
42
1e-7
43
1e-7
44
1e-10
40
0
40
0
40
0
40
0
40
1
40
1
40
1
40
1
10
5.121523929962509
20
-15.935409284298018
30
0
10
5.07261933002159
20
-15.855513686332536
30
0
10
5.022783320337572
20
-15.760746925360326
30
0
10
4.972016039307769
20
-15.651109367896447
30
0
0
SPLINE
5
506
330
3AD
100
AcDbEntity
100
AcDbSpline
8
Layer_0
210
0
220
0
230
1
70
8
71
3
72
8
73
4
74
0
42
1e-7
43
1e-7
44
1e-10
40
0
40
0
40
0
40
0
40
1
40
1
40
1
40
1
10
4.972016039307769
20
-15.651109367896447
30
0
10
4.921248619880652
20
-15.541471443917507
30
0
10
4.875741572434786
20
-15.433360493313796
30
0
10
4.83549494183039
20
-15.326776080371594
30
0
0
SPLINE
5
507
330
3AD
100
AcDbEntity
100
AcDbSpline
8
Layer_0
210
0
220
0
230
1
70
8
71
3
72
8
73
4
74
0
42
1e-7
43
1e-7
44
1e-10
40
0
40
0
40
0
40
0
40
1
40
1
40
1
40
1
10
4.83549494183039
20
-15.326776080371594
30
0
10
4.717850905643939
20
-15.0152215391645
30
0
10
4.639308693712577
20
-14.701782819498382
30
0
10
4.599868306036306
20
-14.38645992137324
30
0
0
SPLINE
5
508
330
3AD
100
AcDbEntity
100
AcDbSpline
8
Layer_0
210
0
220
0
230
1
70
8
71
3
72
8
73
4
74
0
42
1e-7
43
1e-7
44
1e-10
40
0
40
0
40
0
40
0
40
1
40
1
40
1
40
1
10
4.599868306036306
20
-14.38645992137324
30
0
10
4.560427773122129
20
-14.07113700829469
30
0
10
4.55924298251711
20
-13.77649793916308
30
0
10
4.59631393422125
20
-13.502542713978414
30
0
0
SPLINE
5
509
330
3AD
100
AcDbEntity
100
AcDbSpline
8
Layer_0
210
0
220
0
230
1
70
8
71
3
72
8
73
4
74
0
42
1e-7
43
1e-7
44
1e-10
40
0
40
0
40
0
40
0
40
1
40
1
40
1
40
1
10
4.59631393422125
20
-13.502542713978414
30
0
10
4.6333847637537025
20
-13.228587534926184
30
0
10
4.702605165303351
20
-12.996357630320102
30
0
10
4.803974703156475
20
-12.805852955299946
30
0
0
SPLINE
5
50A
330
3AD
100
AcDbEntity
100
AcDbSpline
8
Layer_0
210
0
220
0
230
1
70
8
71
3
72
8
73
4
74
0
42
1e-7
43
1e-7
44
1e-10
40
0
40
0
40
0
40
0
40
1
40
1
40
1
40
1
10
4.803974703156475
20
-12.805852955299946
30
0
10
4.905344264075818
20
-12.615348341365634
30
0
10
5.040066764137739
20
-12.488363110565592
30
0
10
5.2081422033422395
20
-12.424897262899822
30
0
0
SPLINE
5
50B
330
3AD
100
AcDbEntity
100
AcDbSpline
8
Layer_0
210
0
220
0
230
1
70
8
71
3
72
8
73
4
74
0
42
1e-7
43
1e-7
44
1e-10
40
0
40
0
40
0
40
0
40
1
40
1
40
1
40
1
10
5.2081422033422395
20
-12.424897262899822
30
0
10
5.368018822755541
20
-12.364527316993229
30
0
10
5.516155097793395
20
-12.384704163707523
30
0
10
5.65255081059894
20
-12.485427780612596
30
0
0
SPLINE
5
50C
330
3AD
100
AcDbEntity
100
AcDbSpline
8
Layer_0
210
0
220
0
230
1
70
8
71
3
72
8
73
4
74
0
42
1e-7
43
1e-7
44
1e-10
40
0
40
0
40
0
40
0
40
1
40
1
40
1
40
1
10
5.65255081059894
20
-12.485427780612596
30
0
10
5.788946534937594
20
-12.586151428060592
30
0
10
5.904356806669461
20
-12.761545009256986
30
0
10
5.99878162579454
20
-13.011608524201781
30
0
0
SPLINE
5
50D
330
3AD
100
AcDbEntity
100
AcDbSpline
8
Layer_0
210
0
220
0
230
1
70
8
71
3
72
8
73
4
74
0
42
1e-7
43
1e-7
44
1e-10
40
0
40
0
40
0
40
0
40
1
40
1
40
1
40
1
10
5.99878162579454
20
-13.011608524201781
30
0
10
6.093206444919619
20
-13.261672039146577
30
0
10
6.146092813974309
20
-13.51336884772153
30
0
10
6.1574406413298455
20
-13.766698984525975
30
0
0
SPLINE
5
50E
330
3AD
100
AcDbEntity
100
AcDbSpline
8
Layer_0
210
0
220
0
230
1
70
8
71
3
72
8
73
4
74
0
42
1e-7
43
1e-7
44
1e-10
40
0
40
0
40
0
40
0
40
1
40
1
40
1
40
1
10
6.1574406413298455
20
-13.766698984525975
30
0
10
6.168788583380366
20
-14.020029147816935
30
0
10
6.142676095104241
20
-14.264084888207245
30
0
10
6.079103176501467
20
-14.498866205696903
30
0
0
SPLINE
5
50F
330
3AD
100
AcDbEntity
100
AcDbSpline
8
Layer_0
210
0
220
0
230
1
70
8
71
3
72
8
73
4
74
0
42
1e-7
43
1e-7
44
1e-10
40
0
40
0
40
0
40
0
40
1
40
1
40
1
40
1
10
6.079103176501467
20
-14.498866205696903
30
0
10
6.015530304031131
20
-14.733647645358248
30
0
10
5.915249628598114
20
-14.95184462042533
30
0
10
5.778261150202416
20
-15.153457130898147
30
0
0
SPLINE
5
510
330
3AD
100
AcDbEntity
100
AcDbSpline
8
Layer_0
210
0
220
0
230
1
70
8
71
3
72
8
73
4
74
0
42
1e-7
43
1e-7
44
1e-10
40
0
40
0
40
0
40
0
40
1
40
1
40
1
40
1
10
5.778261150202416
20
-15.153457130898147
30
0
10
5.641272655581093
20
-15.355069228723464
30
0
10
5.472156239663434
20
-15.524316138136484
30
0
10
5.270911902449438
20
-15.661197859137209
30
0
0
SPLINE
5
511
330
3AD
100
AcDbEntity
100
AcDbSpline
8
Layer_0
210
0
220
0
230
1
70
8
71
3
72
8
73
4
74
0
42
1e-7
43
1e-7
44
1e-10
40
0
40
0
40
0
40
0
40
1
40
1
40
1
40
1
10
5.270911902449438
20
-15.661197859137209
30
0
10
5.380133235909615
20
-15.652743037580807
30
0
10
5.476397086169227
20
-15.640983915843972
30
0
10
5.5597035916255875
20
-15.625920860441768
30
0
0
SPLINE
5
512
330
3AD
100
AcDbEntity
100
AcDbSpline
8
Layer_0
210
0
220
0
230
1
70
8
71
3
72
8
73
4
74
0
42
1e-7
43
1e-7
44
1e-10
40
0
40
0
40
0
40
0
40
1
40
1
40
1
40
1
10
5.5597035916255875
20
-15.625920860441768
30
0
10
5.643010097081948
20
-15.610857805039565
30
0
10
5.719508142552377
20
-15.590168557736877
30
0
10
5.789197866434186
20
-15.563853485048767
30
0
0
SPLINE
5
513
330
3AD
100
AcDbEntity
100
AcDbSpline
8
Layer_0
210
0
220
0
230
1
70
8
71
3
72
8
73
4
74
0
42
1e-7
43
1e-7
44
1e-10
40
0
40
0
40
0
40
0
40
1
40
1
40
1
40
1
10
5.789197866434186
20
-15.563853485048767
30
0
10
6.022863863968272
20
-15.4756204233096
30
0
10
6.220123395733523
20
-15.334388633554084
30
0
10
6.380977058271082
20
-15.140158309300642
30
0
0
SPLINE
5
514
330
3AD
100
AcDbEntity
100
AcDbSpline
8
Layer_0
210
0
220
0
230
1
70
8
71
3
72
8
73
4
74
0
42
1e-7
43
1e-7
44
1e-10
40
0
40
0
40
0
40
0
40
1
40
1
40
1
40
1
10
6.380977058271082
20
-15.140158309300642
30
0
10
6.541830675312313
20
-14.945928141818216
30
0
10
6.660422579141235
20
-14.717303966851286
30
0
10
6.736752769757849
20
-14.454285784399852
30
0
0
SPLINE
5
515
330
3AD
100
AcDbEntity
100
AcDbSpline
8
Layer_0
210
0
220
0
230
1
70
8
71
3
72
8
73
4
74
0
42
1e-7
43
1e-7
44
1e-10
40
0
40
0
40
0
40
0
40
1
40
1
40
1
40
1
10
6.736752769757849
20
-14.454285784399852
30
0
10
6.813082899288618
20
-14.191267625014637
30
0
10
6.8438472600880775
20
-13.90681298855196
30
0
10
6.829045852156227
20
-13.60092187501182
30
0
0
SPLINE
5
516
330
3AD
100
AcDbEntity
100
AcDbSpline
8
Layer_0
210
0
220
0
230
1
70
8
71
3
72
8
73
4
74
0
42
1e-7
43
1e-7
44
1e-10
40
0
40
0
40
0
40
0
40
1
40
1
40
1
40
1
10
6.829045852156227
20
-13.60092187501182
30
0
10
6.814244505628275
20
-13.295030877876814
30
0
10
6.748795789710867
20
-12.988357813653563
30
0
10
6.632699704404002
20
-12.680902682342069
30
0
0
SPLINE
5
517
330
3AD
100
AcDbEntity
100
AcDbSpline
8
Layer_0
210
0
220
0
230
1
70
8
71
3
72
8
73
4
74
0
42
1e-7
43
1e-7
44
1e-10
40
0
40
0
40
0
40
0
40
1
40
1
40
1
40
1
10
6.632699704404002
20
-12.680902682342069
30
0
10
6.4871925985174155
20
-12.29555888518588
30
0
10
6.297328634011028
20
-12.025326576837559
30
0
10
6.06310781088484
20
-11.870205757297112
30
0
0
SPLINE
5
518
330
3AD
100
AcDbEntity
100
AcDbSpline
8
Layer_0
210
0
220
0
230
1
70
8
71
3
72
8
73
4
74
0
42
1e-7
43
1e-7
44
1e-10
40
0
40
0
40
0
40
0
40
1
40
1
40
1
40
1
10
6.06310781088484
20
-11.870205757297112
30
0
10
5.82888699438028
20
-11.715084909082918
30
0
10
5.574446629511728
20
-11.689380735644017
30
0
10
5.299786716279183
20
-11.7930932369804
30
0
0
SPLINE
5
519
330
3AD
100
AcDbEntity
100
AcDbSpline
8
Layer_0
210
0
220
0
230
1
70
8
71
3
72
8
73
4
74
0
42
1e-7
43
1e-7
44
1e-10
40
0
40
0
40
0
40
0
40
1
40
1
40
1
40
1
10
5.299786716279183
20
-11.7930932369804
30
0
10
5.115313576406442
20
-11.862750911230737
30
0
10
4.952103456386071
20
-11.979415562406336
30
0
10
4.810156356218069
20
-12.143087190507197
30
0
0
SPLINE
5
51A
330
3AD
100
AcDbEntity
100
AcDbSpline
8
Layer_0
210
0
220
0
230
1
70
8
71
3
72
8
73
4
74
0
42
1e-7
43
1e-7
44
1e-10
40
0
40
0
40
0
40
0
40
1
40
1
40
1
40
1
10
4.810156356218069
20
-12.143087190507197
30
0
10
4.66820913387838
20
-12.306758864740496
30
0
10
4.5565910183979375
20
-12.501133369315818
30
0
10
4.47530200977674
20
-12.726210704233164
30
0
0
SPLINE
5
51B
330
3AD
100
AcDbEntity
100
AcDbSpline
8
Layer_0
210
0
220
0
230
1
70
8
71
3
72
8
73
4
74
0
42
1e-7
43
1e-7
44
1e-10
40
0
40
0
40
0
40
0
40
1
40
1
40
1
40
1
10
4.47530200977674
20
-12.726210704233164
30
0
10
4.394013117560676
20
-12.951287977746611
30
0
10
4.354671016977278
20
-13.185116572016673
30
0
10
4.357275708026547
20
-13.427696487043345
30
0
0
LINE
5
51C
330
3AD
100
AcDbEntity
100
AcDbLine
8
Layer_0
10
2.0471465008422527
20
-15.147880937581387
30
0
11
2.0870315008008573
21
-15.150655357860519
31
0
0
SPLINE
5
51D
330
3AD
100
AcDbEntity
100
AcDbSpline
8
Layer_0
210
0
220
0
230
1
70
8
71
3
72
8
73
4
74
0
42
1e-7
43
1e-7
44
1e-10
40
0
40
0
40
0
40
0
40
1
40
1
40
1
40
1
10
2.0870315008008573
20
-15.150655357860519
30
0
10
2.0827390015906095
20
-15.243510780089242
30
0
10
2.081508596167566
20
-15.333871184534289
30
0
10
2.0833402057546184
20
-15.421736775545583
30
0
0
SPLINE
5
51E
330
3AD
100
AcDbEntity
100
AcDbSpline
8
Layer_0
210
0
220
0
230
1
70
8
71
3
72
8
73
4
74
0
42
1e-7
43
1e-7
44
1e-10
40
0
40
0
40
0
40
0
40
1
40
1
40
1
40
1
10
2.0833402057546184
20
-15.421736775545583
30
0
10
2.0851717966233903
20
-15.5096021715661
30
0
10
2.0900654025022587
20
-15.59497275415286
30
0
10
2.09802108345005
20
-15.67784812396517
30
0
0
SPLINE
5
51F
330
3AD
100
AcDbEntity
100
AcDbSpline
8
Layer_0
210
0
220
0
230
1
70
8
71
3
72
8
73
4
74
0
42
1e-7
43
1e-7
44
1e-10
40
0
40
0
40
0
40
0
40
1
40
1
40
1
40
1
10
2.09802108345005
20
-15.67784812396517
30
0
10
2.122306910379531
20
-15.93083676204488
30
0
10
2.1916422609202657
20
-16.148686057051435
30
0
10
2.306027075013427
20
-16.331396408325524
30
0
0
SPLINE
5
520
330
3AD
100
AcDbEntity
100
AcDbSpline
8
Layer_0
210
0
220
0
230
1
70
8
71
3
72
8
73
4
74
0
42
1e-7
43
1e-7
44
1e-10
40
0
40
0
40
0
40
0
40
1
40
1
40
1
40
1
10
2.306027075013427
20
-16.331396408325524
30
0
10
2.4204120053202565
20
-16.51410694523125
30
0
10
2.6180564224161316
20
-16.647005190241273
30
0
10
2.898960326301053
20
-16.730091143355597
30
0
0
SPLINE
5
521
330
3AD
100
AcDbEntity
100
AcDbSpline
8
Layer_0
210
0
220
0
230
1
70
8
71
3
72
8
73
4
74
0
42
1e-7
43
1e-7
44
1e-10
40
0
40
0
40
0
40
0
40
1
40
1
40
1
40
1
10
2.898960326301053
20
-16.730091143355597
30
0
10
2.845048242740215
20
-16.581194073760184
30
0
10
2.8014127664353357
20
-16.424707480980132
30
0
10
2.768053897386416
20
-16.26063136501545
30
0
0
SPLINE
5
522
330
3AD
100
AcDbEntity
100
AcDbSpline
8
Layer_0
210
0
220
0
230
1
70
8
71
3
72
8
73
4
74
0
42
1e-7
43
1e-7
44
1e-10
40
0
40
0
40
0
40
0
40
1
40
1
40
1
40
1
10
2.768053897386416
20
-16.26063136501545
30
0
10
2.734695083324617
20
-16.09655530936812
30
0
10
2.7098505488996114
20
-15.92946084942089
30
0
10
2.693520440354483
20
-15.759347971135043
30
0
0
SPLINE
5
523
330
3AD
100
AcDbEntity
100
AcDbSpline
8
Layer_0
210
0
220
0
230
1
70
8
71
3
72
8
73
4
74
0
42
1e-7
43
1e-7
44
1e-10
40
0
40
0
40
0
40
0
40
1
40
1
40
1
40
1
10
2.693520440354483
20
-15.759347971135043
30
0
10
2.6725843807202807
20
-15.54125429744659
30
0
10
2.6648823519746148
20
-15.311985890918242
30
0
10
2.6704142004672553
20
-15.071542175936804
30
0
0
SPLINE
5
524
330
3AD
100
AcDbEntity
100
AcDbSpline
8
Layer_0
210
0
220
0
230
1
70
8
71
3
72
8
73
4
74
0
42
1e-7
43
1e-7
44
1e-10
40
0
40
0
40
0
40
0
40
1
40
1
40
1
40
1
10
2.6704142004672553
20
-15.071542175936804
30
0
10
2.6759460801570296
20
-14.831098785939993
30
0
10
2.6854821146542402
20
-14.597974463611424
30
0
10
2.699022303958886
20
-14.372169208951096
30
0
0
SPLINE
5
525
330
3AD
100
AcDbEntity
100
AcDbSpline
8
Layer_0
210
0
220
0
230
1
70
8
71
3
72
8
73
4
74
0
42
1e-7
43
1e-7
44
1e-10
40
0
40
0
40
0
40
0
40
1
40
1
40
1
40
1
10
2.699022303958886
20
-14.372169208951096
30
0
10
2.712562505742385
20
-14.146364084284619
30
0
10
2.7250295827233217
20
-13.943772815175324
30
0
10
2.736423534901697
20
-13.764395401623208
30
0
0
SPLINE
5
526
330
3AD
100
AcDbEntity
100
AcDbSpline
8
Layer_0
210
0
220
0
230
1
70
8
71
3
72
8
73
4
74
0
42
1e-7
43
1e-7
44
1e-10
40
0
40
0
40
0
40
0
40
1
40
1
40
1
40
1
10
2.736423534901697
20
-13.764395401623208
30
0
10
2.7478174870800722
20
-13.585017988071092
30
0
10
2.7489085323583233
20
-13.447348697132437
30
0
10
2.7396966707364503
20
-13.351387528807244
30
0
0
SPLINE
5
527
330
3AD
100
AcDbEntity
100
AcDbSpline
8
Layer_0
210
0
220
0
230
1
70
8
71
3
72
8
73
4
74
0
42
1e-7
43
1e-7
44
1e-10
40
0
40
0
40
0
40
0
40
1
40
1
40
1
40
1
10
2.7396966707364503
20
-13.351387528807244
30
0
10
2.7204355134681677
20
-13.150741532305199
30
0
10
2.657546688133182
20
-13.01151043823914
30
0
10
2.5510301947314926
20
-12.933694246609072
30
0
0
SPLINE
5
528
330
3AD
100
AcDbEntity
100
AcDbSpline
8
Layer_0
210
0
220
0
230
1
70
8
71
3
72
8
73
4
74
0
42
1e-7
43
1e-7
44
1e-10
40
0
40
0
40
0
40
0
40
1
40
1
40
1
40
1
10
2.5510301947314926
20
-12.933694246609072
30
0
10
2.444513735485614
20
-12.855878069124097
30
0
10
2.2974753093727047
20
-12.825972478037853
30
0
10
2.109914916392766
20
-12.843977473350334
30
0
0
SPLINE
5
529
330
3AD
100
AcDbEntity
100
AcDbSpline
8
Layer_0
210
0
220
0
230
1
70
8
71
3
72
8
73
4
74
0
42
1e-7
43
1e-7
44
1e-10
40
0
40
0
40
0
40
0
40
1
40
1
40
1
40
1
10
2.109914916392766
20
-12.843977473350334
30
0
10
2.0837436444491186
20
-12.84648980451694
30
0
10
2.0544056923785097
20
-12.850406638894505
30
0
10
2.0219010601809386
20
-12.855727976483028
30
0
0
SPLINE
5
52A
330
3AD
100
AcDbEntity
100
AcDbSpline
8
Layer_0
210
0
220
0
230
1
70
8
71
3
72
8
73
4
74
0
42
1e-7
43
1e-7
44
1e-10
40
0
40
0
40
0
40
0
40
1
40
1
40
1
40
1
10
2.0219010601809386
20
-12.855727976483028
30
0
10
1.9893964280808587
20
-12.861049315087127
30
0
10
1.9515440465475773
20
-12.867984530480852
30
0
10
1.9083441106449892
20
-12.876533604707605
30
0
0
SPLINE
5
52B
330
3AD
100
AcDbEntity
100
AcDbSpline
8
Layer_0
210
0
220
0
230
1
70
8
71
3
72
8
73
4
74
0
42
1e-7
43
1e-7
44
1e-10
40
0
40
0
40
0
40
0
40
1
40
1
40
1
40
1
10
1.9083441106449892
20
-12.876533604707605
30
0
10
1.9366783674888806
20
-12.988267335962613
30
0
10
1.958155733335074
20
-13.097357751994565
30
0
10
1.9727762081835702
20
-13.203804852803462
30
0
0
SPLINE
5
52C
330
3AD
100
AcDbEntity
100
AcDbSpline
8
Layer_0
210
0
220
0
230
1
70
8
71
3
72
8
73
4
74
0
42
1e-7
43
1e-7
44
1e-10
40
0
40
0
40
0
40
0
40
1
40
1
40
1
40
1
10
1.9727762081835702
20
-13.203804852803462
30
0
10
1.987396713190744
20
-13.310251926118797
30
0
10
1.9995223049289883
20
-13.413636969409328
30
0
10
2.0091528835631296
20
-13.513959967660352
30
0
0
SPLINE
5
52D
330
3AD
100
AcDbEntity
100
AcDbSpline
8
Layer_0
210
0
220
0
230
1
70
8
71
3
72
8
73
4
74
0
42
1e-7
43
1e-7
44
1e-10
40
0
40
0
40
0
40
0
40
1
40
1
40
1
40
1
10
2.0091528835631296
20
-13.513959967660352
30
0
10
2.0451628819873755
20
-13.889080834866386
30
0
10
2.0333233203842735
20
-14.235779449695649
30
0
10
1.9736341152971448
20
-14.55405596775036
30
0
0
SPLINE
5
52E
330
3AD
100
AcDbEntity
100
AcDbSpline
8
Layer_0
210
0
220
0
230
1
70
8
71
3
72
8
73
4
74
0
42
1e-7
43
1e-7
44
1e-10
40
0
40
0
40
0
40
0
40
1
40
1
40
1
40
1
10
1.9736341152971448
20
-14.55405596775036
30
0
10
1.9139449364690524
20
-14.872332417688433
30
0
10
1.826078291733407
20
-15.149293238947735
30
0
10
1.7100341810902087
20
-15.384938431528266
30
0
0
SPLINE
5
52F
330
3AD
100
AcDbEntity
100
AcDbSpline
8
Layer_0
210
0
220
0
230
1
70
8
71
3
72
8
73
4
74
0
42
1e-7
43
1e-7
44
1e-10
40
0
40
0
40
0
40
0
40
1
40
1
40
1
40
1
10
1.7100341810902087
20
-15.384938431528266
30
0
10
1.5939901104862289
20
-15.620583357881667
30
0
10
1.466483232892253
20
-15.805604539217118
30
0
10
1.3275135483082818
20
-15.94000197553461
30
0
0
SPLINE
5
530
330
3AD
100
AcDbEntity
100
AcDbSpline
8
Layer_0
210
0
220
0
230
1
70
8
71
3
72
8
73
4
74
0
42
1e-7
43
1e-7
44
1e-10
40
0
40
0
40
0
40
0
40
1
40
1
40
1
40
1
10
1.3275135483082818
20
-15.94000197553461
30
0
10
1.1885438387666036
20
-16.0743991518644
30
0
10
1.0579927662816473
20
-16.14746003246638
30
0
10
0.9358604884076289
20
-16.159184208640717
30
0
0
SPLINE
5
531
330
3AD
100
AcDbEntity
100
AcDbSpline
8
Layer_0
210
0
220
0
230
1
70
8
71
3
72
8
73
4
74
0
42
1e-7
43
1e-7
44
1e-10
40
0
40
0
40
0
40
0
40
1
40
1
40
1
40
1
10
0.9358604884076289
20
-16.159184208640717
30
0
10
0.7613856664513337
20
-16.17593304511711
30
0
10
0.6603303608654183
20
-16.040365671478963
30
0
10
0.6326947853589391
20
-15.752482263998768
30
0
0
SPLINE
5
532
330
3AD
100
AcDbEntity
100
AcDbSpline
8
Layer_0
210
0
220
0
230
1
70
8
71
3
72
8
73
4
74
0
42
1e-7
43
1e-7
44
1e-10
40
0
40
0
40
0
40
0
40
1
40
1
40
1
40
1
10
0.6326947853589391
20
-15.752482263998768
30
0
10
0.6167833985056487
20
-15.586731264386446
30
0
10
0.6130155191867216
20
-15.409909823935486
30
0
10
0.6213911474021576
20
-15.222017942645891
30
0
0
SPLINE
5
533
330
3AD
100
AcDbEntity
100
AcDbSpline
8
Layer_0
210
0
220
0
230
1
70
8
71
3
72
8
73
4
74
0
42
1e-7
43
1e-7
44
1e-10
40
0
40
0
40
0
40
0
40
1
40
1
40
1
40
1
10
0.6213911474021576
20
-15.222017942645891
30
0
10
0.6297667818570204
20
-15.034126126353222
30
0
10
0.6425041837098351
20
-14.845815795838345
30
0
10
0.6596035105148186
20
-14.657086542401426
30
0
0
SPLINE
5
534
330
3AD
100
AcDbEntity
100
AcDbSpline
8
Layer_0
210
0
220
0
230
1
70
8
71
3
72
8
73
4
74
0
42
1e-7
43
1e-7
44
1e-10
40
0
40
0
40
0
40
0
40
1
40
1
40
1
40
1
10
0.6596035105148186
20
-14.657086542401426
30
0
10
0.6767028279606618
20
-14.468357191469119
30
0
10
0.690277657598587
20
-14.288770455808974
30
0
10
0.7003281757010891
20
-14.118326121711934
30
0
0
SPLINE
5
535
330
3AD
100
AcDbEntity
100
AcDbSpline
8
Layer_0
210
0
220
0
230
1
70
8
71
3
72
8
73
4
74
0
42
1e-7
43
1e-7
44
1e-10
40
0
40
0
40
0
40
0
40
1
40
1
40
1
40
1
10
0.7003281757010891
20
-14.118326121711934
30
0
10
0.7103786969233046
20
-13.947881820113357
30
0
10
0.709123144635693
20
-13.797231619205073
30
0
10
0.6965615188382546
20
-13.666375518987083
30
0
0
SPLINE
5
536
330
3AD
100
AcDbEntity
100
AcDbSpline
8
Layer_0
210
0
220
0
230
1
70
8
71
3
72
8
73
4
74
0
42
1e-7
43
1e-7
44
1e-10
40
0
40
0
40
0
40
0
40
1
40
1
40
1
40
1
10
0.6965615188382546
20
-13.666375518987083
30
0
10
0.6685072224198655
20
-13.374130240957983
30
0
10
0.5859988568839615
20
-13.179555705867879
30
0
10
0.44903661371164105
20
-13.082651858437718
30
0
0
SPLINE
5
537
330
3AD
100
AcDbEntity
100
AcDbSpline
8
Layer_0
210
0
220
0
230
1
70
8
71
3
72
8
73
4
74
0
42
1e-7
43
1e-7
44
1e-10
40
0
40
0
40
0
40
0
40
1
40
1
40
1
40
1
10
0.44903661371164105
20
-13.082651858437718
30
0
10
0.3120743063223235
20
-12.9857480253716
30
0
10
0.09747057454773211
20
-12.951323251198273
30
0
10
-0.1947745816121329
20
-12.979377535917736
30
0
0
LINE
5
538
330
3AD
100
AcDbEntity
100
AcDbLine
8
Layer_0
10
-0.1947745816121329
20
-12.979377535917736
30
0
11
-0.3125451108064792
21
-12.990683002879086
31
0
0
SPLINE
5
539
330
3AD
100
AcDbEntity
100
AcDbSpline
8
Layer_0
210
0
220
0
230
1
70
8
71
3
72
8
73
4
74
0
42
1e-7
43
1e-7
44
1e-10
40
0
40
0
40
0
40
0
40
1
40
1
40
1
40
1
10
-0.3125451108064792
20
-12.990683002879086
30
0
10
-0.35180182387741027
20
-12.99445147938735
30
0
10
-0.3930303433183876
20
-13.00061027385398
30
0
10
-0.4362302797328037
20
-13.009159342748953
30
0
0
SPLINE
5
53A
330
3AD
100
AcDbEntity
100
AcDbSpline
8
Layer_0
210
0
220
0
230
1
70
8
71
3
72
8
73
4
74
0
42
1e-7
43
1e-7
44
1e-10
40
0
40
0
40
0
40
0
40
1
40
1
40
1
40
1
10
-0.4362302797328037
20
-13.009159342748953
30
0
10
-0.30261799855406535
20
-13.071168247552865
30
0
10
-0.20056783802700265
20
-13.1483126561659
30
0
10
-0.13008057782224913
20
-13.240592646507903
30
0
0
SPLINE
5
53B
330
3AD
100
AcDbEntity
100
AcDbSpline
8
Layer_0
210
0
220
0
230
1
70
8
71
3
72
8
73
4
74
0
42
1e-7
43
1e-7
44
1e-10
40
0
40
0
40
0
40
0
40
1
40
1
40
1
40
1
10
-0.13008057782224913
20
-13.240592646507903
30
0
10
-0.05959331703254936
20
-13.332872642943368
30
0
10
-0.014509553726718992
20
-13.481516543781373
30
0
10
0.005170326793258351
20
-13.686524435206172
30
0
0
SPLINE
5
53C
330
3AD
100
AcDbEntity
100
AcDbSpline
8
Layer_0
210
0
220
0
230
1
70
8
71
3
72
8
73
4
74
0
42
1e-7
43
1e-7
44
1e-10
40
0
40
0
40
0
40
0
40
1
40
1
40
1
40
1
10
0.005170326793258351
20
-13.686524435206172
30
0
10
0.02945613500445887
20
-13.939512878295107
30
0
10
0.032351336536807176
20
-14.198956802277326
30
0
10
0.013855931390304388
20
-14.464856207152835
30
0
0
LINE
5
53D
330
3AD
100
AcDbEntity
100
AcDbLine
8
Layer_0
10
0.013855931390304388
20
-14.464856207152835
30
0
11
-0.040243357036663596
21
-15.242612047372866
31
0
0
SPLINE
5
53E
330
3AD
100
AcDbEntity
100
AcDbSpline
8
Layer_0
210
0
220
0
230
1
70
8
71
3
72
8
73
4
74
0
42
1e-7
43
1e-7
44
1e-10
40
0
40
0
40
0
40
0
40
1
40
1
40
1
40
1
10
-0.040243357036663596
20
-15.242612047372866
30
0
10
-0.05781376667210693
20
-15.495216368546966
30
0
10
-0.056549864594769135
20
-15.726203441026074
30
0
10
-0.03645126082309691
20
-15.935573227373629
30
0
0
SPLINE
5
53F
330
3AD
100
AcDbEntity
100
AcDbSpline
8
Layer_0
210
0
220
0
230
1
70
8
71
3
72
8
73
4
74
0
42
1e-7
43
1e-7
44
1e-10
40
0
40
0
40
0
40
0
40
1
40
1
40
1
40
1
10
-0.03645126082309691
20
-15.935573227373629
30
0
10
-0.009234407008455875
20
-16.219094756180297
30
0
10
0.06150538726209129
20
-16.440110933811404
30
0
10
0.1757681219885452
20
-16.598621760266937
30
0
0
SPLINE
5
540
330
3AD
100
AcDbEntity
100
AcDbSpline
8
Layer_0
210
0
220
0
230
1
70
8
71
3
72
8
73
4
74
0
42
1e-7
43
1e-7
44
1e-10
40
0
40
0
40
0
40
0
40
1
40
1
40
1
40
1
10
0.1757681219885452
20
-16.598621760266937
30
0
10
0.29003084423614556
20
-16.75713245672862
30
0
10
0.4758376124486943
20
-16.82403571316073
30
0
10
0.7331878042173003
20
-16.799331195736542
30
0
0
SPLINE
5
541
330
3AD
100
AcDbEntity
100
AcDbSpline
8
Layer_0
210
0
220
0
230
1
70
8
71
3
72
8
73
4
74
0
42
1e-7
43
1e-7
44
1e-10
40
0
40
0
40
0
40
0
40
1
40
1
40
1
40
1
10
0.7331878042173003
20
-16.799331195736542
30
0
10
0.8902151764764288
20
-16.784257239788076
30
0
10
1.0541519857235844
20
-16.70358952831367
30
0
10
1.2249982319587676
20
-16.55732806131334
30
0
0
SPLINE
5
542
330
3AD
100
AcDbEntity
100
AcDbSpline
8
Layer_0
210
0
220
0
230
1
70
8
71
3
72
8
73
4
74
0
42
1e-7
43
1e-7
44
1e-10
40
0
40
0
40
0
40
0
40
1
40
1
40
1
40
1
10
1.2249982319587676
20
-16.55732806131334
30
0
10
1.3958444781939507
20
-16.411066594313006
30
0
10
1.554346874264266
20
-16.216466831762837
30
0
10
1.7005054201697145
20
-15.973528773662842
30
0
0
SPLINE
5
543
330
3AD
100
AcDbEntity
100
AcDbSpline
8
Layer_0
210
0
220
0
230
1
70
8
71
3
72
8
73
4
74
0
42
1e-7
43
1e-7
44
1e-10
40
0
40
0
40
0
40
0
40
1
40
1
40
1
40
1
10
1.7005054201697145
20
-15.973528773662842
30
0
10
1.8466639260359445
20
-15.730590981789975
30
0
10
1.9622109529267908
20
-15.455375036429489
30
0
10
2.0471465008422527
20
-15.147880937581387
30
0
0
LINE
5
544
330
3AD
100
AcDbEntity
100
AcDbLine
8
Layer_0
10
-3.0498082426140942
20
-13.745138924431442
30
0
11
-3.0810213920088856
21
-13.732931971409597
31
0
0
SPLINE
5
545
330
3AD
100
AcDbEntity
100
AcDbSpline
8
Layer_0
210
0
220
0
230
1
70
8
71
3
72
8
73
4
74
0
42
1e-7
43
1e-7
44
1e-10
40
0
40
0
40
0
40
0
40
1
40
1
40
1
40
1
10
-3.0810213920088856
20
-13.732931971409597
30
0
10
-3.053985105713644
20
-13.555265097156179
30
0
10
-3.0439621210407375
20
-13.385708596559839
30
0
10
-3.050952060772622
20
-13.224262586206468
30
0
0
SPLINE
5
546
330
3AD
100
AcDbEntity
100
AcDbSpline
8
Layer_0
210
0
220
0
230
1
70
8
71
3
72
8
73
4
74
0
42
1e-7
43
1e-7
44
1e-10
40
0
40
0
40
0
40
0
40
1
40
1
40
1
40
1
10
-3.050952060772622
20
-13.224262586206468
30
0
10
-3.0579419962316643
20
-13.062816551742895
30
0
10
-3.0976880067132204
20
-12.916703884896828
30
0
10
-3.170190486526205
20
-12.785924565523189
30
0
0
SPLINE
5
547
330
3AD
100
AcDbEntity
100
AcDbSpline
8
Layer_0
210
0
220
0
230
1
70
8
71
3
72
8
73
4
74
0
42
1e-7
43
1e-7
44
1e-10
40
0
40
0
40
0
40
0
40
1
40
1
40
1
40
1
10
-3.170190486526205
20
-12.785924565523189
30
0
10
-3.2426930270723586
20
-12.655145214663468
30
0
10
-3.357728087279811
20
-12.544641957108858
30
0
10
-3.5152956671485622
20
-12.454414792859358
30
0
0
SPLINE
5
548
330
3AD
100
AcDbEntity
100
AcDbSpline
8
Layer_0
210
0
220
0
230
1
70
8
71
3
72
8
73
4
74
0
42
1e-7
43
1e-7
44
1e-10
40
0
40
0
40
0
40
0
40
1
40
1
40
1
40
1
10
-3.5152956671485622
20
-12.454414792859358
30
0
10
-3.5292247771266028
20
-12.759010186528435
30
0
10
-3.563334386996403
20
-13.064479342350435
30
0
10
-3.617624895339721
20
-13.370822264290476
30
0
0
SPLINE
5
549
330
3AD
100
AcDbEntity
100
AcDbSpline
8
Layer_0
210
0
220
0
230
1
70
8
71
3
72
8
73
4
74
0
42
1e-7
43
1e-7
44
1e-10
40
0
40
0
40
0
40
0
40
1
40
1
40
1
40
1
10
-3.617624895339721
20
-13.370822264290476
30
0
10
-3.6849145390823463
20
-13.750514897670604
30
0
10
-3.77320410752393
20
-14.123148204576996
30
0
10
-3.8824936006644717
20
-14.488722185009653
30
0
0
SPLINE
5
54A
330
3AD
100
AcDbEntity
100
AcDbSpline
8
Layer_0
210
0
220
0
230
1
70
8
71
3
72
8
73
4
74
0
42
1e-7
43
1e-7
44
1e-10
40
0
40
0
40
0
40
0
40
1
40
1
40
1
40
1
10
-3.8824936006644717
20
-14.488722185009653
30
0
10
-3.991783479568242
20
-14.854296097076828
30
0
10
-4.106520730859821
20
-15.206666654528988
30
0
10
-4.2267060918829245
20
-15.545833527753551
30
0
0
SPLINE
5
54B
330
3AD
100
AcDbEntity
100
AcDbSpline
8
Layer_0
210
0
220
0
230
1
70
8
71
3
72
8
73
4
74
0
42
1e-7
43
1e-7
44
1e-10
40
0
40
0
40
0
40
0
40
1
40
1
40
1
40
1
10
-4.2267060918829245
20
-15.545833527753551
30
0
10
-4.346891487088769
20
-15.88500059385973
30
0
10
-4.456276517028472
20
-16.207168136728473
30
0
10
-4.554860864304292
20
-16.51233661048849
30
0
0
SPLINE
5
54C
330
3AD
100
AcDbEntity
100
AcDbSpline
8
Layer_0
210
0
220
0
230
1
70
8
71
3
72
8
73
4
74
0
42
1e-7
43
1e-7
44
1e-10
40
0
40
0
40
0
40
0
40
1
40
1
40
1
40
1
10
-4.554860864304292
20
-16.51233661048849
30
0
10
-4.653445143214628
20
-16.81750469848528
30
0
10
-4.725676955827827
20
-17.099529536427628
30
0
10
-4.771556302143884
20
-17.358411124315538
30
0
0
SPLINE
5
54D
330
3AD
100
AcDbEntity
100
AcDbSpline
8
Layer_0
210
0
220
0
230
1
70
8
71
3
72
8
73
4
74
0
42
1e-7
43
1e-7
44
1e-10
40
0
40
0
40
0
40
0
40
1
40
1
40
1
40
1
10
-4.771556302143884
20
-17.358411124315538
30
0
10
-4.812847686482142
20
-17.591404399109365
30
0
10
-4.8258201350989385
20
-17.802715128806003
30
0
10
-4.810474033757503
20
-17.992343245039965
30
0
0
SPLINE
5
54E
330
3AD
100
AcDbEntity
100
AcDbSpline
8
Layer_0
210
0
220
0
230
1
70
8
71
3
72
8
73
4
74
0
42
1e-7
43
1e-7
44
1e-10
40
0
40
0
40
0
40
0
40
1
40
1
40
1
40
1
10
-4.810474033757503
20
-17.992343245039965
30
0
10
-4.795127932416067
20
-18.181971361273927
30
0
10
-4.75000238734915
20
-18.347950825961107
30
0
10
-4.67509694442804
20
-18.490281321703762
30
0
0
SPLINE
5
54F
330
3AD
100
AcDbEntity
100
AcDbSpline
8
Layer_0
210
0
220
0
230
1
70
8
71
3
72
8
73
4
74
0
42
1e-7
43
1e-7
44
1e-10
40
0
40
0
40
0
40
0
40
1
40
1
40
1
40
1
10
-4.67509694442804
20
-18.490281321703762
30
0
10
-4.600191184109184
20
-18.632612271575127
30
0
10
-4.48927970723763
20
-18.741272106482167
30
0
10
-4.342362196415632
20
-18.816261280553597
30
0
0
SPLINE
5
550
330
3AD
100
AcDbEntity
100
AcDbSpline
8
Layer_0
210
0
220
0
230
1
70
8
71
3
72
8
73
4
74
0
42
1e-7
43
1e-7
44
1e-10
40
0
40
0
40
0
40
0
40
1
40
1
40
1
40
1
10
-4.342362196415632
20
-18.816261280553597
30
0
10
-4.343289927041248
20
-18.695941371893177
30
0
10
-4.3337994676647495
20
-18.560779547915473
30
0
10
-4.313891011167753
20
-18.410775774437745
30
0
0
SPLINE
5
551
330
3AD
100
AcDbEntity
100
AcDbSpline
8
Layer_0
210
0
220
0
230
1
70
8
71
3
72
8
73
4
74
0
42
1e-7
43
1e-7
44
1e-10
40
0
40
0
40
0
40
0
40
1
40
1
40
1
40
1
10
-4.313891011167753
20
-18.410775774437745
30
0
10
-4.293982316212153
20
-18.26077177796727
30
0
10
-4.269117229037472
20
-18.101633533702724
30
0
10
-4.239295749643711
20
-17.9333610416441
30
0
0
SPLINE
5
552
330
3AD
100
AcDbEntity
100
AcDbSpline
8
Layer_0
210
0
220
0
230
1
70
8
71
3
72
8
73
4
74
0
42
1e-7
43
1e-7
44
1e-10
40
0
40
0
40
0
40
0
40
1
40
1
40
1
40
1
10
-4.239295749643711
20
-17.9333610416441
30
0
10
-4.2087095111701744
20
-17.76077327352291
30
0
10
-4.165083442836423
20
-17.54599486339134
30
0
10
-4.108417407911487
20
-17.289025039722926
30
0
0
SPLINE
5
553
330
3AD
100
AcDbEntity
100
AcDbSpline
8
Layer_0
210
0
220
0
230
1
70
8
71
3
72
8
73
4
74
0
42
1e-7
43
1e-7
44
1e-10
40
0
40
0
40
0
40
0
40
1
40
1
40
1
40
1
10
-4.108417407911487
20
-17.289025039722926
30
0
10
-4.051751372986551
20
-17.032055216054513
30
0
10
-3.9837113986091084
20
-16.754850507133355
30
0
10
-3.904297540929807
20
-16.45741010725026
30
0
0
SPLINE
5
554
330
3AD
100
AcDbEntity
100
AcDbSpline
8
Layer_0
210
0
220
0
230
1
70
8
71
3
72
8
73
4
74
0
42
1e-7
43
1e-7
44
1e-10
40
0
40
0
40
0
40
0
40
1
40
1
40
1
40
1
10
-3.904297540929807
20
-16.45741010725026
30
0
10
-3.8248834675803964
20
-16.159969612962165
30
0
10
-3.733535737916153
20
-15.857968933207784
30
0
10
-3.6302543519370754
20
-15.551408067987126
30
0
0
SPLINE
5
555
330
3AD
100
AcDbEntity
100
AcDbSpline
8
Layer_0
210
0
220
0
230
1
70
8
71
3
72
8
73
4
74
0
42
1e-7
43
1e-7
44
1e-10
40
0
40
0
40
0
40
0
40
1
40
1
40
1
40
1
10
-3.6302543519370754
20
-15.551408067987126
30
0
10
-3.526973136051118
20
-15.244847039995982
30
0
10
-3.413041570442287
20
-14.953523915153788
30
0
10
-3.2884598821749385
20
-14.677438852159415
30
0
0
SPLINE
5
556
330
3AD
100
AcDbEntity
100
AcDbSpline
8
Layer_0
210
0
220
0
230
1
70
8
71
3
72
8
73
4
74
0
42
1e-7
43
1e-7
44
1e-10
40
0
40
0
40
0
40
0
40
1
40
1
40
1
40
1
10
-3.2884598821749385
20
-14.677438852159415
30
0
10
-3.163878462477323
20
-14.401353807881925
30
0
10
-3.0293569341162754
20
-14.157069270052398
30
0
10
-2.8848952970917945
20
-13.944585238670834
30
0
0
SPLINE
5
557
330
3AD
100
AcDbEntity
100
AcDbSpline
8
Layer_0
210
0
220
0
230
1
70
8
71
3
72
8
73
4
74
0
42
1e-7
43
1e-7
44
1e-10
40
0
40
0
40
0
40
0
40
1
40
1
40
1
40
1
10
-2.8848952970917945
20
-13.944585238670834
30
0
10
-2.7404337015726905
20
-13.73210106730728
30
0
10
-2.5851582572129708
20
-13.571598213376461
30
0
10
-2.4190693241388077
20
-13.463076463851685
30
0
0
SPLINE
5
558
330
3AD
100
AcDbEntity
100
AcDbSpline
8
Layer_0
210
0
220
0
230
1
70
8
71
3
72
8
73
4
74
0
42
1e-7
43
1e-7
44
1e-10
40
0
40
0
40
0
40
0
40
1
40
1
40
1
40
1
10
-2.4190693241388077
20
-13.463076463851685
30
0
10
-2.2529803239222117
20
-13.354554709647688
30
0
10
-2.079327338776403
20
-13.316351591222638
30
0
10
-1.8981103687013823
20
-13.348467108576534
30
0
0
SPLINE
5
559
330
3AD
100
AcDbEntity
100
AcDbSpline
8
Layer_0
210
0
220
0
230
1
70
8
71
3
72
8
73
4
74
0
42
1e-7
43
1e-7
44
1e-10
40
0
40
0
40
0
40
0
40
1
40
1
40
1
40
1
10
-1.8981103687013823
20
-13.348467108576534
30
0
10
-1.7557256432389354
20
-13.373700722843596
30
0
10
-1.6493469773639888
20
-13.432605142607486
30
0
10
-1.5789743539851715
20
-13.525180271427388
30
0
0
SPLINE
5
55A
330
3AD
100
AcDbEntity
100
AcDbSpline
8
Layer_0
210
0
220
0
230
1
70
8
71
3
72
8
73
4
74
0
42
1e-7
43
1e-7
44
1e-10
40
0
40
0
40
0
40
0
40
1
40
1
40
1
40
1
10
-1.5789743539851715
20
-13.525180271427388
30
0
10
-1.5086016398626705
20
-13.617755449485598
30
0
10
-1.4652778726159779
20
-13.731125655909576
30
0
10
-1.4490030522450936
20
-13.865290890699326
30
0
0
SPLINE
5
55B
330
3AD
100
AcDbEntity
100
AcDbSpline
8
Layer_0
210
0
220
0
230
1
70
8
71
3
72
8
73
4
74
0
42
1e-7
43
1e-7
44
1e-10
40
0
40
0
40
0
40
0
40
1
40
1
40
1
40
1
10
-1.4490030522450936
20
-13.865290890699326
30
0
10
-1.4327281447918436
20
-13.99945600829558
30
0
10
-1.437589835010211
20
-14.139888326754194
30
0
10
-1.4635881229001955
20
-14.286587846075172
30
0
0
SPLINE
5
55C
330
3AD
100
AcDbEntity
100
AcDbSpline
8
Layer_0
210
0
220
0
230
1
70
8
71
3
72
8
73
4
74
0
42
1e-7
43
1e-7
44
1e-10
40
0
40
0
40
0
40
0
40
1
40
1
40
1
40
1
10
-1.4635881229001955
20
-14.286587846075172
30
0
10
-1.4995269001233513
20
-14.489378174651065
30
0
10
-1.5708845284085113
20
-14.703692336764288
30
0
10
-1.677660814874061
20
-14.929530366597577
30
0
0
SPLINE
5
55D
330
3AD
100
AcDbEntity
100
AcDbSpline
8
Layer_0
210
0
220
0
230
1
70
8
71
3
72
8
73
4
74
0
42
1e-7
43
1e-7
44
1e-10
40
0
40
0
40
0
40
0
40
1
40
1
40
1
40
1
10
-1.677660814874061
20
-14.929530366597577
30
0
10
-1.7844372319631594
20
-15.155368572221109
30
0
10
-1.925471572125747
20
-15.367347457660307
30
0
10
-2.1007640624261796
20
-15.565467181614041
30
0
0
SPLINE
5
55E
330
3AD
100
AcDbEntity
100
AcDbSpline
8
Layer_0
210
0
220
0
230
1
70
8
71
3
72
8
73
4
74
0
42
1e-7
43
1e-7
44
1e-10
40
0
40
0
40
0
40
0
40
1
40
1
40
1
40
1
10
-2.1007640624261796
20
-15.565467181614041
30
0
10
-2.2760563390923094
20
-15.763587009741512
30
0
10
-2.4882555521536096
20
-15.92512733308532
30
0
10
-2.73736170161008
20
-16.050088151645465
30
0
0
SPLINE
5
55F
330
3AD
100
AcDbEntity
100
AcDbSpline
8
Layer_0
210
0
220
0
230
1
70
8
71
3
72
8
73
4
74
0
42
1e-7
43
1e-7
44
1e-10
40
0
40
0
40
0
40
0
40
1
40
1
40
1
40
1
10
-2.73736170161008
20
-16.050088151645465
30
0
10
-2.9864675711025708
20
-16.175048887194855
30
0
10
-3.2709372949006728
20
-16.235889849917054
30
0
10
-3.5907708730043866
20
-16.232611039812056
30
0
0
SPLINE
5
560
330
3AD
100
AcDbEntity
100
AcDbSpline
8
Layer_0
210
0
220
0
230
1
70
8
71
3
72
8
73
4
74
0
42
1e-7
43
1e-7
44
1e-10
40
0
40
0
40
0
40
0
40
1
40
1
40
1
40
1
10
-3.5907708730043866
20
-16.232611039812056
30
0
10
-3.5126150219188936
20
-16.26871291391777
30
0
10
-3.432615908920512
20
-16.30069117620197
30
0
10
-3.350773409493109
20
-16.32854624661062
30
0
0
SPLINE
5
561
330
3AD
100
AcDbEntity
100
AcDbSpline
8
Layer_0
210
0
220
0
230
1
70
8
71
3
72
8
73
4
74
0
42
1e-7
43
1e-7
44
1e-10
40
0
40
0
40
0
40
0
40
1
40
1
40
1
40
1
10
-3.350773409493109
20
-16.32854624661062
30
0
10
-3.2689310988757088
20
-16.356400885679058
30
0
10
-3.1870203502455734
20
-16.377592436565884
30
0
10
-3.1050411636027024
20
-16.392120899271102
30
0
0
SPLINE
5
562
330
3AD
100
AcDbEntity
100
AcDbSpline
8
Layer_0
210
0
220
0
230
1
70
8
71
3
72
8
73
4
74
0
42
1e-7
43
1e-7
44
1e-10
40
0
40
0
40
0
40
0
40
1
40
1
40
1
40
1
10
-3.1050411636027024
20
-16.392120899271102
30
0
10
-2.833215804930979
20
-16.440294158210577
30
0
10
-2.5702924922235586
20
-16.425699567163896
30
0
10
-2.316271225480443
20
-16.348337126131057
30
0
0
SPLINE
5
563
330
3AD
100
AcDbEntity
100
AcDbSpline
8
Layer_0
210
0
220
0
230
1
70
8
71
3
72
8
73
4
74
0
42
1e-7
43
1e-7
44
1e-10
40
0
40
0
40
0
40
0
40
1
40
1
40
1
40
1
10
-2.316271225480443
20
-16.348337126131057
30
0
10
-2.062249986812652
20
-16.270974282243618
30
0
10
-1.8289417654067615
20
-16.14098879377604
30
0
10
-1.616346492897288
20
-15.958380274965096
30
0
0
SPLINE
5
564
330
3AD
100
AcDbEntity
100
AcDbSpline
8
Layer_0
210
0
220
0
230
1
70
8
71
3
72
8
73
4
74
0
42
1e-7
43
1e-7
44
1e-10
40
0
40
0
40
0
40
0
40
1
40
1
40
1
40
1
10
-1.616346492897288
20
-15.958380274965096
30
0
10
-1.4037511882408786
20
-15.775771761851276
30
0
10
-1.2216451742696002
20
-15.54548292500776
30
0
10
-1.0700284509834526
20
-15.267513764434549
30
0
0
SPLINE
5
565
330
3AD
100
AcDbEntity
100
AcDbSpline
8
Layer_0
210
0
220
0
230
1
70
8
71
3
72
8
73
4
74
0
42
1e-7
43
1e-7
44
1e-10
40
0
40
0
40
0
40
0
40
1
40
1
40
1
40
1
10
-1.0700284509834526
20
-15.267513764434549
30
0
10
-0.9184117276973048
20
-14.989544603861336
30
0
10
-0.8112525166261327
20
-14.673657815211307
30
0
10
-0.7485508177699359
20
-14.319853398484454
30
0
0
SPLINE
5
566
330
3AD
100
AcDbEntity
100
AcDbSpline
8
Layer_0
210
0
220
0
230
1
70
8
71
3
72
8
73
4
74
0
42
1e-7
43
1e-7
44
1e-10
40
0
40
0
40
0
40
0
40
1
40
1
40
1
40
1
10
-0.7485508177699359
20
-14.319853398484454
30
0
10
-0.6965542875669555
20
-14.026454617017986
30
0
10
-0.696689339782534
20
-13.776106834475856
30
0
10
-0.7489559744166714
20
-13.568810050858065
30
0
0
SPLINE
5
567
330
3AD
100
AcDbEntity
100
AcDbSpline
8
Layer_0
210
0
220
0
230
1
70
8
71
3
72
8
73
4
74
0
42
1e-7
43
1e-7
44
1e-10
40
0
40
0
40
0
40
0
40
1
40
1
40
1
40
1
10
-0.7489559744166714
20
-13.568810050858065
30
0
10
-0.8012226175964942
20
-13.361513315460678
30
0
10
-0.8894407342876774
20
-13.200135077146248
30
0
10
-1.0136103244902215
20
-13.084675335914776
30
0
0
SPLINE
5
568
330
3AD
100
AcDbEntity
100
AcDbSpline
8
Layer_0
210
0
220
0
230
1
70
8
71
3
72
8
73
4
74
0
42
1e-7
43
1e-7
44
1e-10
40
0
40
0
40
0
40
0
40
1
40
1
40
1
40
1
10
-1.0136103244902215
20
-13.084675335914776
30
0
10
-1.137779978986637
20
-12.969215583289056
30
0
10
-1.2840012129988343
20
-12.896574938793696
30
0
10
-1.4522740265268137
20
-12.8667534024287
30
0
0
SPLINE
5
569
330
3AD
100
AcDbEntity
100
AcDbSpline
8
Layer_0
210
0
220
0
230
1
70
8
71
3
72
8
73
4
74
0
42
1e-7
43
1e-7
44
1e-10
40
0
40
0
40
0
40
0
40
1
40
1
40
1
40
1
10
-1.4522740265268137
20
-12.8667534024287
30
0
10
-1.6378055654318149
20
-12.833873251331747
30
0
10
-1.8279389072130336
20
-12.845792130811931
30
0
10
-2.0226740518704704
20
-12.902510040869254
30
0
0
SPLINE
5
56A
330
3AD
100
AcDbEntity
100
AcDbSpline
8
Layer_0
210
0
220
0
230
1
70
8
71
3
72
8
73
4
74
0
42
1e-7
43
1e-7
44
1e-10
40
0
40
0
40
0
40
0
40
1
40
1
40
1
40
1
10
-2.0226740518704704
20
-12.902510040869254
30
0
10
-2.217409070788726
20
-12.959227989788538
30
0
10
-2.40411573636129
20
-13.058533083535076
30
0
10
-2.5827940485881613
20
-13.200425322108869
30
0
0
SPLINE
5
56B
330
3AD
100
AcDbEntity
100
AcDbSpline
8
Layer_0
210
0
220
0
230
1
70
8
71
3
72
8
73
4
74
0
42
1e-7
43
1e-7
44
1e-10
40
0
40
0
40
0
40
0
40
1
40
1
40
1
40
1
10
-2.5827940485881613
20
-13.200425322108869
30
0
10
-2.76147235654219
20
-13.342317536572459
30
0
10
-2.917143754550834
20
-13.52388873734665
30
0
10
-3.0498082426140942
20
-13.745138924431442
30
0
0
SPLINE
5
56C
330
3AD
100
AcDbEntity
100
AcDbSpline
8
Layer_0
210
0
220
0
230
1
70
8
71
3
72
8
73
4
74
0
42
1e-7
43
1e-7
44
1e-10
40
0
40
0
40
0
40
0
40
1
40
1
40
1
40
1
10
-4.59522072529542
20
-12.2780091655977
30
0
10
-4.707207456070886
20
-12.08057394150639
30
0
10
-4.869545938240237
20
-11.935221734910403
30
0
10
-5.082236171803469
20
-11.841952545809741
30
0
0
SPLINE
5
56D
330
3AD
100
AcDbEntity
100
AcDbSpline
8
Layer_0
210
0
220
0
230
1
70
8
71
3
72
8
73
4
74
0
42
1e-7
43
1e-7
44
1e-10
40
0
40
0
40
0
40
0
40
1
40
1
40
1
40
1
10
-5.082236171803469
20
-11.841952545809741
30
0
10
-5.37919988059771
20
-11.711727646210251
30
0
10
-5.6656332625134365
20
-11.663872392989552
30
0
10
-5.941536500634369
20
-11.698386715887828
30
0
0
SPLINE
5
56E
330
3AD
100
AcDbEntity
100
AcDbSpline
8
Layer_0
210
0
220
0
230
1
70
8
71
3
72
8
73
4
74
0
42
1e-7
43
1e-7
44
1e-10
40
0
40
0
40
0
40
0
40
1
40
1
40
1
40
1
10
-5.941536500634369
20
-11.698386715887828
30
0
10
-6.217439553213175
20
-11.732901103439792
30
0
10
-6.503263957606428
20
-11.85277848086471
30
0
10
-6.7990097138141286
20
-12.058018848162583
30
0
0
SPLINE
5
56F
330
3AD
100
AcDbEntity
100
AcDbSpline
8
Layer_0
210
0
220
0
230
1
70
8
71
3
72
8
73
4
74
0
42
1e-7
43
1e-7
44
1e-10
40
0
40
0
40
0
40
0
40
1
40
1
40
1
40
1
10
-6.7990097138141286
20
-12.058018848162583
30
0
10
-6.835965437424457
20
-12.142292353292943
30
0
10
-6.785481757372109
20
-12.229024394376802
30
0
10
-6.647558673657081
20
-12.318214971414163
30
0
0
SPLINE
5
570
330
3AD
100
AcDbEntity
100
AcDbSpline
8
Layer_0
210
0
220
0
230
1
70
8
71
3
72
8
73
4
74
0
42
1e-7
43
1e-7
44
1e-10
40
0
40
0
40
0
40
0
40
1
40
1
40
1
40
1
10
-6.647558673657081
20
-12.318214971414163
30
0
10
-6.222278245968941
20
-12.035805840316913
30
0
10
-5.8129998634538165
20
-11.980831292155221
30
0
10
-5.419723526111704
20
-12.15329132692909
30
0
0
SPLINE
5
571
330
3AD
100
AcDbEntity
100
AcDbSpline
8
Layer_0
210
0
220
0
230
1
70
8
71
3
72
8
73
4
74
0
42
1e-7
43
1e-7
44
1e-10
40
0
40
0
40
0
40
0
40
1
40
1
40
1
40
1
10
-5.419723526111704
20
-12.15329132692909
30
0
10
-5.211046383519895
20
-12.244800690322567
30
0
10
-5.092690716965112
20
-12.403162440966215
30
0
10
-5.064656526447359
20
-12.628376578860038
30
0
0
SPLINE
5
572
330
3AD
100
AcDbEntity
100
AcDbSpline
8
Layer_0
210
0
220
0
230
1
70
8
71
3
72
8
73
4
74
0
42
1e-7
43
1e-7
44
1e-10
40
0
40
0
40
0
40
0
40
1
40
1
40
1
40
1
10
-5.064656526447359
20
-12.628376578860038
30
0
10
-5.036622342485356
20
-12.853590731703537
30
0
10
-5.100036257358873
20
-13.142770791033392
30
0
10
-5.254898271067912
20
-13.495916756849603
30
0
0
SPLINE
5
573
330
3AD
100
AcDbEntity
100
AcDbSpline
8
Layer_0
210
0
220
0
230
1
70
8
71
3
72
8
73
4
74
0
42
1e-7
43
1e-7
44
1e-10
40
0
40
0
40
0
40
0
40
1
40
1
40
1
40
1
10
-5.254898271067912
20
-13.495916756849603
30
0
10
-5.281871631817182
20
-13.557426570037277
30
0
10
-5.311660353253993
20
-13.61897413701418
30
0
10
-5.344264317374831
20
-13.680559188686143
30
0
0
SPLINE
5
574
330
3AD
100
AcDbEntity
100
AcDbSpline
8
Layer_0
210
0
220
0
230
1
70
8
71
3
72
8
73
4
74
0
42
1e-7
43
1e-7
44
1e-10
40
0
40
0
40
0
40
0
40
1
40
1
40
1
40
1
10
-5.344264317374831
20
-13.680559188686143
30
0
10
-5.425035496069194
20
-13.622490700659505
30
0
10
-5.510230474613739
20
-13.566741128612657
30
0
10
-5.59984917433946
20
-13.513310293149493
30
0
0
SPLINE
5
575
330
3AD
100
AcDbEntity
100
AcDbSpline
8
Layer_0
210
0
220
0
230
1
70
8
71
3
72
8
73
4
74
0
42
1e-7
43
1e-7
44
1e-10
40
0
40
0
40
0
40
0
40
1
40
1
40
1
40
1
10
-5.59984917433946
20
-13.513310293149493
30
0
10
-5.7060545265740155
20
-13.449990360369016
30
0
10
-5.823365576342883
20
-13.390173764043169
30
0
10
-5.951782334675107
20
-13.333860285441334
30
0
0
SPLINE
5
576
330
3AD
100
AcDbEntity
100
AcDbSpline
8
Layer_0
210
0
220
0
230
1
70
8
71
3
72
8
73
4
74
0
42
1e-7
43
1e-7
44
1e-10
40
0
40
0
40
0
40
0
40
1
40
1
40
1
40
1
10
-5.951782334675107
20
-13.333860285441334
30
0
10
-6.2126288227135715
20
-13.219473554976485
30
0
10
-6.4654984639738835
20
-13.166001622367792
30
0
10
-6.710391258456044
20
-13.173444487615255
30
0
0
SPLINE
5
577
330
3AD
100
AcDbEntity
100
AcDbSpline
8
Layer_0
210
0
220
0
230
1
70
8
71
3
72
8
73
4
74
0
42
1e-7
43
1e-7
44
1e-10
40
0
40
0
40
0
40
0
40
1
40
1
40
1
40
1
10
-6.710391258456044
20
-13.173444487615255
30
0
10
-6.955284052938204
20
-13.180887352862717
30
0
10
-7.173314781144877
20
-13.244368353324063
30
0
10
-7.36448377981019
20
-13.363887769122504
30
0
0
SPLINE
5
578
330
3AD
100
AcDbEntity
100
AcDbSpline
8
Layer_0
210
0
220
0
230
1
70
8
71
3
72
8
73
4
74
0
42
1e-7
43
1e-7
44
1e-10
40
0
40
0
40
0
40
0
40
1
40
1
40
1
40
1
10
-7.36448377981019
20
-13.363887769122504
30
0
10
-7.555652744899802
20
-13.483407270942653
30
0
10
-7.697871821994938
20
-13.649512138634343
30
0
10
-7.7911410110956
20
-13.862202372197576
30
0
0
SPLINE
5
579
330
3AD
100
AcDbEntity
100
AcDbSpline
8
Layer_0
210
0
220
0
230
1
70
8
71
3
72
8
73
4
74
0
42
1e-7
43
1e-7
44
1e-10
40
0
40
0
40
0
40
0
40
1
40
1
40
1
40
1
10
-7.7911410110956
20
-13.862202372197576
30
0
10
-7.916086512242541
20
-14.147126987473657
30
0
10
-7.934868233762227
20
-14.397266371092769
30
0
10
-7.847485738193428
20
-14.612620500996819
30
0
0
SPLINE
5
57A
330
3AD
100
AcDbEntity
100
AcDbSpline
8
Layer_0
210
0
220
0
230
1
70
8
71
3
72
8
73
4
74
0
42
1e-7
43
1e-7
44
1e-10
40
0
40
0
40
0
40
0
40
1
40
1
40
1
40
1
10
-7.847485738193428
20
-14.612620500996819
30
0
10
-7.7601033622220355
20
-14.827974578454864
30
0
10
-7.567930319839219
20
-15.000764066983631
30
0
10
-7.270966611044978
20
-15.130988966583121
30
0
0
SPLINE
5
57B
330
3AD
100
AcDbEntity
100
AcDbSpline
8
Layer_0
210
0
220
0
230
1
70
8
71
3
72
8
73
4
74
0
42
1e-7
43
1e-7
44
1e-10
40
0
40
0
40
0
40
0
40
1
40
1
40
1
40
1
10
-7.270966611044978
20
-15.130988966583121
30
0
10
-7.026172247697392
20
-15.23833649911124
30
0
10
-6.775115855475818
20
-15.285032268521471
30
0
10
-6.517797434380255
20
-15.271076274813817
30
0
0
SPLINE
5
57C
330
3AD
100
AcDbEntity
100
AcDbSpline
8
Layer_0
210
0
220
0
230
1
70
8
71
3
72
8
73
4
74
0
42
1e-7
43
1e-7
44
1e-10
40
0
40
0
40
0
40
0
40
1
40
1
40
1
40
1
10
-6.517797434380255
20
-15.271076274813817
30
0
10
-6.260479230421411
20
-15.25712061367538
30
0
10
-6.012210835505215
20
-15.190152631053651
30
0
10
-5.772992586365792
20
-15.070172607071846
30
0
0
SPLINE
5
57D
330
3AD
100
AcDbEntity
100
AcDbSpline
8
Layer_0
210
0
220
0
230
1
70
8
71
3
72
8
73
4
74
0
42
1e-7
43
1e-7
44
1e-10
40
0
40
0
40
0
40
0
40
1
40
1
40
1
40
1
10
-5.772992586365792
20
-15.070172607071846
30
0
10
-5.533774307327017
20
-14.950192596201543
30
0
10
-5.315151622162731
20
-14.78170688695388
30
0
10
-5.117124530872933
20
-14.56471547932886
30
0
0
SPLINE
5
57E
330
3AD
100
AcDbEntity
100
AcDbSpline
8
Layer_0
210
0
220
0
230
1
70
8
71
3
72
8
73
4
74
0
42
1e-7
43
1e-7
44
1e-10
40
0
40
0
40
0
40
0
40
1
40
1
40
1
40
1
10
-5.117124530872933
20
-14.56471547932886
30
0
10
-4.919097521928491
20
-14.347724178189747
30
0
10
-4.754971567656526
20
-14.090746673223068
30
0
10
-4.624746668057036
20
-13.793782964428827
30
0
0
SPLINE
5
57F
330
3AD
100
AcDbEntity
100
AcDbSpline
8
Layer_0
210
0
220
0
230
1
70
8
71
3
72
8
73
4
74
0
42
1e-7
43
1e-7
44
1e-10
40
0
40
0
40
0
40
0
40
1
40
1
40
1
40
1
10
-4.624746668057036
20
-13.793782964428827
30
0
10
-4.499801166910095
20
-13.508858349152746
30
0
10
-4.435647135467572
20
-13.234357033000723
30
0
10
-4.432284464364159
20
-12.970279010458231
30
0
0
SPLINE
5
580
330
3AD
100
AcDbEntity
100
AcDbSpline
8
Layer_0
210
0
220
0
230
1
70
8
71
3
72
8
73
4
74
0
42
1e-7
43
1e-7
44
1e-10
40
0
40
0
40
0
40
0
40
1
40
1
40
1
40
1
10
-4.432284464364159
20
-12.970279010458231
30
0
10
-4.428921812927999
20
-12.706201032764767
30
0
10
-4.483233899905085
20
-12.475444417811257
30
0
10
-4.59522072529542
20
-12.2780091655977
30
0
0
SPLINE
5
581
330
3AD
100
AcDbEntity
100
AcDbSpline
8
Layer_0
210
0
220
0
230
1
70
8
71
3
72
8
73
4
74
0
42
1e-7
43
1e-7
44
1e-10
40
0
40
0
40
0
40
0
40
1
40
1
40
1
40
1
10
-5.466613686897499
20
-13.891117630738634
30
0
10
-5.502801492456523
20
-13.948317314311078
30
0
10
-5.54141112993857
20
-14.005549469423114
30
0
10
-5.582442778739749
20
-14.062814017405735
30
0
0
SPLINE
5
582
330
3AD
100
AcDbEntity
100
AcDbSpline
8
Layer_0
210
0
220
0
230
1
70
8
71
3
72
8
73
4
74
0
42
1e-7
43
1e-7
44
1e-10
40
0
40
0
40
0
40
0
40
1
40
1
40
1
40
1
10
-5.582442778739749
20
-14.062814017405735
30
0
10
-5.718095477680446
20
-14.252133511491945
30
0
10
-5.868093930918197
20
-14.41961169801858
30
0
10
-6.032438138453001
20
-14.56524857698564
30
0
0
SPLINE
5
583
330
3AD
100
AcDbEntity
100
AcDbSpline
8
Layer_0
210
0
220
0
230
1
70
8
71
3
72
8
73
4
74
0
42
1e-7
43
1e-7
44
1e-10
40
0
40
0
40
0
40
0
40
1
40
1
40
1
40
1
10
-6.032438138453001
20
-14.56524857698564
30
0
10
-6.196782353340503
20
-14.71088531013229
30
0
10
-6.36422683262679
20
-14.814492322776061
30
0
10
-6.5347715763118615
20
-14.87606961491695
30
0
0
SPLINE
5
584
330
3AD
100
AcDbEntity
100
AcDbSpline
8
Layer_0
210
0
220
0
230
1
70
8
71
3
72
8
73
4
74
0
42
1e-7
43
1e-7
44
1e-10
40
0
40
0
40
0
40
0
40
1
40
1
40
1
40
1
10
-6.5347715763118615
20
-14.87606961491695
30
0
10
-6.7053165780620505
20
-14.93764700778494
30
0
10
-6.866836343919851
20
-14.934999336705811
30
0
10
-7.019331289288394
20
-14.868127061198882
30
0
0
SPLINE
5
585
330
3AD
100
AcDbEntity
100
AcDbSpline
8
Layer_0
210
0
220
0
230
1
70
8
71
3
72
8
73
4
74
0
42
1e-7
43
1e-7
44
1e-10
40
0
40
0
40
0
40
0
40
1
40
1
40
1
40
1
10
-7.019331289288394
20
-14.868127061198882
30
0
10
-7.139721865677772
20
-14.815333234011419
30
0
10
-7.216306755023206
20
-14.736294487757956
30
0
10
-7.249085463252557
20
-14.631010183523065
30
0
0
SPLINE
5
586
330
3AD
100
AcDbEntity
100
AcDbSpline
8
Layer_0
210
0
220
0
230
1
70
8
71
3
72
8
73
4
74
0
42
1e-7
43
1e-7
44
1e-10
40
0
40
0
40
0
40
0
40
1
40
1
40
1
40
1
10
-7.249085463252557
20
-14.631010183523065
30
0
10
-7.281864216575215
20
-14.52572614470599
30
0
10
-7.267457167820855
20
-14.402856229271611
30
0
10
-7.205864316989476
20
-14.262400437219931
30
0
0
SPLINE
5
587
330
3AD
100
AcDbEntity
100
AcDbSpline
8
Layer_0
210
0
220
0
230
1
70
8
71
3
72
8
73
4
74
0
42
1e-7
43
1e-7
44
1e-10
40
0
40
0
40
0
40
0
40
1
40
1
40
1
40
1
10
-7.205864316989476
20
-14.262400437219931
30
0
10
-7.123153924793909
20
-14.073788390693018
30
0
10
-7.001966221973317
20
-13.928365500857895
30
0
10
-6.842300950462582
20
-13.826131666987465
30
0
0
SPLINE
5
588
330
3AD
100
AcDbEntity
100
AcDbSpline
8
Layer_0
210
0
220
0
230
1
70
8
71
3
72
8
73
4
74
0
42
1e-7
43
1e-7
44
1e-10
40
0
40
0
40
0
40
0
40
1
40
1
40
1
40
1
10
-6.842300950462582
20
-13.826131666987465
30
0
10
-6.682635757620854
20
-13.723898012513143
30
0
10
-6.499365025481687
20
-13.671489838877914
30
0
10
-6.292489112837299
20
-13.668906988743764
30
0
0
SPLINE
5
589
330
3AD
100
AcDbEntity
100
AcDbSpline
8
Layer_0
210
0
220
0
230
1
70
8
71
3
72
8
73
4
74
0
42
1e-7
43
1e-7
44
1e-10
40
0
40
0
40
0
40
0
40
1
40
1
40
1
40
1
10
-6.292489112837299
20
-13.668906988743764
30
0
10
-6.085613073242807
20
-13.666324336876027
30
0
10
-5.8657973886314965
20
-13.716067091091446
30
0
10
-5.633042059003367
20
-13.818135251390018
30
0
0
LINE
5
58A
330
3AD
100
AcDbEntity
100
AcDbLine
8
Layer_0
10
-5.633042059003367
20
-13.818135251390018
30
0
11
-5.466613686897499
21
-13.891117630738634
31
0
0
SPLINE
5
58B
330
3AD
100
AcDbEntity
100
AcDbSpline
8
Layer_0
210
0
220
0
230
1
70
8
71
3
72
8
73
4
74
0
42
1e-7
43
1e-7
44
1e-10
40
0
40
0
40
0
40
0
40
1
40
1
40
1
40
1
10
-7.357585861687031
20
-10.891515617363538
30
0
10
-7.428891524417478
20
-10.676022698583512
30
0
10
-7.559744552152111
20
-10.501785699389744
30
0
10
-7.750144944890933
20
-10.368804619782232
30
0
0
SPLINE
5
58C
330
3AD
100
AcDbEntity
100
AcDbSpline
8
Layer_0
210
0
220
0
230
1
70
8
71
3
72
8
73
4
74
0
42
1e-7
43
1e-7
44
1e-10
40
0
40
0
40
0
40
0
40
1
40
1
40
1
40
1
10
-7.750144944890933
20
-10.368804619782232
30
0
10
-8.015986990556799
20
-10.183132932191702
30
0
10
-8.287575016452186
20
-10.080302237714106
30
0
10
-8.564909188430281
20
-10.060312431712884
30
0
0
SPLINE
5
58D
330
3AD
100
AcDbEntity
100
AcDbSpline
8
Layer_0
210
0
220
0
230
1
70
8
71
3
72
8
73
4
74
0
42
1e-7
43
1e-7
44
1e-10
40
0
40
0
40
0
40
0
40
1
40
1
40
1
40
1
10
-8.564909188430281
20
-10.060312431712884
30
0
10
-8.842243191050049
20
-10.040322725329615
30
0
10
-9.145965795026925
20
-10.10211880609969
30
0
10
-9.476077000360903
20
-10.245700674023107
30
0
0
SPLINE
5
58E
330
3AD
100
AcDbEntity
100
AcDbSpline
8
Layer_0
210
0
220
0
230
1
70
8
71
3
72
8
73
4
74
0
42
1e-7
43
1e-7
44
1e-10
40
0
40
0
40
0
40
0
40
1
40
1
40
1
40
1
10
-9.476077000360903
20
-10.245700674023107
30
0
10
-9.528767627037999
20
-10.321142353716064
30
0
10
-9.496179656001356
20
-10.416058490626051
30
0
10
-9.378313087250977
20
-10.530449084753068
30
0
0
SPLINE
5
58F
330
3AD
100
AcDbEntity
100
AcDbSpline
8
Layer_0
210
0
220
0
230
1
70
8
71
3
72
8
73
4
74
0
42
1e-7
43
1e-7
44
1e-10
40
0
40
0
40
0
40
0
40
1
40
1
40
1
40
1
10
-9.378313087250977
20
-10.530449084753068
30
0
10
-8.90609859650798
20
-10.336459821560375
30
0
10
-8.493960774108219
20
-10.362409979312558
30
0
10
-8.141899620051694
20
-10.608299558009618
30
0
0
SPLINE
5
590
330
3AD
100
AcDbEntity
100
AcDbSpline
8
Layer_0
210
0
220
0
230
1
70
8
71
3
72
8
73
4
74
0
42
1e-7
43
1e-7
44
1e-10
40
0
40
0
40
0
40
0
40
1
40
1
40
1
40
1
10
-8.141899620051694
20
-10.608299558009618
30
0
10
-7.9550917481552945
20
-10.738771518317188
30
0
10
-7.869914679068656
20
-10.917185012129618
30
0
10
-7.886368412791781
20
-11.143540039446911
30
0
0
SPLINE
5
591
330
3AD
100
AcDbEntity
100
AcDbSpline
8
Layer_0
210
0
220
0
230
1
70
8
71
3
72
8
73
4
74
0
42
1e-7
43
1e-7
44
1e-10
40
0
40
0
40
0
40
0
40
1
40
1
40
1
40
1
10
-7.886368412791781
20
-11.143540039446911
30
0
10
-7.902822155861946
20
-11.36989508014716
30
0
10
-8.021448388492553
20
-11.641140814206652
30
0
10
-8.242247110683602
20
-11.95727724162539
30
0
0
SPLINE
5
592
330
3AD
100
AcDbEntity
100
AcDbSpline
8
Layer_0
210
0
220
0
230
1
70
8
71
3
72
8
73
4
74
0
42
1e-7
43
1e-7
44
1e-10
40
0
40
0
40
0
40
0
40
1
40
1
40
1
40
1
10
-8.242247110683602
20
-11.95727724162539
30
0
10
-8.280705112384567
20
-12.012340854053758
30
0
10
-8.321931716292898
20
-12.066892096530914
30
0
10
-8.365926754161887
20
-12.120930728163641
30
0
0
SPLINE
5
593
330
3AD
100
AcDbEntity
100
AcDbSpline
8
Layer_0
210
0
220
0
230
1
70
8
71
3
72
8
73
4
74
0
42
1e-7
43
1e-7
44
1e-10
40
0
40
0
40
0
40
0
40
1
40
1
40
1
40
1
10
-8.365926754161887
20
-12.120930728163641
30
0
10
-8.433813432260022
20
-12.04821668862397
30
0
10
-8.506491381987988
20
-11.976913709892703
30
0
10
-8.583960491181307
20
-11.90702163137436
30
0
0
SPLINE
5
594
330
3AD
100
AcDbEntity
100
AcDbSpline
8
Layer_0
210
0
220
0
230
1
70
8
71
3
72
8
73
4
74
0
42
1e-7
43
1e-7
44
1e-10
40
0
40
0
40
0
40
0
40
1
40
1
40
1
40
1
10
-8.583960491181307
20
-11.90702163137436
30
0
10
-8.675767583131284
20
-11.824193806349925
30
0
10
-8.77915051494553
20
-11.742634766364318
30
0
10
-8.894109254757307
20
-11.662344294739821
30
0
0
SPLINE
5
595
330
3AD
100
AcDbEntity
100
AcDbSpline
8
Layer_0
210
0
220
0
230
1
70
8
71
3
72
8
73
4
74
0
42
1e-7
43
1e-7
44
1e-10
40
0
40
0
40
0
40
0
40
1
40
1
40
1
40
1
10
-8.894109254757307
20
-11.662344294739821
30
0
10
-9.127619148159633
20
-11.4992543069672
30
0
10
-9.365192647334103
20
-11.397464643749242
30
0
10
-9.60682975228072
20
-11.356975305085946
30
0
0
SPLINE
5
596
330
3AD
100
AcDbEntity
100
AcDbSpline
8
Layer_0
210
0
220
0
230
1
70
8
71
3
72
8
73
4
74
0
42
1e-7
43
1e-7
44
1e-10
40
0
40
0
40
0
40
0
40
1
40
1
40
1
40
1
10
-9.60682975228072
20
-11.356975305085946
30
0
10
-9.848466857227338
20
-11.31648596642265
30
0
10
-10.07469377398643
20
-11.336199362770842
30
0
10
-10.285510887482424
20
-11.416115703157
30
0
0
SPLINE
5
597
330
3AD
100
AcDbEntity
100
AcDbSpline
8
Layer_0
210
0
220
0
230
1
70
8
71
3
72
8
73
4
74
0
42
1e-7
43
1e-7
44
1e-10
40
0
40
0
40
0
40
0
40
1
40
1
40
1
40
1
10
-10.285510887482424
20
-11.416115703157
30
0
10
-10.49632798483475
20
-11.496032134463144
30
0
10
-10.668227073314668
20
-11.631190546485628
30
0
10
-10.80120815292218
20
-11.82159093922445
30
0
0
SPLINE
5
598
330
3AD
100
AcDbEntity
100
AcDbSpline
8
Layer_0
210
0
220
0
230
1
70
8
71
3
72
8
73
4
74
0
42
1e-7
43
1e-7
44
1e-10
40
0
40
0
40
0
40
0
40
1
40
1
40
1
40
1
10
-10.80120815292218
20
-11.82159093922445
30
0
10
-10.979352594777355
20
-12.076655582958526
30
0
10
-11.046586182442612
20
-12.318320865922901
30
0
10
-11.002908482562521
20
-12.546586851851043
30
0
0
SPLINE
5
599
330
3AD
100
AcDbEntity
100
AcDbSpline
8
Layer_0
210
0
220
0
230
1
70
8
71
3
72
8
73
4
74
0
42
1e-7
43
1e-7
44
1e-10
40
0
40
0
40
0
40
0
40
1
40
1
40
1
40
1
10
-11.002908482562521
20
-12.546586851851043
30
0
10
-10.959230889746083
20
-12.774852763002867
30
0
10
-10.804471070504931
20
-12.981821562374044
30
0
10
-10.538629024839064
20
-13.167493249964574
30
0
0
SPLINE
5
59A
330
3AD
100
AcDbEntity
100
AcDbSpline
8
Layer_0
210
0
220
0
230
1
70
8
71
3
72
8
73
4
74
0
42
1e-7
43
1e-7
44
1e-10
40
0
40
0
40
0
40
0
40
1
40
1
40
1
40
1
10
-10.538629024839064
20
-13.167493249964574
30
0
10
-10.319489000679123
20
-13.320546910090053
30
0
10
-10.082371569690318
20
-13.415336840343198
30
0
10
-9.82727673187265
20
-13.451863040724009
30
0
0
SPLINE
5
59B
330
3AD
100
AcDbEntity
100
AcDbSpline
8
Layer_0
210
0
220
0
230
1
70
8
71
3
72
8
73
4
74
0
42
1e-7
43
1e-7
44
1e-10
40
0
40
0
40
0
40
0
40
1
40
1
40
1
40
1
10
-9.82727673187265
20
-13.451863040724009
30
0
10
-9.572182171915758
20
-13.488389524907618
30
0
10
-9.315618453445547
20
-13.471156853163897
30
0
10
-9.057585961386446
20
-13.40016523451933
30
0
0
SPLINE
5
59C
330
3AD
100
AcDbEntity
100
AcDbSpline
8
Layer_0
210
0
220
0
230
1
70
8
71
3
72
8
73
4
74
0
42
1e-7
43
1e-7
44
1e-10
40
0
40
0
40
0
40
0
40
1
40
1
40
1
40
1
10
-9.057585961386446
20
-13.40016523451933
30
0
10
-8.799553442561432
20
-13.329173634568841
30
0
10
-8.552255015981208
20
-13.206589782043007
30
0
10
-8.315690681645773
20
-13.032413676941825
30
0
0
SPLINE
5
59D
330
3AD
100
AcDbEntity
100
AcDbSpline
8
Layer_0
210
0
220
0
230
1
70
8
71
3
72
8
73
4
74
0
42
1e-7
43
1e-7
44
1e-10
40
0
40
0
40
0
40
0
40
1
40
1
40
1
40
1
10
-8.315690681645773
20
-13.032413676941825
30
0
10
-8.079126448852566
20
-12.858237660210216
30
0
10
-7.868008488660699
20
-12.63822862901148
30
0
10
-7.68233680107017
20
-12.372386583345612
30
0
0
SPLINE
5
59E
330
3AD
100
AcDbEntity
100
AcDbSpline
8
Layer_0
210
0
220
0
230
1
70
8
71
3
72
8
73
4
74
0
42
1e-7
43
1e-7
44
1e-10
40
0
40
0
40
0
40
0
40
1
40
1
40
1
40
1
10
-7.68233680107017
20
-12.372386583345612
30
0
10
-7.504192359214996
20
-12.117321939611536
30
0
10
-7.387704692808641
20
-11.860617175544478
30
0
10
-7.332873693512247
20
-11.602272307077808
30
0
0
SPLINE
5
59F
330
3AD
100
AcDbEntity
100
AcDbSpline
8
Layer_0
210
0
220
0
230
1
70
8
71
3
72
8
73
4
74
0
42
1e-7
43
1e-7
44
1e-10
40
0
40
0
40
0
40
0
40
1
40
1
40
1
40
1
10
-7.332873693512247
20
-11.602272307077808
30
0
10
-7.278042722256972
20
-11.343927478760007
30
0
10
-7.2862801116485665
20
-11.107008582188584
30
0
10
-7.357585861687031
20
-10.891515617363538
30
0
0
SPLINE
5
5A0
330
3AD
100
AcDbEntity
100
AcDbSpline
8
Layer_0
210
0
220
0
230
1
70
8
71
3
72
8
73
4
74
0
42
1e-7
43
1e-7
44
1e-10
40
0
40
0
40
0
40
0
40
1
40
1
40
1
40
1
10
-8.527012937774508
20
-12.303565520005963
30
0
10
-8.57366714315437
20
-12.35260373155919
30
0
10
-8.622702956851628
20
-12.401201186845565
30
0
10
-8.674120539461757
20
-12.449357773700612
30
0
0
SPLINE
5
5A1
330
3AD
100
AcDbEntity
100
AcDbSpline
8
Layer_0
210
0
220
0
230
1
70
8
71
3
72
8
73
4
74
0
42
1e-7
43
1e-7
44
1e-10
40
0
40
0
40
0
40
0
40
1
40
1
40
1
40
1
10
-8.674120539461757
20
-12.449357773700612
30
0
10
-8.844109661430377
20
-12.608565889019184
30
0
10
-9.023906559553888
20
-12.743553126790506
30
0
10
-9.213511233832293
20
-12.854319487014578
30
0
0
SPLINE
5
5A2
330
3AD
100
AcDbEntity
100
AcDbSpline
8
Layer_0
210
0
220
0
230
1
70
8
71
3
72
8
73
4
74
0
42
1e-7
43
1e-7
44
1e-10
40
0
40
0
40
0
40
0
40
1
40
1
40
1
40
1
10
-9.213511233832293
20
-12.854319487014578
30
0
10
-9.403115886866207
20
-12.96508570278684
30
0
10
-9.587559395566215
20
-13.034025232890055
30
0
10
-9.766841759932317
20
-13.061138077324223
30
0
0
SPLINE
5
5A3
330
3AD
100
AcDbEntity
100
AcDbSpline
8
Layer_0
210
0
220
0
230
1
70
8
71
3
72
8
73
4
74
0
42
1e-7
43
1e-7
44
1e-10
40
0
40
0
40
0
40
0
40
1
40
1
40
1
40
1
10
-9.766841759932317
20
-13.061138077324223
30
0
10
-9.946124397058371
20
-13.088250970189394
30
0
10
-10.104022238914625
20
-13.054134750263396
30
0
10
-10.240535782589982
20
-12.958789787168188
30
0
0
SPLINE
5
5A4
330
3AD
100
AcDbEntity
100
AcDbSpline
8
Layer_0
210
0
220
0
230
1
70
8
71
3
72
8
73
4
74
0
42
1e-7
43
1e-7
44
1e-10
40
0
40
0
40
0
40
0
40
1
40
1
40
1
40
1
10
-10.240535782589982
20
-12.958789787168188
30
0
10
-10.348309480716916
20
-12.883517554143578
30
0
10
-10.40799815271458
20
-12.791053338792304
30
0
10
-10.419601189329601
20
-12.681396610896929
30
0
0
SPLINE
5
5A5
330
3AD
100
AcDbEntity
100
AcDbSpline
8
Layer_0
210
0
220
0
230
1
70
8
71
3
72
8
73
4
74
0
42
1e-7
43
1e-7
44
1e-10
40
0
40
0
40
0
40
0
40
1
40
1
40
1
40
1
10
-10.419601189329601
20
-12.681396610896929
30
0
10
-10.43120432196543
20
-12.571740134517015
30
0
10
-10.393097048297497
20
-12.454043852221188
30
0
10
-10.305279368325802
20
-12.328307764009448
30
0
0
SPLINE
5
5A6
330
3AD
100
AcDbEntity
100
AcDbSpline
8
Layer_0
210
0
220
0
230
1
70
8
71
3
72
8
73
4
74
0
42
1e-7
43
1e-7
44
1e-10
40
0
40
0
40
0
40
0
40
1
40
1
40
1
40
1
10
-10.305279368325802
20
-12.328307764009448
30
0
10
-10.187352780189
20
-12.159462175134204
30
0
10
-10.040116676741262
20
-12.040484000478274
30
0
10
-9.863570785222633
20
-11.971373191610658
30
0
0
SPLINE
5
5A7
330
3AD
100
AcDbEntity
100
AcDbSpline
8
Layer_0
210
0
220
0
230
1
70
8
71
3
72
8
73
4
74
0
42
1e-7
43
1e-7
44
1e-10
40
0
40
0
40
0
40
0
40
1
40
1
40
1
40
1
10
-9.863570785222633
20
-11.971373191610658
30
0
10
-9.687025005868477
20
-11.90226254333852
30
0
10
-9.49705060194662
20
-11.886625926788232
30
0
10
-9.29364789464801
20
-11.924463117630845
30
0
0
SPLINE
5
5A8
330
3AD
100
AcDbEntity
100
AcDbSpline
8
Layer_0
210
0
220
0
230
1
70
8
71
3
72
8
73
4
74
0
42
1e-7
43
1e-7
44
1e-10
40
0
40
0
40
0
40
0
40
1
40
1
40
1
40
1
10
-9.29364789464801
20
-11.924463117630845
30
0
10
-9.09024510153024
20
-11.962300527701585
30
0
10
-8.884362367091365
20
-12.053982458626095
30
0
10
-8.675999691331388
20
-12.199508910404376
30
0
0
LINE
5
5A9
330
3AD
100
AcDbEntity
100
AcDbLine
8
Layer_0
10
-8.675999691331388
20
-12.199508910404376
30
0
11
-8.527012937774508
21
-12.303565520005963
31
0
0
SPLINE
5
5AA
330
3AD
100
AcDbEntity
100
AcDbSpline
8
Layer_0
210
0
220
0
230
1
70
8
71
3
72
8
73
4
74
0
42
1e-7
43
1e-7
44
1e-10
40
0
40
0
40
0
40
0
40
1
40
1
40
1
40
1
10
-10.46407542027646
20
-10.134319992754286
30
0
10
-10.260786015011524
20
-9.958075698873802
30
0
10
-10.110267402302231
20
-9.816672414485144
30
0
10
-10.012519582148578
20
-9.71011013958831
30
0
0
SPLINE
5
5AB
330
3AD
100
AcDbEntity
100
AcDbSpline
8
Layer_0
210
0
220
0
230
1
70
8
71
3
72
8
73
4
74
0
42
1e-7
43
1e-7
44
1e-10
40
0
40
0
40
0
40
0
40
1
40
1
40
1
40
1
10
-10.012519582148578
20
-9.71011013958831
30
0
10
-9.926620004019878
20
-9.616464527402956
30
0
10
-9.852902515282087
20
-9.527996532174349
30
0
10
-9.791367115935211
20
-9.44470615390249
30
0
0
SPLINE
5
5AC
330
3AD
100
AcDbEntity
100
AcDbSpline
8
Layer_0
210
0
220
0
230
1
70
8
71
3
72
8
73
4
74
0
42
1e-7
43
1e-7
44
1e-10
40
0
40
0
40
0
40
0
40
1
40
1
40
1
40
1
10
-9.791367115935211
20
-9.44470615390249
30
0
10
-9.729831774746025
20
-9.361415766586205
30
0
10
-9.689225087246978
20
-9.278252991089309
30
0
10
-9.669547194807604
20
-9.195217764189856
30
0
0
SPLINE
5
5AD
330
3AD
100
AcDbEntity
100
AcDbSpline
8
Layer_0
210
0
220
0
230
1
70
8
71
3
72
8
73
4
74
0
42
1e-7
43
1e-7
44
1e-10
40
0
40
0
40
0
40
0
40
1
40
1
40
1
40
1
10
-9.669547194807604
20
-9.195217764189856
30
0
10
-9.649869292713031
20
-9.112182526764542
30
0
10
-9.659126236919771
20
-9.023417543635386
30
0
10
-9.697318027427823
20
-8.928922814802391
30
0
0
SPLINE
5
5AE
330
3AD
100
AcDbEntity
100
AcDbSpline
8
Layer_0
210
0
220
0
230
1
70
8
71
3
72
8
73
4
74
0
42
1e-7
43
1e-7
44
1e-10
40
0
40
0
40
0
40
0
40
1
40
1
40
1
40
1
10
-9.697318027427823
20
-8.928922814802391
30
0
10
-9.735509816556561
20
-8.834428084465701
30
0
10
-9.81138310225631
20
-8.729153552117682
30
0
10
-9.92493788452707
20
-8.61309921775833
30
0
0
SPLINE
5
5AF
330
3AD
100
AcDbEntity
100
AcDbSpline
8
Layer_0
210
0
220
0
230
1
70
8
71
3
72
8
73
4
74
0
42
1e-7
43
1e-7
44
1e-10
40
0
40
0
40
0
40
0
40
1
40
1
40
1
40
1
10
-9.92493788452707
20
-8.61309921775833
30
0
10
-9.986873914813657
20
-8.687102775815664
30
0
10
-10.048743182216205
20
-8.762654130888205
30
0
10
-10.110545686734714
20
-8.839753282975954
30
0
0
SPLINE
5
5B0
330
3AD
100
AcDbEntity
100
AcDbSpline
8
Layer_0
210
0
220
0
230
1
70
8
71
3
72
8
73
4
74
0
42
1e-7
43
1e-7
44
1e-10
40
0
40
0
40
0
40
0
40
1
40
1
40
1
40
1
10
-10.110545686734714
20
-8.839753282975954
30
0
10
-10.172348167194112
20
-8.916852457132729
30
0
10
-10.237313067609884
20
-8.992537338210976
30
0
10
-10.305440332356463
20
-9.066808010462108
30
0
0
SPLINE
5
5B1
330
3AD
100
AcDbEntity
100
AcDbSpline
8
Layer_0
210
0
220
0
230
1
70
8
71
3
72
8
73
4
74
0
42
1e-7
43
1e-7
44
1e-10
40
0
40
0
40
0
40
0
40
1
40
1
40
1
40
1
10
-10.305440332356463
20
-9.066808010462108
30
0
10
-10.595721688173134
20
-9.383265621356522
30
0
10
-10.903496255800102
20
-9.6896231677987
30
0
10
-11.228764107414698
20
-9.985880583581569
30
0
0
SPLINE
5
5B2
330
3AD
100
AcDbEntity
100
AcDbSpline
8
Layer_0
210
0
220
0
230
1
70
8
71
3
72
8
73
4
74
0
42
1e-7
43
1e-7
44
1e-10
40
0
40
0
40
0
40
0
40
1
40
1
40
1
40
1
10
-11.228764107414698
20
-9.985880583581569
30
0
10
-11.554032071364507
20
-10.282138073531852
30
0
10
-11.870680914829181
20
-10.562516792146196
30
0
10
-12.178710637808724
20
-10.8270167394246
30
0
0
SPLINE
5
5B3
330
3AD
100
AcDbEntity
100
AcDbSpline
8
Layer_0
210
0
220
0
230
1
70
8
71
3
72
8
73
4
74
0
42
1e-7
43
1e-7
44
1e-10
40
0
40
0
40
0
40
0
40
1
40
1
40
1
40
1
10
-12.178710637808724
20
-10.8270167394246
30
0
10
-12.486740332748987
20
-11.091516801028302
30
0
10
-12.764882413691677
20
-11.329916343761306
30
0
10
-13.013136868696286
20
-11.542215644392432
30
0
0
SPLINE
5
5B4
330
3AD
100
AcDbEntity
100
AcDbSpline
8
Layer_0
210
0
220
0
230
1
70
8
71
3
72
8
73
4
74
0
42
1e-7
43
1e-7
44
1e-10
40
0
40
0
40
0
40
0
40
1
40
1
40
1
40
1
10
-13.013136868696286
20
-11.542215644392432
30
0
10
-13.261391524312213
20
-11.754515115427413
30
0
10
-13.453646023073397
20
-11.934935420944816
30
0
10
-13.589900364979837
20
-12.08347656094464
30
0
0
SPLINE
5
5B5
330
3AD
100
AcDbEntity
100
AcDbSpline
8
Layer_0
210
0
220
0
230
1
70
8
71
3
72
8
73
4
74
0
42
1e-7
43
1e-7
44
1e-10
40
0
40
0
40
0
40
0
40
1
40
1
40
1
40
1
10
-13.589900364979837
20
-12.08347656094464
30
0
10
-13.72911689980667
20
-12.235247010976995
30
0
10
-13.833741602688646
20
-12.380097802837893
30
0
10
-13.903774545803094
20
-12.51802887032025
30
0
0
SPLINE
5
5B6
330
3AD
100
AcDbEntity
100
AcDbSpline
8
Layer_0
210
0
220
0
230
1
70
8
71
3
72
8
73
4
74
0
42
1e-7
43
1e-7
44
1e-10
40
0
40
0
40
0
40
0
40
1
40
1
40
1
40
1
10
-13.903774545803094
20
-12.51802887032025
30
0
10
-13.97380720799046
20
-12.655959486649765
30
0
10
-14.006559203246644
20
-12.795383349691754
30
0
10
-14.002030531571645
20
-12.93630045944622
30
0
0
SPLINE
5
5B7
330
3AD
100
AcDbEntity
100
AcDbSpline
8
Layer_0
210
0
220
0
230
1
70
8
71
3
72
8
73
4
74
0
42
1e-7
43
1e-7
44
1e-10
40
0
40
0
40
0
40
0
40
1
40
1
40
1
40
1
10
-14.002030531571645
20
-12.93630045944622
30
0
10
-13.997501859896646
20
-13.077217569200688
30
0
10
-13.954617811663786
20
-13.22655915667272
30
0
10
-13.873378386873066
20
-13.38432522186232
30
0
0
SPLINE
5
5B8
330
3AD
100
AcDbEntity
100
AcDbSpline
8
Layer_0
210
0
220
0
230
1
70
8
71
3
72
8
73
4
74
0
42
1e-7
43
1e-7
44
1e-10
40
0
40
0
40
0
40
0
40
1
40
1
40
1
40
1
10
-13.873378386873066
20
-13.38432522186232
30
0
10
-13.848322533583538
20
-13.318115584218576
30
0
10
-13.795466891582524
20
-13.2313227807394
30
0
10
-13.714811846171978
20
-13.123947521257598
30
0
0
SPLINE
5
5B9
330
3AD
100
AcDbEntity
100
AcDbSpline
8
Layer_0
210
0
220
0
230
1
70
8
71
3
72
8
73
4
74
0
42
1e-7
43
1e-7
44
1e-10
40
0
40
0
40
0
40
0
40
1
40
1
40
1
40
1
10
-13.714811846171978
20
-13.123947521257598
30
0
10
-13.634156696386556
20
-13.016572003095835
30
0
10
-13.533106991461091
20
-12.896686467914165
30
0
10
-13.411662731395584
20
-12.76429091571259
30
0
0
SPLINE
5
5BA
330
3AD
100
AcDbEntity
100
AcDbSpline
8
Layer_0
210
0
220
0
230
1
70
8
71
3
72
8
73
4
74
0
42
1e-7
43
1e-7
44
1e-10
40
0
40
0
40
0
40
0
40
1
40
1
40
1
40
1
10
-13.411662731395584
20
-12.76429091571259
30
0
10
-13.230977261205313
20
-12.567312049953609
30
0
10
-13.013812531855029
20
-12.353252756334946
30
0
10
-12.76016820633909
20
-12.122112812354358
30
0
0
SPLINE
5
5BB
330
3AD
100
AcDbEntity
100
AcDbSpline
8
Layer_0
210
0
220
0
230
1
70
8
71
3
72
8
73
4
74
0
42
1e-7
43
1e-7
44
1e-10
40
0
40
0
40
0
40
0
40
1
40
1
40
1
40
1
10
-12.76016820633909
20
-12.122112812354358
30
0
10
-12.506523768487936
20
-11.890972794206354
30
0
10
-12.241437792461095
20
-11.65546241741753
30
0
10
-11.964910278258568
20
-11.415581681987888
30
0
0
SPLINE
5
5BC
330
3AD
100
AcDbEntity
100
AcDbSpline
8
Layer_0
210
0
220
0
230
1
70
8
71
3
72
8
73
4
74
0
42
1e-7
43
1e-7
44
1e-10
40
0
40
0
40
0
40
0
40
1
40
1
40
1
40
1
10
-11.964910278258568
20
-11.415581681987888
30
0
10
-11.68838271593782
20
-11.175700990696297
30
0
10
-11.419934055745877
20
-10.946248300530362
30
0
10
-11.159564297682733
20
-10.727223611490086
30
0
0
SPLINE
5
5BD
330
3AD
100
AcDbEntity
100
AcDbSpline
8
Layer_0
210
0
220
0
230
1
70
8
71
3
72
8
73
4
74
0
42
1e-7
43
1e-7
44
1e-10
40
0
40
0
40
0
40
0
40
1
40
1
40
1
40
1
10
-11.159564297682733
20
-10.727223611490086
30
0
10
-10.89919453961959
20
-10.50819892244981
30
0
10
-10.667364913817499
20
-10.31056438287121
30
0
10
-10.46407542027646
20
-10.134319992754286
30
0
0
SPLINE
5
5BE
330
3AD
100
AcDbEntity
100
AcDbSpline
8
Layer_0
210
0
220
0
230
1
70
8
71
3
72
8
73
4
74
0
42
1e-7
43
1e-7
44
1e-10
40
0
40
0
40
0
40
0
40
1
40
1
40
1
40
1
10
4.571925640106201
20
19.474109649658203
30
0
10
4.847076892852783
20
20.093507766723633
30
0
10
5
20
20.779035568237305
30
0
10
5
20
21.5
30
0
0
SPLINE
5
5BF
330
3AD
100
AcDbEntity
100
AcDbSpline
8
Layer_0
210
0
220
0
230
1
70
8
71
3
72
8
73
4
74
0
42
1e-7
43
1e-7
44
1e-10
40
0
40
0
40
0
40
0
40
1
40
1
40
1
40
1
10
5
20
21.5
30
0
10
5
20
24.25957489013672
30
0
10
2.759575128555298
20
26.5
30
0
10
0
20
26.5
30
0
0
SPLINE
5
5C0
330
3AD
100
AcDbEntity
100
AcDbSpline
8
Layer_0
210
0
220
0
230
1
70
8
71
3
72
8
73
4
74
0
42
1e-7
43
1e-7
44
1e-10
40
0
40
0
40
0
40
0
40
1
40
1
40
1
40
1
10
0
20
26.5
30
0
10
-2.759575128555298
20
26.5
30
0
10
-5
20
24.25957489013672
30
0
10
-5
20
21.5
30
0
0
SPLINE
5
5C1
330
3AD
100
AcDbEntity
100
AcDbSpline
8
Layer_0
210
0
220
0
230
1
70
8
71
3
72
8
73
4
74
0
42
1e-7
43
1e-7
44
1e-10
40
0
40
0
40
0
40
0
40
1
40
1
40
1
40
1
10
-5
20
21.5
30
0
10
-5
20
20.779035568237305
30
0
10
-4.847077369689941
20
20.093507766723633
30
0
10
-4.571926116943359
20
19.474109649658203
30
0
0
SPLINE
5
5C2
330
3AD
100
AcDbEntity
100
AcDbSpline
8
Layer_0
210
0
220
0
230
1
70
8
71
3
72
8
73
4
74
0
42
1e-7
43
1e-7
44
1e-10
40
0
40
0
40
0
40
0
40
1
40
1
40
1
40
1
10
-4.571926116943359
20
19.474109649658203
30
0
10
-5.191884994506836
20
19.32890510559082
30
0
10
-5.80078125
20
19.154827117919922
30
0
10
-6.397116184234619
20
18.953371047973633
30
0
0
SPLINE
5
5C3
330
3AD
100
AcDbEntity
100
AcDbSpline
8
Layer_0
210
0
220
0
230
1
70
8
71
3
72
8
73
4
74
0
42
1e-7
43
1e-7
44
1e-10
40
0
40
0
40
0
40
0
40
1
40
1
40
1
40
1
10
-6.397116184234619
20
18.953371047973633
30
0
10
-6.70265531539917
20
19.341665267944336
30
0
10
-7.085668563842773
20
19.679370880126953
30
0
10
-7.539419174194336
20
19.941343307495117
30
0
0
SPLINE
5
5C4
330
3AD
100
AcDbEntity
100
AcDbSpline
8
Layer_0
210
0
220
0
230
1
70
8
71
3
72
8
73
4
74
0
42
1e-7
43
1e-7
44
1e-10
40
0
40
0
40
0
40
0
40
1
40
1
40
1
40
1
10
-7.539419174194336
20
19.941343307495117
30
0
10
-9.451309204101562
20
21.04517364501953
30
0
10
-11.899690628051758
20
20.389131546020508
30
0
10
-13.003520965576172
20
18.47724151611328
30
0
0
SPLINE
5
5C5
330
3AD
100
AcDbEntity
100
AcDbSpline
8
Layer_0
210
0
220
0
230
1
70
8
71
3
72
8
73
4
74
0
42
1e-7
43
1e-7
44
1e-10
40
0
40
0
40
0
40
0
40
1
40
1
40
1
40
1
10
-13.003520965576172
20
18.47724151611328
30
0
10
-13.643261909484863
20
17.369176864624023
30
0
10
-13.691869735717773
20
16.080907821655273
30
0
10
-13.247465133666992
20
14.978621482849121
30
0
0
SPLINE
5
5C6
330
3AD
100
AcDbEntity
100
AcDbSpline
8
Layer_0
210
0
220
0
230
1
70
8
71
3
72
8
73
4
74
0
42
1e-7
43
1e-7
44
1e-10
40
0
40
0
40
0
40
0
40
1
40
1
40
1
40
1
10
-13.247465133666992
20
14.978621482849121
30
0
10
-16.451871871948242
20
12.141962051391602
30
0
10
-18.740755081176758
20
8.29394245147705
30
0
10
-19.61195945739746
20
3.936721086502075
30
0
0
SPLINE
5
5C7
330
3AD
100
AcDbEntity
100
AcDbSpline
8
Layer_0
210
0
220
0
230
1
70
8
71
3
72
8
73
4
74
0
42
1e-7
43
1e-7
44
1e-10
40
0
40
0
40
0
40
0
40
1
40
1
40
1
40
1
10
-19.61195945739746
20
3.936721086502075
30
0
10
-20.101238250732422
20
3.8663177490234375
30
0
10
-20.585453033447266
20
3.7034409046173096
30
0
10
-21.039419174194336
20
3.441343069076538
30
0
0
SPLINE
5
5C8
330
3AD
100
AcDbEntity
100
AcDbSpline
8
Layer_0
210
0
220
0
230
1
70
8
71
3
72
8
73
4
74
0
42
1e-7
43
1e-7
44
1e-10
40
0
40
0
40
0
40
0
40
1
40
1
40
1
40
1
10
-21.039419174194336
20
3.441343069076538
30
0
10
-22.951309204101562
20
2.337512969970703
30
0
10
-23.607351303100586
20
-0.11086893826723099
30
0
10
-22.503520965576172
20
-2.022758722305298
30
0
0
SPLINE
5
5C9
330
3AD
100
AcDbEntity
100
AcDbSpline
8
Layer_0
210
0
220
0
230
1
70
8
71
3
72
8
73
4
74
0
42
1e-7
43
1e-7
44
1e-10
40
0
40
0
40
0
40
0
40
1
40
1
40
1
40
1
10
-22.503520965576172
20
-2.022758722305298
30
0
10
-21.865081787109375
20
-3.128566265106201
30
0
10
-20.776853561401367
20
-3.814256429672241
30
0
10
-19.6027889251709
20
-3.9823079109191895
30
0
0
SPLINE
5
5CA
330
3AD
100
AcDbEntity
100
AcDbSpline
8
Layer_0
210
0
220
0
230
1
70
8
71
3
72
8
73
4
74
0
42
1e-7
43
1e-7
44
1e-10
40
0
40
0
40
0
40
0
40
1
40
1
40
1
40
1
10
-19.6027889251709
20
-3.9823079109191895
30
0
10
-18.721580505371094
20
-8.336554527282715
30
0
10
-16.42406463623047
20
-12.179710388183594
30
0
10
-13.212599754333496
20
-15.009414672851562
30
0
0
SPLINE
5
5CB
330
3AD
100
AcDbEntity
100
AcDbSpline
8
Layer_0
210
0
220
0
230
1
70
8
71
3
72
8
73
4
74
0
42
1e-7
43
1e-7
44
1e-10
40
0
40
0
40
0
40
0
40
1
40
1
40
1
40
1
10
-13.212599754333496
20
-15.009414672851562
30
0
10
-13.397965431213379
20
-15.470163345336914
30
0
10
-13.5
20
-15.973259925842285
30
0
10
-13.5
20
-16.5
30
0
0
SPLINE
5
5CC
330
3AD
100
AcDbEntity
100
AcDbSpline
8
Layer_0
210
0
220
0
230
1
70
8
71
3
72
8
73
4
74
0
42
1e-7
43
1e-7
44
1e-10
40
0
40
0
40
0
40
0
40
1
40
1
40
1
40
1
10
-13.5
20
-16.5
30
0
10
-13.5
20
-18.707660675048828
30
0
10
-11.707659721374512
20
-20.5
30
0
10
-9.5
20
-20.5
30
0
0
SPLINE
5
5CD
330
3AD
100
AcDbEntity
100
AcDbSpline
8
Layer_0
210
0
220
0
230
1
70
8
71
3
72
8
73
4
74
0
42
1e-7
43
1e-7
44
1e-10
40
0
40
0
40
0
40
0
40
1
40
1
40
1
40
1
10
-9.5
20
-20.5
30
0
10
-8.223368644714355
20
-20.5
30
0
10
-7.085620403289795
20
-19.90064239501953
30
0
10
-6.353036403656006
20
-18.968204498291016
30
0
0
SPLINE
5
5CE
330
3AD
100
AcDbEntity
100
AcDbSpline
8
Layer_0
210
0
220
0
230
1
70
8
71
3
72
8
73
4
74
0
42
1e-7
43
1e-7
44
1e-10
40
0
40
0
40
0
40
0
40
1
40
1
40
1
40
1
10
-6.353036403656006
20
-18.968204498291016
30
0
10
-4.356740951538086
20
-19.637388229370117
30
0
10
-2.2203824520111084
20
-20
30
0
10
0
20
-20
30
0
0
SPLINE
5
5CF
330
3AD
100
AcDbEntity
100
AcDbSpline
8
Layer_0
210
0
220
0
230
1
70
8
71
3
72
8
73
4
74
0
42
1e-7
43
1e-7
44
1e-10
40
0
40
0
40
0
40
0
40
1
40
1
40
1
40
1
10
0
20
-20
30
0
10
2.2367334365844727
20
-20
30
0
10
4.388200759887695
20
-19.632028579711914
30
0
10
6.397116184234619
20
-18.953371047973633
30
0
0
SPLINE
5
5D0
330
3AD
100
AcDbEntity
100
AcDbSpline
8
Layer_0
210
0
220
0
230
1
70
8
71
3
72
8
73
4
74
0
42
1e-7
43
1e-7
44
1e-10
40
0
40
0
40
0
40
0
40
1
40
1
40
1
40
1
10
6.397116184234619
20
-18.953371047973633
30
0
10
6.70265531539917
20
-19.341665267944336
30
0
10
7.085668563842773
20
-19.679370880126953
30
0
10
7.539419174194336
20
-19.941343307495117
30
0
0
SPLINE
5
5D1
330
3AD
100
AcDbEntity
100
AcDbSpline
8
Layer_0
210
0
220
0
230
1
70
8
71
3
72
8
73
4
74
0
42
1e-7
43
1e-7
44
1e-10
40
0
40
0
40
0
40
0
40
1
40
1
40
1
40
1
10
7.539419174194336
20
-19.941343307495117
30
0
10
9.451309204101562
20
-21.04517364501953
30
0
10
11.899690628051758
20
-20.389131546020508
30
0
10
13.003520965576172
20
-18.47724151611328
30
0
0
SPLINE
5
5D2
330
3AD
100
AcDbEntity
100
AcDbSpline
8
Layer_0
210
0
220
0
230
1
70
8
71
3
72
8
73
4
74
0
42
1e-7
43
1e-7
44
1e-10
40
0
40
0
40
0
40
0
40
1
40
1
40
1
40
1
10
13.003520965576172
20
-18.47724151611328
30
0
10
13.643261909484863
20
-17.369176864624023
30
0
10
13.691869735717773
20
-16.080907821655273
30
0
10
13.247465133666992
20
-14.978621482849121
30
0
0
SPLINE
5
5D3
330
3AD
100
AcDbEntity
100
AcDbSpline
8
Layer_0
210
0
220
0
230
1
70
8
71
3
72
8
73
4
74
0
42
1e-7
43
1e-7
44
1e-10
40
0
40
0
40
0
40
0
40
1
40
1
40
1
40
1
10
13.247465133666992
20
-14.978621482849121
30
0
10
16.451871871948242
20
-12.141962051391602
30
0
10
18.740755081176758
20
-8.29394245147705
30
0
10
19.61195945739746
20
-3.936721086502075
30
0
0
SPLINE
5
5D4
330
3AD
100
AcDbEntity
100
AcDbSpline
8
Layer_0
210
0
220
0
230
1
70
8
71
3
72
8
73
4
74
0
42
1e-7
43
1e-7
44
1e-10
40
0
40
0
40
0
40
0
40
1
40
1
40
1
40
1
10
19.61195945739746
20
-3.936721086502075
30
0
10
20.101238250732422
20
-3.8663177490234375
30
0
10
20.585453033447266
20
-3.7034409046173096
30
0
10
21.039419174194336
20
-3.441343069076538
30
0
0
SPLINE
5
5D5
330
3AD
100
AcDbEntity
100
AcDbSpline
8
Layer_0
210
0
220
0
230
1
70
8
71
3
72
8
73
4
74
0
42
1e-7
43
1e-7
44
1e-10
40
0
40
0
40
0
40
0
40
1
40
1
40
1
40
1
10
21.039419174194336
20
-3.441343069076538
30
0
10
22.951309204101562
20
-2.337512969970703
30
0
10
23.607351303100586
20
0.11086893826723099
30
0
10
22.503520965576172
20
2.022758722305298
30
0
0
SPLINE
5
5D6
330
3AD
100
AcDbEntity
100
AcDbSpline
8
Layer_0
210
0
220
0
230
1
70
8
71
3
72
8
73
4
74
0
42
1e-7
43
1e-7
44
1e-10
40
0
40
0
40
0
40
0
40
1
40
1
40
1
40
1
10
22.503520965576172
20
2.022758722305298
30
0
10
21.865081787109375
20
3.128566265106201
30
0
10
20.776853561401367
20
3.814256429672241
30
0
10
19.6027889251709
20
3.9823079109191895
30
0
0
SPLINE
5
5D7
330
3AD
100
AcDbEntity
100
AcDbSpline
8
Layer_0
210
0
220
0
230
1
70
8
71
3
72
8
73
4
74
0
42
1e-7
43
1e-7
44
1e-10
40
0
40
0
40
0
40
0
40
1
40
1
40
1
40
1
10
19.6027889251709
20
3.9823079109191895
30
0
10
18.721580505371094
20
8.336554527282715
30
0
10
16.42406463623047
20
12.179710388183594
30
0
10
13.212599754333496
20
15.009414672851562
30
0
0
SPLINE
5
5D8
330
3AD
100
AcDbEntity
100
AcDbSpline
8
Layer_0
210
0
220
0
230
1
70
8
71
3
72
8
73
4
74
0
42
1e-7
43
1e-7
44
1e-10
40
0
40
0
40
0
40
0
40
1
40
1
40
1
40
1
10
13.212599754333496
20
15.009414672851562
30
0
10
13.397965431213379
20
15.470163345336914
30
0
10
13.5
20
15.973259925842285
30
0
10
13.5
20
16.5
30
0
0
SPLINE
5
5D9
330
3AD
100
AcDbEntity
100
AcDbSpline
8
Layer_0
210
0
220
0
230
1
70
8
71
3
72
8
73
4
74
0
42
1e-7
43
1e-7
44
1e-10
40
0
40
0
40
0
40
0
40
1
40
1
40
1
40
1
10
13.5
20
16.5
30
0
10
13.5
20
18.707660675048828
30
0
10
11.707659721374512
20
20.5
30
0
10
9.5
20
20.5
30
0
0
SPLINE
5
5DA
330
3AD
100
AcDbEntity
100
AcDbSpline
8
Layer_0
210
0
220
0
230
1
70
8
71
3
72
8
73
4
74
0
42
1e-7
43
1e-7
44
1e-10
40
0
40
0
40
0
40
0
40
1
40
1
40
1
40
1
10
9.5
20
20.5
30
0
10
8.223368644714355
20
20.5
30
0
10
7.085620403289795
20
19.90064239501953
30
0
10
6.353036403656006
20
18.968204498291016
30
0
0
SPLINE
5
5DB
330
3AD
100
AcDbEntity
100
AcDbSpline
8
Layer_0
210
0
220
0
230
1
70
8
71
3
72
8
73
4
74
0
42
1e-7
43
1e-7
44
1e-10
40
0
40
0
40
0
40
0
40
1
40
1
40
1
40
1
10
6.353036403656006
20
18.968204498291016
30
0
10
5.770784378051758
20
19.16338348388672
30
0
10
5.17661714553833
20
19.332481384277344
30
0
10
4.571925640106201
20
19.474109649658203
30
0
0
SPLINE
5
5DC
330
3AD
100
AcDbEntity
100
AcDbSpline
8
Layer_0
210
0
220
0
230
1
70
8
71
3
72
8
73
4
74
0
42
1e-7
43
1e-7
44
1e-10
40
0
40
0
40
0
40
0
40
1
40
1
40
1
40
1
10
2
20
21.5
30
0
10
2
20
20.396169951012
30
0
10
1.1038300489880002
20
19.5
30
0
10
1.2246467991473532e-16
20
19.5
30
0
0
SPLINE
5
5DD
330
3AD
100
AcDbEntity
100
AcDbSpline
8
Layer_0
210
0
220
0
230
1
70
8
71
3
72
8
73
4
74
0
42
1e-7
43
1e-7
44
1e-10
40
0
40
0
40
0
40
0
40
1
40
1
40
1
40
1
10
1.2246467991473532e-16
20
19.5
30
0
10
-1.1038300489879997
20
19.5
30
0
10
-1.9999999999999998
20
20.396169951012
30
0
10
-2
20
21.5
30
0
0
SPLINE
5
5DE
330
3AD
100
AcDbEntity
100
AcDbSpline
8
Layer_0
210
0
220
0
230
1
70
8
71
3
72
8
73
4
74
0
42
1e-7
43
1e-7
44
1e-10
40
0
40
0
40
0
40
0
40
1
40
1
40
1
40
1
10
-2
20
21.5
30
0
10
-2
20
22.603830048988
30
0
10
-1.1038300489880004
20
23.5
30
0
10
-3.6739403974420594e-16
20
23.5
30
0
0
SPLINE
5
5DF
330
3AD
100
AcDbEntity
100
AcDbSpline
8
Layer_0
210
0
220
0
230
1
70
8
71
3
72
8
73
4
74
0
42
1e-7
43
1e-7
44
1e-10
40
0
40
0
40
0
40
0
40
1
40
1
40
1
40
1
10
-3.6739403974420594e-16
20
23.5
30
0
10
1.1038300489879995
20
23.5
30
0
10
2
20
22.603830048988
30
0
10
2
20
21.5
30
0
0
SPLINE
5
5E1
330
3AD
100
AcDbEntity
100
AcDbSpline
8
Layer_1
210
0
220
0
230
1
70
8
71
3
72
8
73
4
74
0
42
1e-7
43
1e-7
44
1e-10
40
0
40
0
40
0
40
0
40
1
40
1
40
1
40
1
10
-7.179916317991633
20
-4.93661087866109
30
0
10
-6.966527196652721
20
-5.060042351758631
30
0
10
-6.707113002633451
20
-5.121757322175734
30
0
10
-6.401673640167365
20
-5.121757322175734
30
0
0
SPLINE
5
5E2
330
3AD
100
AcDbEntity
100
AcDbSpline
8
Layer_1
210
0
220
0
230
1
70
8
71
3
72
8
73
4
74
0
42
1e-7
43
1e-7
44
1e-10
40
0
40
0
40
0
40
0
40
1
40
1
40
1
40
1
10
-6.401673640167365
20
-5.121757322175734
30
0
10
-5.93723849372385
20
-5.121757322175734
30
0
10
-5.342050145360717
20
-5.006695071423904
30
0
10
-4.61610878661088
20
-4.776569037656905
30
0
0
SPLINE
5
5E3
330
3AD
100
AcDbEntity
100
AcDbSpline
8
Layer_1
210
0
220
0
230
1
70
8
71
3
72
8
73
4
74
0
42
1e-7
43
1e-7
44
1e-10
40
0
40
0
40
0
40
0
40
1
40
1
40
1
40
1
10
-4.61610878661088
20
-4.776569037656905
30
0
10
-3.946578915647883
20
-4.564326049293935
30
0
10
-3.1827332564477646
20
-4.259546868870949
30
0
10
-2.324571809010526
20
-3.8622314963879463
30
0
0
SPLINE
5
5E4
330
3AD
100
AcDbEntity
100
AcDbSpline
8
Layer_1
210
0
220
0
230
1
70
8
71
3
72
8
73
4
74
0
42
1e-7
43
1e-7
44
1e-10
40
0
40
0
40
0
40
0
40
1
40
1
40
1
40
1
10
-2.324571809010526
20
-3.8622314963879463
30
0
10
-2.1568589469877746
20
-3.9619757105615863
30
0
10
-1.9813740622548384
20
-4.051273719436455
30
0
10
-1.7981171548117159
20
-4.130125523012554
30
0
0
SPLINE
5
5E5
330
3AD
100
AcDbEntity
100
AcDbSpline
8
Layer_1
210
0
220
0
230
1
70
8
71
3
72
8
73
4
74
0
42
1e-7
43
1e-7
44
1e-10
40
0
40
0
40
0
40
0
40
1
40
1
40
1
40
1
10
-1.7981171548117159
20
-4.130125523012554
30
0
10
-1.2730125523012554
20
-4.356066945606696
30
0
10
-0.7112970711297073
20
-4.469037656903767
30
0
10
-0.11297071129707116
20
-4.469037656903767
30
0
0
SPLINE
5
5E6
330
3AD
100
AcDbEntity
100
AcDbSpline
8
Layer_1
210
0
220
0
230
1
70
8
71
3
72
8
73
4
74
0
42
1e-7
43
1e-7
44
1e-10
40
0
40
0
40
0
40
0
40
1
40
1
40
1
40
1
10
-0.11297071129707116
20
-4.469037656903767
30
0
10
0.485355648535565
20
-4.469037656903767
30
0
10
1.0470711297071134
20
-4.356066945606696
30
0
10
1.5721757322175736
20
-4.130125523012554
30
0
0
SPLINE
5
5E7
330
3AD
100
AcDbEntity
100
AcDbSpline
8
Layer_1
210
0
220
0
230
1
70
8
71
3
72
8
73
4
74
0
42
1e-7
43
1e-7
44
1e-10
40
0
40
0
40
0
40
0
40
1
40
1
40
1
40
1
10
1.5721757322175736
20
-4.130125523012554
30
0
10
2.097280079350811
20
-3.9041841004184112
30
0
10
2.558577150480519
20
-3.5924688746240854
30
0
10
2.9560669456066955
20
-3.1949790794979087
30
0
0
SPLINE
5
5E8
330
3AD
100
AcDbEntity
100
AcDbSpline
8
Layer_1
210
0
220
0
230
1
70
8
71
3
72
8
73
4
74
0
42
1e-7
43
1e-7
44
1e-10
40
0
40
0
40
0
40
0
40
1
40
1
40
1
40
1
10
2.9560669456066955
20
-3.1949790794979087
30
0
10
3.3535564853556497
20
-2.7974895397489545
30
0
10
3.664225941422595
20
-2.3361924686192475
30
0
10
3.888075313807532
20
-1.811087866108787
30
0
0
SPLINE
5
5E9
330
3AD
100
AcDbEntity
100
AcDbSpline
8
Layer_1
210
0
220
0
230
1
70
8
71
3
72
8
73
4
74
0
42
1e-7
43
1e-7
44
1e-10
40
0
40
0
40
0
40
0
40
1
40
1
40
1
40
1
10
3.888075313807532
20
-1.811087866108787
30
0
10
4.111924430815247
20
-1.2859835189755495
30
0
10
4.223849372384938
20
-0.7242680378040014
30
0
10
4.223849372384938
20
-0.12594142259414254
30
0
0
SPLINE
5
5EA
330
3AD
100
AcDbEntity
100
AcDbSpline
8
Layer_1
210
0
220
0
230
1
70
8
71
3
72
8
73
4
74
0
42
1e-7
43
1e-7
44
1e-10
40
0
40
0
40
0
40
0
40
1
40
1
40
1
40
1
10
4.223849372384938
20
-0.12594142259414254
30
0
10
4.223849372384938
20
-0.10288775456001596
30
0
10
4.223683121812893
20
-0.07988924800601488
30
0
10
4.223350620668803
20
-0.056944370668802535
30
0
0
SPLINE
5
5EB
330
3AD
100
AcDbEntity
100
AcDbSpline
8
Layer_1
210
0
220
0
230
1
70
8
71
3
72
8
73
4
74
0
42
1e-7
43
1e-7
44
1e-10
40
0
40
0
40
0
40
0
40
1
40
1
40
1
40
1
10
4.223350620668803
20
-0.056944370668802535
30
0
10
4.320594181076753
20
0.012522319969272791
30
0
10
4.415948716167627
20
0.08157351186584705
30
0
10
4.509414225941423
20
0.15020920502092028
30
0
0
SPLINE
5
5EC
330
3AD
100
AcDbEntity
100
AcDbSpline
8
Layer_1
210
0
220
0
230
1
70
8
71
3
72
8
73
4
74
0
42
1e-7
43
1e-7
44
1e-10
40
0
40
0
40
0
40
0
40
1
40
1
40
1
40
1
10
4.509414225941423
20
0.15020920502092028
30
0
10
5.478033472803348
20
0.8615062761506275
30
0
10
6.218619246861926
20
1.5037656903765688
30
0
10
6.731171548117156
20
2.0769874476987447
30
0
0
SPLINE
5
5ED
330
3AD
100
AcDbEntity
100
AcDbSpline
8
Layer_1
210
0
220
0
230
1
70
8
71
3
72
8
73
4
74
0
42
1e-7
43
1e-7
44
1e-10
40
0
40
0
40
0
40
0
40
1
40
1
40
1
40
1
10
6.731171548117156
20
2.0769874476987447
30
0
10
7.243724360126832
20
2.6502090773323093
30
0
10
7.500000000000001
20
3.1271965250310543
30
0
10
7.500000000000001
20
3.5079497907949797
30
0
0
SPLINE
5
5EE
330
3AD
100
AcDbEntity
100
AcDbSpline
8
Layer_1
210
0
220
0
230
1
70
8
71
3
72
8
73
4
74
0
42
1e-7
43
1e-7
44
1e-10
40
0
40
0
40
0
40
0
40
1
40
1
40
1
40
1
10
7.500000000000001
20
3.5079497907949797
30
0
10
7.500000000000001
20
3.767363889047791
30
0
10
7.398535054099113
20
3.956694560669457
30
0
10
7.195606694560671
20
4.075941422594143
30
0
0
SPLINE
5
5EF
330
3AD
100
AcDbEntity
100
AcDbSpline
8
Layer_1
210
0
220
0
230
1
70
8
71
3
72
8
73
4
74
0
42
1e-7
43
1e-7
44
1e-10
40
0
40
0
40
0
40
0
40
1
40
1
40
1
40
1
10
7.195606694560671
20
4.075941422594143
30
0
10
6.992677824267784
20
4.195188284518829
30
0
10
6.732217573221759
20
4.254811715481172
30
0
10
6.414225941422596
20
4.254811715481172
30
0
0
SPLINE
5
5F0
330
3AD
100
AcDbEntity
100
AcDbSpline
8
Layer_1
210
0
220
0
230
1
70
8
71
3
72
8
73
4
74
0
42
1e-7
43
1e-7
44
1e-10
40
0
40
0
40
0
40
0
40
1
40
1
40
1
40
1
10
6.414225941422596
20
4.254811715481172
30
0
10
5.941423104896707
20
4.254811715481172
30
0
10
5.348326870587082
20
4.140794851390887
30
0
10
4.634937238493724
20
3.9127615062761514
30
0
0
SPLINE
5
5F1
330
3AD
100
AcDbEntity
100
AcDbSpline
8
Layer_1
210
0
220
0
230
1
70
8
71
3
72
8
73
4
74
0
42
1e-7
43
1e-7
44
1e-10
40
0
40
0
40
0
40
0
40
1
40
1
40
1
40
1
10
4.634937238493724
20
3.9127615062761514
30
0
10
4.043352326588651
20
3.723662334106957
30
0
10
3.4150806889873175
20
3.466227026265037
30
0
10
2.7501223256897234
20
3.1404555827503926
30
0
0
SPLINE
5
5F2
330
3AD
100
AcDbEntity
100
AcDbSpline
8
Layer_1
210
0
220
0
230
1
70
8
71
3
72
8
73
4
74
0
42
1e-7
43
1e-7
44
1e-10
40
0
40
0
40
0
40
0
40
1
40
1
40
1
40
1
10
2.7501223256897234
20
3.1404555827503926
30
0
10
2.4016253738722546
20
3.448551602543149
30
0
10
2.008976509381538
20
3.6965726844436464
30
0
10
1.5721757322175736
20
3.884518828451884
30
0
0
SPLINE
5
5F3
330
3AD
100
AcDbEntity
100
AcDbSpline
8
Layer_1
210
0
220
0
230
1
70
8
71
3
72
8
73
4
74
0
42
1e-7
43
1e-7
44
1e-10
40
0
40
0
40
0
40
0
40
1
40
1
40
1
40
1
10
1.5721757322175736
20
3.884518828451884
30
0
10
1.0470711297071134
20
4.110460251046026
30
0
10
0.485355648535565
20
4.223430962343097
30
0
10
-0.11297071129707116
20
4.223430962343097
30
0
0
SPLINE
5
5F4
330
3AD
100
AcDbEntity
100
AcDbSpline
8
Layer_1
210
0
220
0
230
1
70
8
71
3
72
8
73
4
74
0
42
1e-7
43
1e-7
44
1e-10
40
0
40
0
40
0
40
0
40
1
40
1
40
1
40
1
10
-0.11297071129707116
20
4.223430962343097
30
0
10
-0.7112970711297073
20
4.223430962343097
30
0
10
-1.271966527196653
20
4.110460251046026
30
0
10
-1.7949790794979084
20
3.884518828451884
30
0
0
SPLINE
5
5F5
330
3AD
100
AcDbEntity
100
AcDbSpline
8
Layer_1
210
0
220
0
230
1
70
8
71
3
72
8
73
4
74
0
42
1e-7
43
1e-7
44
1e-10
40
0
40
0
40
0
40
0
40
1
40
1
40
1
40
1
10
-1.7949790794979084
20
3.884518828451884
30
0
10
-2.317991631799164
20
3.6585774058577414
30
0
10
-2.779288702928871
20
3.3468619246861935
30
0
10
-3.17887029288703
20
2.9493723849372393
30
0
0
SPLINE
5
5F6
330
3AD
100
AcDbEntity
100
AcDbSpline
8
Layer_1
210
0
220
0
230
1
70
8
71
3
72
8
73
4
74
0
42
1e-7
43
1e-7
44
1e-10
40
0
40
0
40
0
40
0
40
1
40
1
40
1
40
1
10
-3.17887029288703
20
2.9493723849372393
30
0
10
-3.5784518828451892
20
2.551882845188285
30
0
10
-3.891213389121339
20
2.0895397489539755
30
0
10
-4.117154811715482
20
1.56234309623431
30
0
0
SPLINE
5
5F7
330
3AD
100
AcDbEntity
100
AcDbSpline
8
Layer_1
210
0
220
0
230
1
70
8
71
3
72
8
73
4
74
0
42
1e-7
43
1e-7
44
1e-10
40
0
40
0
40
0
40
0
40
1
40
1
40
1
40
1
10
-4.117154811715482
20
1.56234309623431
30
0
10
-4.343096234309624
20
1.0351464435146445
30
0
10
-4.456066945606695
20
0.4723849372384936
30
0
10
-4.456066945606695
20
-0.12594142259414254
30
0
0
SPLINE
5
5F8
330
3AD
100
AcDbEntity
100
AcDbSpline
8
Layer_1
210
0
220
0
230
1
70
8
71
3
72
8
73
4
74
0
42
1e-7
43
1e-7
44
1e-10
40
0
40
0
40
0
40
0
40
1
40
1
40
1
40
1
10
-4.456066945606695
20
-0.12594142259414254
30
0
10
-4.456066945606695
20
-0.41444209270397525
30
0
10
-4.429801398241372
20
-0.6944315507322181
30
0
10
-4.377270303510723
20
-0.9659097966788708
30
0
0
SPLINE
5
5F9
330
3AD
100
AcDbEntity
100
AcDbSpline
8
Layer_1
210
0
220
0
230
1
70
8
71
3
72
8
73
4
74
0
42
1e-7
43
1e-7
44
1e-10
40
0
40
0
40
0
40
0
40
1
40
1
40
1
40
1
10
-4.377270303510723
20
-0.9659097966788708
30
0
10
-4.944244895520073
20
-1.344915899172987
30
0
10
-5.443313790165731
20
-1.7239227677987716
30
0
10
-5.8744769874477
20
-2.102928870292888
30
0
0
SPLINE
5
5FA
330
3AD
100
AcDbEntity
100
AcDbSpline
8
Layer_1
210
0
220
0
230
1
70
8
71
3
72
8
73
4
74
0
42
1e-7
43
1e-7
44
1e-10
40
0
40
0
40
0
40
0
40
1
40
1
40
1
40
1
10
-5.8744769874477
20
-2.102928870292888
30
0
10
-6.393305375486239
20
-2.5589955605223595
30
0
10
-6.793933054393307
20
-2.9836822637454246
30
0
10
-7.076359832635985
20
-3.376987447698746
30
0
0
SPLINE
5
5FB
330
3AD
100
AcDbEntity
100
AcDbSpline
8
Layer_1
210
0
220
0
230
1
70
8
71
3
72
8
73
4
74
0
42
1e-7
43
1e-7
44
1e-10
40
0
40
0
40
0
40
0
40
1
40
1
40
1
40
1
10
-7.076359832635985
20
-3.376987447698746
30
0
10
-7.3587866108786635
20
-3.770292631652067
30
0
10
-7.500000000000001
20
-4.107113226088521
30
0
10
-7.500000000000001
20
-4.387447698744771
30
0
0
SPLINE
5
5FC
330
3AD
100
AcDbEntity
100
AcDbSpline
8
Layer_1
210
0
220
0
230
1
70
8
71
3
72
8
73
4
74
0
42
1e-7
43
1e-7
44
1e-10
40
0
40
0
40
0
40
0
40
1
40
1
40
1
40
1
10
-7.500000000000001
20
-4.387447698744771
30
0
10
-7.500000000000001
20
-4.630126033767
30
0
10
-7.393305439330546
20
-4.813179405563548
30
0
10
-7.179916317991633
20
-4.93661087866109
30
0
0
SPLINE
5
5FD
330
3AD
100
AcDbEntity
100
AcDbSpline
8
Layer_1
210
0
220
0
230
1
70
8
71
3
72
8
73
4
74
0
42
1e-7
43
1e-7
44
1e-10
40
0
40
0
40
0
40
0
40
1
40
1
40
1
40
1
10
-4.184071433095255
20
-1.6458340313644095
30
0
10
-4.560899678633304
20
-1.9085487525333427
30
0
10
-4.85553974486794
20
-2.165516209303086
30
0
10
-5.067991631799164
20
-2.416736401673641
30
0
0
SPLINE
5
5FE
330
3AD
100
AcDbEntity
100
AcDbSpline
8
Layer_1
210
0
220
0
230
1
70
8
71
3
72
8
73
4
74
0
42
1e-7
43
1e-7
44
1e-10
40
0
40
0
40
0
40
0
40
1
40
1
40
1
40
1
10
-5.067991631799164
20
-2.416736401673641
30
0
10
-5.354602446615947
20
-2.755648535564854
30
0
10
-5.497907949790797
20
-3.0422591588487196
30
0
10
-5.497907949790797
20
-3.2765690376569045
30
0
0
SPLINE
5
5FF
330
3AD
100
AcDbEntity
100
AcDbSpline
8
Layer_1
210
0
220
0
230
1
70
8
71
3
72
8
73
4
74
0
42
1e-7
43
1e-7
44
1e-10
40
0
40
0
40
0
40
0
40
1
40
1
40
1
40
1
10
-5.497907949790797
20
-3.2765690376569045
30
0
10
-5.497907949790797
20
-3.452301255230126
30
0
10
-5.437238557568156
20
-3.573640422741241
30
0
10
-5.315899581589959
20
-3.6405857740585787
30
0
0
SPLINE
5
600
330
3AD
100
AcDbEntity
100
AcDbSpline
8
Layer_1
210
0
220
0
230
1
70
8
71
3
72
8
73
4
74
0
42
1e-7
43
1e-7
44
1e-10
40
0
40
0
40
0
40
0
40
1
40
1
40
1
40
1
10
-5.315899581589959
20
-3.6405857740585787
30
0
10
-5.194560605611763
20
-3.7075311253759167
30
0
10
-5.041841068028408
20
-3.7410041841004196
30
0
10
-4.85774058577406
20
-3.7410041841004196
30
0
0
SPLINE
5
601
330
3AD
100
AcDbEntity
100
AcDbSpline
8
Layer_1
210
0
220
0
230
1
70
8
71
3
72
8
73
4
74
0
42
1e-7
43
1e-7
44
1e-10
40
0
40
0
40
0
40
0
40
1
40
1
40
1
40
1
10
-4.85774058577406
20
-3.7410041841004196
30
0
10
-4.627614935072897
20
-3.7410041841004196
30
0
10
-4.3263597049473725
20
-3.6887026734930712
30
0
10
-3.9539748953974905
20
-3.584100418410043
30
0
0
SPLINE
5
602
330
3AD
100
AcDbEntity
100
AcDbSpline
8
Layer_1
210
0
220
0
230
1
70
8
71
3
72
8
73
4
74
0
42
1e-7
43
1e-7
44
1e-10
40
0
40
0
40
0
40
0
40
1
40
1
40
1
40
1
10
-3.9539748953974905
20
-3.584100418410043
30
0
10
-3.690925119312239
20
-3.510210083518568
30
0
10
-3.3996916575411884
20
-3.413354441112056
30
0
10
-3.0802745100843367
20
-3.2935334911905083
30
0
0
SPLINE
5
603
330
3AD
100
AcDbEntity
100
AcDbSpline
8
Layer_1
210
0
220
0
230
1
70
8
71
3
72
8
73
4
74
0
42
1e-7
43
1e-7
44
1e-10
40
0
40
0
40
0
40
0
40
1
40
1
40
1
40
1
10
-3.0802745100843367
20
-3.2935334911905083
30
0
10
-3.11463577078975
20
-3.26129160605714
30
0
10
-3.1485470568285834
20
-3.22844013549294
30
0
10
-3.1820083682008375
20
-3.1949790794979087
30
0
0
SPLINE
5
604
330
3AD
100
AcDbEntity
100
AcDbSpline
8
Layer_1
210
0
220
0
230
1
70
8
71
3
72
8
73
4
74
0
42
1e-7
43
1e-7
44
1e-10
40
0
40
0
40
0
40
0
40
1
40
1
40
1
40
1
10
-3.1820083682008375
20
-3.1949790794979087
30
0
10
-3.5794979079497917
20
-2.7974895397489545
30
0
10
-3.891213389121339
20
-2.3361924686192475
30
0
10
-4.117154811715482
20
-1.811087866108787
30
0
0
SPLINE
5
605
330
3AD
100
AcDbEntity
100
AcDbSpline
8
Layer_1
210
0
220
0
230
1
70
8
71
3
72
8
73
4
74
0
42
1e-7
43
1e-7
44
1e-10
40
0
40
0
40
0
40
0
40
1
40
1
40
1
40
1
10
-4.117154811715482
20
-1.811087866108787
30
0
10
-4.140685269024583
20
-1.7564013876176783
30
0
10
-4.162990809484508
20
-1.7013167760362191
30
0
10
-4.184071433095255
20
-1.6458340313644095
30
0
0
SPLINE
5
606
330
3AD
100
AcDbEntity
100
AcDbSpline
8
Layer_1
210
0
220
0
230
1
70
8
71
3
72
8
73
4
74
0
42
1e-7
43
1e-7
44
1e-10
40
0
40
0
40
0
40
0
40
1
40
1
40
1
40
1
10
-1.5685350745292892
20
-3.4999477498202154
30
0
10
-1.5593343439461302
20
-3.503962279762684
30
0
10
-1.5500876454628665
20
-3.5079545918867687
30
0
10
-1.5407949790794984
20
-3.5119246861924696
30
0
0
SPLINE
5
607
330
3AD
100
AcDbEntity
100
AcDbSpline
8
Layer_1
210
0
220
0
230
1
70
8
71
3
72
8
73
4
74
0
42
1e-7
43
1e-7
44
1e-10
40
0
40
0
40
0
40
0
40
1
40
1
40
1
40
1
10
-1.5407949790794984
20
-3.5119246861924696
30
0
10
-1.0951882845188288
20
-3.702301510607349
30
0
10
-0.6192466065474636
20
-3.7974895397489554
30
0
10
-0.11297071129707116
20
-3.7974895397489554
30
0
0
SPLINE
5
608
330
3AD
100
AcDbEntity
100
AcDbSpline
8
Layer_1
210
0
220
0
230
1
70
8
71
3
72
8
73
4
74
0
42
1e-7
43
1e-7
44
1e-10
40
0
40
0
40
0
40
0
40
1
40
1
40
1
40
1
10
-0.11297071129707116
20
-3.7974895397489554
30
0
10
0.39330518395332126
20
-3.7974895397489554
30
0
10
0.8671545563382586
20
-3.702301510607349
30
0
10
1.3085774058577408
20
-3.5119246861924696
30
0
0
SPLINE
5
609
330
3AD
100
AcDbEntity
100
AcDbSpline
8
Layer_1
210
0
220
0
230
1
70
8
71
3
72
8
73
4
74
0
42
1e-7
43
1e-7
44
1e-10
40
0
40
0
40
0
40
0
40
1
40
1
40
1
40
1
10
1.3085774058577408
20
-3.5119246861924696
30
0
10
1.7500000000000004
20
-3.3215481171548125
30
0
10
2.1401673640167367
20
-3.05794979079498
30
0
10
2.47907949790795
20
-2.7211297071129716
30
0
0
SPLINE
5
60A
330
3AD
100
AcDbEntity
100
AcDbSpline
8
Layer_1
210
0
220
0
230
1
70
8
71
3
72
8
73
4
74
0
42
1e-7
43
1e-7
44
1e-10
40
0
40
0
40
0
40
0
40
1
40
1
40
1
40
1
10
2.47907949790795
20
-2.7211297071129716
30
0
10
2.8179916317991633
20
-2.3843098788081862
30
0
10
3.0815899581589963
20
-1.9941420040370037
30
0
10
3.2698744769874484
20
-1.550627615062762
30
0
0
SPLINE
5
60B
330
3AD
100
AcDbEntity
100
AcDbSpline
8
Layer_1
210
0
220
0
230
1
70
8
71
3
72
8
73
4
74
0
42
1e-7
43
1e-7
44
1e-10
40
0
40
0
40
0
40
0
40
1
40
1
40
1
40
1
10
3.2698744769874484
20
-1.550627615062762
30
0
10
3.4062995431812246
20
-1.2292713883531645
30
0
10
3.493299923182532
20
-0.8914395001144093
30
0
10
3.530875616991371
20
-0.5371334826098328
30
0
0
SPLINE
5
60C
330
3AD
100
AcDbEntity
100
AcDbSpline
8
Layer_1
210
0
220
0
230
1
70
8
71
3
72
8
73
4
74
0
42
1e-7
43
1e-7
44
1e-10
40
0
40
0
40
0
40
0
40
1
40
1
40
1
40
1
10
3.530875616991371
20
-0.5371334826098328
30
0
10
2.781023225026151
20
-1.0426904909780337
30
0
10
1.9367006692926259
20
-1.5688063872907956
30
0
10
0.9979079497907952
20
-2.115481171548118
30
0
0
SPLINE
5
60D
330
3AD
100
AcDbEntity
100
AcDbSpline
8
Layer_1
210
0
220
0
230
1
70
8
71
3
72
8
73
4
74
0
42
1e-7
43
1e-7
44
1e-10
40
0
40
0
40
0
40
0
40
1
40
1
40
1
40
1
10
0.9979079497907952
20
-2.115481171548118
30
0
10
0.08486593717311719
20
-2.6435466175797604
30
0
10
-0.7706150709335777
20
-3.10503522162657
30
0
10
-1.5685350745292892
20
-3.4999477498202154
30
0
0
SPLINE
5
60E
330
3AD
100
AcDbEntity
100
AcDbSpline
8
Layer_1
210
0
220
0
230
1
70
8
71
3
72
8
73
4
74
0
42
1e-7
43
1e-7
44
1e-10
40
0
40
0
40
0
40
0
40
1
40
1
40
1
40
1
10
3.5203267500490334
20
0.37479917135198726
30
0
10
3.2473943861957384
20
0.1650736916514119
30
0
10
2.948429123627093
20
-0.05100301958028264
30
0
10
2.623430962343097
20
-0.2734309623430965
30
0
0
SPLINE
5
60F
330
3AD
100
AcDbEntity
100
AcDbSpline
8
Layer_1
210
0
220
0
230
1
70
8
71
3
72
8
73
4
74
0
42
1e-7
43
1e-7
44
1e-10
40
0
40
0
40
0
40
0
40
1
40
1
40
1
40
1
10
2.623430962343097
20
-0.2734309623430965
30
0
10
2.033472803347281
20
-0.6771966527196656
30
0
10
1.3723849372384938
20
-1.0861924686192475
30
0
10
0.6401673640167365
20
-1.5004184100418416
30
0
0
SPLINE
5
610
330
3AD
100
AcDbEntity
100
AcDbSpline
8
Layer_1
210
0
220
0
230
1
70
8
71
3
72
8
73
4
74
0
42
1e-7
43
1e-7
44
1e-10
40
0
40
0
40
0
40
0
40
1
40
1
40
1
40
1
10
0.6401673640167365
20
-1.5004184100418416
30
0
10
0.041841004184100306
20
-1.839330543933055
30
0
10
-0.5376569037656905
20
-2.1468619246861933
30
0
10
-1.0983263598326363
20
-2.4230125523012562
30
0
0
SPLINE
5
611
330
3AD
100
AcDbEntity
100
AcDbSpline
8
Layer_1
210
0
220
0
230
1
70
8
71
3
72
8
73
4
74
0
42
1e-7
43
1e-7
44
1e-10
40
0
40
0
40
0
40
0
40
1
40
1
40
1
40
1
10
-1.0983263598326363
20
-2.4230125523012562
30
0
10
-1.5510404578811459
20
-2.645991088356434
30
0
10
-1.9792057819446267
20
-2.843055220727642
30
0
10
-2.382822332023079
20
-3.0142049494148804
30
0
0
SPLINE
5
612
330
3AD
100
AcDbEntity
100
AcDbSpline
8
Layer_1
210
0
220
0
230
1
70
8
71
3
72
8
73
4
74
0
42
1e-7
43
1e-7
44
1e-10
40
0
40
0
40
0
40
0
40
1
40
1
40
1
40
1
10
-2.382822332023079
20
-3.0142049494148804
30
0
10
-2.497679770242221
20
-2.923598132273144
30
0
10
-2.6071713499444304
20
-2.8259063848391746
30
0
10
-2.7112970711297075
20
-2.7211297071129716
30
0
0
SPLINE
5
613
330
3AD
100
AcDbEntity
100
AcDbSpline
8
Layer_1
210
0
220
0
230
1
70
8
71
3
72
8
73
4
74
0
42
1e-7
43
1e-7
44
1e-10
40
0
40
0
40
0
40
0
40
1
40
1
40
1
40
1
10
-2.7112970711297075
20
-2.7211297071129716
30
0
10
-3.0460249769138996
20
-2.3843098788081862
30
0
10
-3.3085775335463525
20
-1.9941420040370037
30
0
10
-3.498953974895398
20
-1.550627615062762
30
0
0
SPLINE
5
614
330
3AD
100
AcDbEntity
100
AcDbSpline
8
Layer_1
210
0
220
0
230
1
70
8
71
3
72
8
73
4
74
0
42
1e-7
43
1e-7
44
1e-10
40
0
40
0
40
0
40
0
40
1
40
1
40
1
40
1
10
-3.498953974895398
20
-1.550627615062762
30
0
10
-3.6893304162444434
20
-1.1071132260885204
30
0
10
-3.784518828451884
20
-0.6322173178445349
30
0
10
-3.784518828451884
20
-0.12594142259414254
30
0
0
SPLINE
5
615
330
3AD
100
AcDbEntity
100
AcDbSpline
8
Layer_1
210
0
220
0
230
1
70
8
71
3
72
8
73
4
74
0
42
1e-7
43
1e-7
44
1e-10
40
0
40
0
40
0
40
0
40
1
40
1
40
1
40
1
10
-3.784518828451884
20
-0.12594142259414254
30
0
10
-3.784518828451884
20
0.38033447265624987
30
0
10
-3.6893304162444434
20
0.8562761506276151
30
0
10
-3.498953974895398
20
1.3018828451882847
30
0
0
SPLINE
5
616
330
3AD
100
AcDbEntity
100
AcDbSpline
8
Layer_1
210
0
220
0
230
1
70
8
71
3
72
8
73
4
74
0
42
1e-7
43
1e-7
44
1e-10
40
0
40
0
40
0
40
0
40
1
40
1
40
1
40
1
10
-3.498953974895398
20
1.3018828451882847
30
0
10
-3.308577405857741
20
1.7474895397489543
30
0
10
-3.044979079497909
20
2.138702928870293
30
0
10
-2.7081589958159005
20
2.4755230125523013
30
0
0
SPLINE
5
617
330
3AD
100
AcDbEntity
100
AcDbSpline
8
Layer_1
210
0
220
0
230
1
70
8
71
3
72
8
73
4
74
0
42
1e-7
43
1e-7
44
1e-10
40
0
40
0
40
0
40
0
40
1
40
1
40
1
40
1
10
-2.7081589958159005
20
2.4755230125523013
30
0
10
-2.371338912133892
20
2.8123430962343097
30
0
10
-1.981171548117155
20
3.076987447698745
30
0
10
-1.5376569037656906
20
3.269456066945607
30
0
0
SPLINE
5
618
330
3AD
100
AcDbEntity
100
AcDbSpline
8
Layer_1
210
0
220
0
230
1
70
8
71
3
72
8
73
4
74
0
42
1e-7
43
1e-7
44
1e-10
40
0
40
0
40
0
40
0
40
1
40
1
40
1
40
1
10
-1.5376569037656906
20
3.269456066945607
30
0
10
-1.094142514791449
20
3.4619248138810805
30
0
10
-0.6192466065474636
20
3.5581589958159
30
0
10
-0.11297071129707116
20
3.5581589958159
30
0
0
SPLINE
5
619
330
3AD
100
AcDbEntity
100
AcDbSpline
8
Layer_1
210
0
220
0
230
1
70
8
71
3
72
8
73
4
74
0
42
1e-7
43
1e-7
44
1e-10
40
0
40
0
40
0
40
0
40
1
40
1
40
1
40
1
10
-0.11297071129707116
20
3.5581589958159
30
0
10
0.39330518395332126
20
3.5581589958159
30
0
10
0.8682010921973069
20
3.4619248138810805
30
0
10
1.3117154811715486
20
3.269456066945607
30
0
0
SPLINE
5
61A
330
3AD
100
AcDbEntity
100
AcDbSpline
8
Layer_1
210
0
220
0
230
1
70
8
71
3
72
8
73
4
74
0
42
1e-7
43
1e-7
44
1e-10
40
0
40
0
40
0
40
0
40
1
40
1
40
1
40
1
10
1.3117154811715486
20
3.269456066945607
30
0
10
1.7552298701457902
20
3.076987320010134
30
0
10
2.1453977449169725
20
2.8123432239229214
30
0
10
2.482217573221758
20
2.4755230125523013
30
0
0
SPLINE
5
61B
330
3AD
100
AcDbEntity
100
AcDbSpline
8
Layer_1
210
0
220
0
230
1
70
8
71
3
72
8
73
4
74
0
42
1e-7
43
1e-7
44
1e-10
40
0
40
0
40
0
40
0
40
1
40
1
40
1
40
1
10
2.482217573221758
20
2.4755230125523013
30
0
10
2.8190376569037663
20
2.138702928870293
30
0
10
3.0815899581589963
20
1.7474895397489543
30
0
10
3.2698744769874484
20
1.3018828451882847
30
0
0
SPLINE
5
61C
330
3AD
100
AcDbEntity
100
AcDbSpline
8
Layer_1
210
0
220
0
230
1
70
8
71
3
72
8
73
4
74
0
42
1e-7
43
1e-7
44
1e-10
40
0
40
0
40
0
40
0
40
1
40
1
40
1
40
1
10
3.2698744769874484
20
1.3018828451882847
30
0
10
3.3948065466461825
20
1.0062106719076884
30
0
10
3.4782906376667113
20
0.6971827806289225
30
0
10
3.5203267500490334
20
0.37479917135198726
30
0
0
SPLINE
5
61D
330
3AD
100
AcDbEntity
100
AcDbSpline
8
Layer_1
210
0
220
0
230
1
70
8
71
3
72
8
73
4
74
0
42
1e-7
43
1e-7
44
1e-10
40
0
40
0
40
0
40
0
40
1
40
1
40
1
40
1
10
4.115659322698746
20
0.8575655502255491
30
0
10
4.122379829694038
20
0.8633513765853817
30
0
10
4.129154476660566
20
0.8691977273470187
30
0
10
4.135983263598328
20
0.8751046025104602
30
0
0
SPLINE
5
61E
330
3AD
100
AcDbEntity
100
AcDbSpline
8
Layer_1
210
0
220
0
230
1
70
8
71
3
72
8
73
4
74
0
42
1e-7
43
1e-7
44
1e-10
40
0
40
0
40
0
40
0
40
1
40
1
40
1
40
1
10
4.135983263598328
20
0.8751046025104602
30
0
10
4.554393050062109
20
1.2370290333257061
30
0
10
4.875522501797857
20
1.56129732650693
30
0
10
5.09937238493724
20
1.8479079497907953
30
0
0
SPLINE
5
61F
330
3AD
100
AcDbEntity
100
AcDbSpline
8
Layer_1
210
0
220
0
230
1
70
8
71
3
72
8
73
4
74
0
42
1e-7
43
1e-7
44
1e-10
40
0
40
0
40
0
40
0
40
1
40
1
40
1
40
1
10
5.09937238493724
20
1.8479079497907953
30
0
10
5.3232222680766235
20
2.1345185730746605
30
0
10
5.435146443514646
20
2.3698746046760593
30
0
10
5.435146443514646
20
2.5539748953974897
30
0
0
SPLINE
5
620
330
3AD
100
AcDbEntity
100
AcDbSpline
8
Layer_1
210
0
220
0
230
1
70
8
71
3
72
8
73
4
74
0
42
1e-7
43
1e-7
44
1e-10
40
0
40
0
40
0
40
0
40
1
40
1
40
1
40
1
10
5.435146443514646
20
2.5539748953974897
30
0
10
5.435146443514646
20
2.7129705836084597
30
0
10
5.374476476693254
20
2.8301255230125526
30
0
10
5.253138075313808
20
2.9054393305439334
30
0
0
SPLINE
5
621
330
3AD
100
AcDbEntity
100
AcDbSpline
8
Layer_1
210
0
220
0
230
1
70
8
71
3
72
8
73
4
74
0
42
1e-7
43
1e-7
44
1e-10
40
0
40
0
40
0
40
0
40
1
40
1
40
1
40
1
10
5.253138075313808
20
2.9054393305439334
30
0
10
5.1317996739343625
20
2.9807531380753143
30
0
10
4.98535513778112
20
3.0184100418410047
30
0
10
4.813807531380754
20
3.0184100418410047
30
0
0
SPLINE
5
622
330
3AD
100
AcDbEntity
100
AcDbSpline
8
Layer_1
210
0
220
0
230
1
70
8
71
3
72
8
73
4
74
0
42
1e-7
43
1e-7
44
1e-10
40
0
40
0
40
0
40
0
40
1
40
1
40
1
40
1
10
4.813807531380754
20
3.0184100418410047
30
0
10
4.571129962490194
20
3.0184100418410047
30
0
10
4.270920502092051
20
2.9671546840268705
30
0
10
3.9131799163179926
20
2.864644351464436
30
0
0
SPLINE
5
623
330
3AD
100
AcDbEntity
100
AcDbSpline
8
Layer_1
210
0
220
0
230
1
70
8
71
3
72
8
73
4
74
0
42
1e-7
43
1e-7
44
1e-10
40
0
40
0
40
0
40
0
40
1
40
1
40
1
40
1
10
3.9131799163179926
20
2.864644351464436
30
0
10
3.703847206786089
20
2.804660072486272
30
0
10
3.4812637392945875
20
2.724977526804394
30
0
10
3.245429513843489
20
2.625596714418803
30
0
0
SPLINE
5
624
330
3AD
100
AcDbEntity
100
AcDbSpline
8
Layer_1
210
0
220
0
230
1
70
8
71
3
72
8
73
4
74
0
42
1e-7
43
1e-7
44
1e-10
40
0
40
0
40
0
40
0
40
1
40
1
40
1
40
1
10
3.245429513843489
20
2.625596714418803
30
0
10
3.507561464189985
20
2.304770906200968
30
0
10
3.721776730844666
20
1.949307008368201
30
0
10
3.888075313807532
20
1.5592050209205022
30
0
0
SPLINE
5
625
330
3AD
100
AcDbEntity
100
AcDbSpline
8
Layer_1
210
0
220
0
230
1
70
8
71
3
72
8
73
4
74
0
42
1e-7
43
1e-7
44
1e-10
40
0
40
0
40
0
40
0
40
1
40
1
40
1
40
1
10
3.888075313807532
20
1.5592050209205022
30
0
10
3.984859195214436
20
1.3321695623038703
30
0
10
4.06072078688873
20
1.0982894833616632
30
0
10
4.115659322698746
20
0.8575655502255491
30
0
0
SPLINE
5
626
330
3AD
100
AcDbEntity
100
AcDbSpline
8
Layer_1
210
0
220
0
230
1
70
8
71
3
72
8
73
4
74
0
42
1e-7
43
1e-7
44
1e-10
40
0
40
0
40
0
40
0
40
1
40
1
40
1
40
1
10
-17.792281498297392
20
-0.4205448354143021
30
0
10
-17.653802497162317
20
-0.5874006810442681
30
0
10
-17.46311010215664
20
-0.6708286038592511
30
0
10
-17.220204313280362
20
-0.6708286038592511
30
0
0
SPLINE
5
627
330
3AD
100
AcDbEntity
100
AcDbSpline
8
Layer_1
210
0
220
0
230
1
70
8
71
3
72
8
73
4
74
0
42
1e-7
43
1e-7
44
1e-10
40
0
40
0
40
0
40
0
40
1
40
1
40
1
40
1
10
-17.220204313280362
20
-0.6708286038592511
30
0
10
-17.113305220674302
20
-0.6708286038592511
30
0
10
-17.030142291585378
20
-0.6535659772719213
30
0
10
-16.97071531817537
20
-0.6190407240972619
30
0
0
SPLINE
5
628
330
3AD
100
AcDbEntity
100
AcDbSpline
8
Layer_1
210
0
220
0
230
1
70
8
71
3
72
8
73
4
74
0
42
1e-7
43
1e-7
44
1e-10
40
0
40
0
40
0
40
0
40
1
40
1
40
1
40
1
10
-16.97071531817537
20
-0.6190407240972619
30
0
10
-16.760178322418593
20
-0.8219444456760786
30
0
10
-16.54424958764898
20
-1.0259268475986099
30
0
10
-16.322928490351874
20
-1.2309875141884226
30
0
0
SPLINE
5
629
330
3AD
100
AcDbEntity
100
AcDbSpline
8
Layer_1
210
0
220
0
230
1
70
8
71
3
72
8
73
4
74
0
42
1e-7
43
1e-7
44
1e-10
40
0
40
0
40
0
40
0
40
1
40
1
40
1
40
1
10
-16.322928490351874
20
-1.2309875141884226
30
0
10
-16.044835414301932
20
-1.4886492622020435
30
0
10
-15.775255391600455
20
-1.7304199772985251
30
0
10
-15.514188422247447
20
-1.9562996594778668
30
0
0
SPLINE
5
62A
330
3AD
100
AcDbEntity
100
AcDbSpline
8
Layer_1
210
0
220
0
230
1
70
8
71
3
72
8
73
4
74
0
42
1e-7
43
1e-7
44
1e-10
40
0
40
0
40
0
40
0
40
1
40
1
40
1
40
1
10
-15.514188422247447
20
-1.9562996594778668
30
0
10
-15.332789443813848
20
-2.1132493814734685
30
0
10
-15.165637220887131
20
-2.255129862860032
30
0
10
-15.012731753467296
20
-2.3819411036375575
30
0
0
SPLINE
5
62B
330
3AD
100
AcDbEntity
100
AcDbSpline
8
Layer_1
210
0
220
0
230
1
70
8
71
3
72
8
73
4
74
0
42
1e-7
43
1e-7
44
1e-10
40
0
40
0
40
0
40
0
40
1
40
1
40
1
40
1
10
-15.012731753467296
20
-2.3819411036375575
30
0
10
-15.009141971791644
20
-2.6978971760605854
30
0
10
-14.994682667068671
20
-2.9498877119395583
30
0
10
-14.969353007945516
20
-3.137911464245177
30
0
0
SPLINE
5
62C
330
3AD
100
AcDbEntity
100
AcDbSpline
8
Layer_1
210
0
220
0
230
1
70
8
71
3
72
8
73
4
74
0
42
1e-7
43
1e-7
44
1e-10
40
0
40
0
40
0
40
0
40
1
40
1
40
1
40
1
10
-14.969353007945516
20
-3.137911464245177
30
0
10
-14.939841089670828
20
-3.3569807037457444
30
0
10
-14.885357548240634
20
-3.5102156640181628
30
0
10
-14.805902383654937
20
-3.5976163450624306
30
0
0
SPLINE
5
62D
330
3AD
100
AcDbEntity
100
AcDbSpline
8
Layer_1
210
0
220
0
230
1
70
8
71
3
72
8
73
4
74
0
42
1e-7
43
1e-7
44
1e-10
40
0
40
0
40
0
40
0
40
1
40
1
40
1
40
1
10
-14.805902383654937
20
-3.5976163450624306
30
0
10
-14.726447080510427
20
-3.6850173032243205
30
0
10
-14.612939979648482
20
-3.7287173666288322
30
0
10
-14.465380249716231
20
-3.7287173666288322
30
0
0
SPLINE
5
62E
330
3AD
100
AcDbEntity
100
AcDbSpline
8
Layer_1
210
0
220
0
230
1
70
8
71
3
72
8
73
4
74
0
42
1e-7
43
1e-7
44
1e-10
40
0
40
0
40
0
40
0
40
1
40
1
40
1
40
1
10
-14.465380249716231
20
-3.7287173666288322
30
0
10
-14.290578749068885
20
-3.7287173666288322
30
0
10
-14.153235098831228
20
-3.663450347172958
30
0
10
-14.053348467650396
20
-3.532917139614076
30
0
0
SPLINE
5
62F
330
3AD
100
AcDbEntity
100
AcDbSpline
8
Layer_1
210
0
220
0
230
1
70
8
71
3
72
8
73
4
74
0
42
1e-7
43
1e-7
44
1e-10
40
0
40
0
40
0
40
0
40
1
40
1
40
1
40
1
10
-14.053348467650396
20
-3.532917139614076
30
0
10
-13.968230820135144
20
-3.4216846201936733
30
0
10
-13.919379694372516
20
-3.272124239589246
30
0
10
-13.906794259009647
20
-3.0842376605065276
30
0
0
SPLINE
5
630
330
3AD
100
AcDbEntity
100
AcDbSpline
8
Layer_1
210
0
220
0
230
1
70
8
71
3
72
8
73
4
74
0
42
1e-7
43
1e-7
44
1e-10
40
0
40
0
40
0
40
0
40
1
40
1
40
1
40
1
10
-13.906794259009647
20
-3.0842376605065276
30
0
10
-13.807430964458002
20
-3.1395866402702906
30
0
10
-13.694534492276178
20
-3.200611266050654
30
0
10
-13.568104426787741
20
-3.267309875141885
30
0
0
SPLINE
5
631
330
3AD
100
AcDbEntity
100
AcDbSpline
8
Layer_1
210
0
220
0
230
1
70
8
71
3
72
8
73
4
74
0
42
1e-7
43
1e-7
44
1e-10
40
0
40
0
40
0
40
0
40
1
40
1
40
1
40
1
10
-13.568104426787741
20
-3.267309875141885
30
0
10
-13.423949918194879
20
-3.343359541270574
30
0
10
-13.278660612939841
20
-3.416571800067396
30
0
10
-13.132236095346197
20
-3.486946651532351
30
0
0
SPLINE
5
632
330
3AD
100
AcDbEntity
100
AcDbSpline
8
Layer_1
210
0
220
0
230
1
70
8
71
3
72
8
73
4
74
0
42
1e-7
43
1e-7
44
1e-10
40
0
40
0
40
0
40
0
40
1
40
1
40
1
40
1
10
-13.132236095346197
20
-3.486946651532351
30
0
10
-12.985811577752553
20
-3.5573212258796834
30
0
10
-12.85244040862656
20
-3.615209988649263
30
0
10
-12.732122587968217
20
-3.6606129398410907
30
0
0
SPLINE
5
633
330
3AD
100
AcDbEntity
100
AcDbSpline
8
Layer_1
210
0
220
0
230
1
70
8
71
3
72
8
73
4
74
0
42
1e-7
43
1e-7
44
1e-10
40
0
40
0
40
0
40
0
40
1
40
1
40
1
40
1
10
-12.732122587968217
20
-3.6606129398410907
30
0
10
-12.611804628751063
20
-3.706015613915296
30
0
10
-12.519863652587613
20
-3.7287173666288322
30
0
10
-12.456299659477866
20
-3.7287173666288322
30
0
0
SPLINE
5
634
330
3AD
100
AcDbEntity
100
AcDbSpline
8
Layer_1
210
0
220
0
230
1
70
8
71
3
72
8
73
4
74
0
42
1e-7
43
1e-7
44
1e-10
40
0
40
0
40
0
40
0
40
1
40
1
40
1
40
1
10
-12.456299659477866
20
-3.7287173666288322
30
0
10
-12.320090805902383
20
-3.7287173666288322
30
0
10
-12.209988926379824
20
-3.6600451258335713
30
0
10
-12.12599318955732
20
-3.522701475595915
30
0
0
SPLINE
5
635
330
3AD
100
AcDbEntity
100
AcDbSpline
8
Layer_1
210
0
220
0
230
1
70
8
71
3
72
8
73
4
74
0
42
1e-7
43
1e-7
44
1e-10
40
0
40
0
40
0
40
0
40
1
40
1
40
1
40
1
10
-12.12599318955732
20
-3.522701475595915
30
0
10
-12.041997452734817
20
-3.385357825358259
30
0
10
-12
20
-3.2054480770253986
30
0
10
-12
20
-2.982973893303066
30
0
0
SPLINE
5
636
330
3AD
100
AcDbEntity
100
AcDbSpline
8
Layer_1
210
0
220
0
230
1
70
8
71
3
72
8
73
4
74
0
42
1e-7
43
1e-7
44
1e-10
40
0
40
0
40
0
40
0
40
1
40
1
40
1
40
1
10
-12
20
-2.982973893303066
30
0
10
-12
20
-2.631101298684025
30
0
10
-12.01589131003476
20
-2.303632236095347
30
0
10
-12.047673098751417
20
-2.0005675368898985
30
0
0
SPLINE
5
637
330
3AD
100
AcDbEntity
100
AcDbSpline
8
Layer_1
210
0
220
0
230
1
70
8
71
3
72
8
73
4
74
0
42
1e-7
43
1e-7
44
1e-10
40
0
40
0
40
0
40
0
40
1
40
1
40
1
40
1
10
-12.047673098751417
20
-2.0005675368898985
30
0
10
-12.079454887468074
20
-1.69750283768445
30
0
10
-12.12145317155576
20
-1.3995459704880822
30
0
10
-12.17366628830874
20
-1.106696935300795
30
0
0
SPLINE
5
638
330
3AD
100
AcDbEntity
100
AcDbSpline
8
Layer_1
210
0
220
0
230
1
70
8
71
3
72
8
73
4
74
0
42
1e-7
43
1e-7
44
1e-10
40
0
40
0
40
0
40
0
40
1
40
1
40
1
40
1
10
-12.17366628830874
20
-1.106696935300795
30
0
10
-12.225879405061718
20
-0.8138479001135077
30
0
10
-12.284335981838819
20
-0.5079453778997589
30
0
10
-12.349035187287173
20
-0.1889897843359819
30
0
0
SPLINE
5
639
330
3AD
100
AcDbEntity
100
AcDbSpline
8
Layer_1
210
0
220
0
230
1
70
8
71
3
72
8
73
4
74
0
42
1e-7
43
1e-7
44
1e-10
40
0
40
0
40
0
40
0
40
1
40
1
40
1
40
1
10
-12.349035187287173
20
-0.1889897843359819
30
0
10
-12.413734392735527
20
0.12996580922779516
30
0
10
-12.480703607184662
20
0.47900099651496886
30
0
10
-12.54994324631101
20
0.8581157775255394
30
0
0
SPLINE
5
63A
330
3AD
100
AcDbEntity
100
AcDbSpline
8
Layer_1
210
0
220
0
230
1
70
8
71
3
72
8
73
4
74
0
42
1e-7
43
1e-7
44
1e-10
40
0
40
0
40
0
40
0
40
1
40
1
40
1
40
1
10
-12.54994324631101
20
0.8581157775255394
30
0
10
-12.608923298276107
20
1.1810557682587262
30
0
10
-12.66584436630959
20
1.5410591324666578
30
0
10
-12.720706450411463
20
1.9381258701493338
30
0
0
SPLINE
5
63B
330
3AD
100
AcDbEntity
100
AcDbSpline
8
Layer_1
210
0
220
0
230
1
70
8
71
3
72
8
73
4
74
0
42
1e-7
43
1e-7
44
1e-10
40
0
40
0
40
0
40
0
40
1
40
1
40
1
40
1
10
-12.720706450411463
20
1.9381258701493338
30
0
10
-12.645939977431539
20
1.98023617903572
30
0
10
-12.578803245379895
20
2.044182802302072
30
0
10
-12.519296254256526
20
2.129965947786607
30
0
0
SPLINE
5
63C
330
3AD
100
AcDbEntity
100
AcDbSpline
8
Layer_1
210
0
220
0
230
1
70
8
71
3
72
8
73
4
74
0
42
1e-7
43
1e-7
44
1e-10
40
0
40
0
40
0
40
0
40
1
40
1
40
1
40
1
10
-12.519296254256526
20
2.129965947786607
30
0
10
-12.431895296094636
20
2.255959137343928
30
0
10
-12.388195232690125
20
2.4040862656072655
30
0
10
-12.388195232690125
20
2.5743473325766186
30
0
0
SPLINE
5
63D
330
3AD
100
AcDbEntity
100
AcDbSpline
8
Layer_1
210
0
220
0
230
1
70
8
71
3
72
8
73
4
74
0
42
1e-7
43
1e-7
44
1e-10
40
0
40
0
40
0
40
0
40
1
40
1
40
1
40
1
10
-12.388195232690125
20
2.5743473325766186
30
0
10
-12.388195232690125
20
3.1259931895573225
30
0
10
-12.799091802417351
20
3.401816118047674
30
0
10
-13.62088535754824
20
3.401816118047674
30
0
0
SPLINE
5
63E
330
3AD
100
AcDbEntity
100
AcDbSpline
8
Layer_1
210
0
220
0
230
1
70
8
71
3
72
8
73
4
74
0
42
1e-7
43
1e-7
44
1e-10
40
0
40
0
40
0
40
0
40
1
40
1
40
1
40
1
10
-13.62088535754824
20
3.401816118047674
30
0
10
-14.063564131668556
20
3.401816118047674
30
0
10
-14.49716245410932
20
3.3427922468585956
30
0
10
-14.921679909194097
20
3.224744608399547
30
0
0
SPLINE
5
63F
330
3AD
100
AcDbEntity
100
AcDbSpline
8
Layer_1
210
0
220
0
230
1
70
8
71
3
72
8
73
4
74
0
42
1e-7
43
1e-7
44
1e-10
40
0
40
0
40
0
40
0
40
1
40
1
40
1
40
1
10
-14.921679909194097
20
3.224744608399547
30
0
10
-15.346197502837684
20
3.1066969353007954
30
0
10
-15.744040862656073
20
2.9443813847900127
30
0
10
-16.115209988649262
20
2.7377979568671975
30
0
0
SPLINE
5
640
330
3AD
100
AcDbEntity
100
AcDbSpline
8
Layer_1
210
0
220
0
230
1
70
8
71
3
72
8
73
4
74
0
42
1e-7
43
1e-7
44
1e-10
40
0
40
0
40
0
40
0
40
1
40
1
40
1
40
1
10
-16.115209988649262
20
2.7377979568671975
30
0
10
-16.486379114642453
20
2.5312145289443824
30
0
10
-16.813280363223612
20
2.2928490351872877
30
0
10
-17.095913734392738
20
2.0227014755959143
30
0
0
SPLINE
5
641
330
3AD
100
AcDbEntity
100
AcDbSpline
8
Layer_1
210
0
220
0
230
1
70
8
71
3
72
8
73
4
74
0
42
1e-7
43
1e-7
44
1e-10
40
0
40
0
40
0
40
0
40
1
40
1
40
1
40
1
10
-17.095913734392738
20
2.0227014755959143
30
0
10
-17.378547105561864
20
1.7525539160045407
30
0
10
-17.599886492622023
20
1.4631101021566408
30
0
10
-17.759931895573214
20
1.1543700340522138
30
0
0
SPLINE
5
642
330
3AD
100
AcDbEntity
100
AcDbSpline
8
Layer_1
210
0
220
0
230
1
70
8
71
3
72
8
73
4
74
0
42
1e-7
43
1e-7
44
1e-10
40
0
40
0
40
0
40
0
40
1
40
1
40
1
40
1
10
-17.759931895573214
20
1.1543700340522138
30
0
10
-17.919977298524405
20
0.8456299659477869
30
0
10
-18
20
0.5334846765039729
30
0
10
-18
20
0.21793416572077193
30
0
0
SPLINE
5
643
330
3AD
100
AcDbEntity
100
AcDbSpline
8
Layer_1
210
0
220
0
230
1
70
8
71
3
72
8
73
4
74
0
42
1e-7
43
1e-7
44
1e-10
40
0
40
0
40
0
40
0
40
1
40
1
40
1
40
1
10
-18
20
0.21793416572077193
30
0
10
-18
20
-0.04086265607264475
30
0
10
-17.930760464792762
20
-0.25368898978433607
30
0
10
-17.792281498297392
20
-0.4205448354143021
30
0
0
SPLINE
5
644
330
3AD
100
AcDbEntity
100
AcDbSpline
8
Layer_1
210
0
220
0
230
1
70
8
71
3
72
8
73
4
74
0
42
1e-7
43
1e-7
44
1e-10
40
0
40
0
40
0
40
0
40
1
40
1
40
1
40
1
10
-13.055006323824134
20
2.0301474875407926
30
0
10
-13.1390984975791
20
2.0615059098104083
30
0
10
-13.221027906853006
20
2.0771850170261072
30
0
10
-13.300794551645856
20
2.0771850170261072
30
0
0
SPLINE
5
645
330
3AD
100
AcDbEntity
100
AcDbSpline
8
Layer_1
210
0
220
0
230
1
70
8
71
3
72
8
73
4
74
0
42
1e-7
43
1e-7
44
1e-10
40
0
40
0
40
0
40
0
40
1
40
1
40
1
40
1
10
-13.300794551645856
20
2.0771850170261072
30
0
10
-13.364358544755603
20
2.0771850170261072
30
0
10
-13.448921679909194
20
2.0493756401417076
30
0
10
-13.554483541430193
20
1.9937570942111245
30
0
0
SPLINE
5
646
330
3AD
100
AcDbEntity
100
AcDbSpline
8
Layer_1
210
0
220
0
230
1
70
8
71
3
72
8
73
4
74
0
42
1e-7
43
1e-7
44
1e-10
40
0
40
0
40
0
40
0
40
1
40
1
40
1
40
1
10
-13.554483541430193
20
1.9937570942111245
30
0
10
-13.66004540295119
20
1.9381385482805413
30
0
10
-13.759364220124503
20
1.8978432905389833
30
0
10
-13.85244040862656
20
1.8728717366628838
30
0
0
SPLINE
5
647
330
3AD
100
AcDbEntity
100
AcDbSpline
8
Layer_1
210
0
220
0
230
1
70
8
71
3
72
8
73
4
74
0
42
1e-7
43
1e-7
44
1e-10
40
0
40
0
40
0
40
0
40
1
40
1
40
1
40
1
10
-13.85244040862656
20
1.8728717366628838
30
0
10
-14.018161041917919
20
1.8297388637512422
30
0
10
-14.167423382519864
20
1.8047673098751424
30
0
10
-14.30022701475596
20
1.7979568671963684
30
0
0
SPLINE
5
648
330
3AD
100
AcDbEntity
100
AcDbSpline
8
Layer_1
210
0
220
0
230
1
70
8
71
3
72
8
73
4
74
0
42
1e-7
43
1e-7
44
1e-10
40
0
40
0
40
0
40
0
40
1
40
1
40
1
40
1
10
-14.30022701475596
20
1.7979568671963684
30
0
10
-14.433030646992055
20
1.7911464245175943
30
0
10
-14.554483402871382
20
1.78036315433013
30
0
10
-14.664585698070374
20
1.7656072644721914
30
0
0
SPLINE
5
649
330
3AD
100
AcDbEntity
100
AcDbSpline
8
Layer_1
210
0
220
0
230
1
70
8
71
3
72
8
73
4
74
0
42
1e-7
43
1e-7
44
1e-10
40
0
40
0
40
0
40
0
40
1
40
1
40
1
40
1
10
-14.664585698070374
20
1.7656072644721914
30
0
10
-14.774687993269366
20
1.7508513746142529
30
0
10
-14.880817253121453
20
1.709421112372305
30
0
10
-14.982973893303065
20
1.6413166855845638
30
0
0
SPLINE
5
64A
330
3AD
100
AcDbEntity
100
AcDbSpline
8
Layer_1
210
0
220
0
230
1
70
8
71
3
72
8
73
4
74
0
42
1e-7
43
1e-7
44
1e-10
40
0
40
0
40
0
40
0
40
1
40
1
40
1
40
1
10
-14.982973893303065
20
1.6413166855845638
30
0
10
-15.103291852520218
20
1.561861590278271
30
0
10
-15.194665014676149
20
1.4807036764640682
30
0
10
-15.257094211123723
20
1.3978433598183886
30
0
0
SPLINE
5
64B
330
3AD
100
AcDbEntity
100
AcDbSpline
8
Layer_1
210
0
220
0
230
1
70
8
71
3
72
8
73
4
74
0
42
1e-7
43
1e-7
44
1e-10
40
0
40
0
40
0
40
0
40
1
40
1
40
1
40
1
10
-15.257094211123723
20
1.3978433598183886
30
0
10
-15.319523407571298
20
1.314983043172709
30
0
10
-15.380249577672744
20
1.2298525096880324
30
0
10
-15.43927355278093
20
1.142451759364359
30
0
0
SPLINE
5
64C
330
3AD
100
AcDbEntity
100
AcDbSpline
8
Layer_1
210
0
220
0
230
1
70
8
71
3
72
8
73
4
74
0
42
1e-7
43
1e-7
44
1e-10
40
0
40
0
40
0
40
0
40
1
40
1
40
1
40
1
10
-15.43927355278093
20
1.142451759364359
30
0
10
-15.498297527889116
20
1.0550510090406857
30
0
10
-15.584562858035968
20
0.9659478558855352
30
0
10
-15.698070374574348
20
0.8751418842224747
30
0
0
SPLINE
5
64D
330
3AD
100
AcDbEntity
100
AcDbSpline
8
Layer_1
210
0
220
0
230
1
70
8
71
3
72
8
73
4
74
0
42
1e-7
43
1e-7
44
1e-10
40
0
40
0
40
0
40
0
40
1
40
1
40
1
40
1
10
-15.698070374574348
20
0.8751418842224747
30
0
10
-15.772985244040862
20
0.816117909114288
30
0
10
-15.859250989864146
20
0.7644721906923952
30
0
10
-15.956867196367764
20
0.7202043132803635
30
0
0
SPLINE
5
64E
330
3AD
100
AcDbEntity
100
AcDbSpline
8
Layer_1
210
0
220
0
230
1
70
8
71
3
72
8
73
4
74
0
42
1e-7
43
1e-7
44
1e-10
40
0
40
0
40
0
40
0
40
1
40
1
40
1
40
1
10
-15.956867196367764
20
0.7202043132803635
30
0
10
-16.0544836107096
20
0.6759364358683317
30
0
10
-16.147559591373437
20
0.6322359567873866
30
0
10
-16.2360953461975
20
0.5891032917139616
30
0
0
SPLINE
5
64F
330
3AD
100
AcDbEntity
100
AcDbSpline
8
Layer_1
210
0
220
0
230
1
70
8
71
3
72
8
73
4
74
0
42
1e-7
43
1e-7
44
1e-10
40
0
40
0
40
0
40
0
40
1
40
1
40
1
40
1
10
-16.2360953461975
20
0.5891032917139616
30
0
10
-16.324631101021566
20
0.5459706266405365
30
0
10
-16.3938705323097
20
0.49829752788911763
30
0
10
-16.443813847900113
20
0.446083995459705
30
0
0
SPLINE
5
650
330
3AD
100
AcDbEntity
100
AcDbSpline
8
Layer_1
210
0
220
0
230
1
70
8
71
3
72
8
73
4
74
0
42
1e-7
43
1e-7
44
1e-10
40
0
40
0
40
0
40
0
40
1
40
1
40
1
40
1
10
-16.443813847900113
20
0.446083995459705
30
0
10
-16.51433480963128
20
0.3738839087773128
30
0
10
-16.57026365801912
20
0.2998211759985103
30
0
10
-16.61160018522542
20
0.22389538144686444
30
0
0
LINE
5
651
330
3AD
100
AcDbEntity
100
AcDbLine
8
Layer_1
10
-16.61160018522542
20
0.22389538144686444
30
0
11
-16.02737257023269
21
-0.3013309128032777
31
0
0
SPLINE
5
652
330
3AD
100
AcDbEntity
100
AcDbSpline
8
Layer_1
210
0
220
0
230
1
70
8
71
3
72
8
73
4
74
0
42
1e-7
43
1e-7
44
1e-10
40
0
40
0
40
0
40
0
40
1
40
1
40
1
40
1
10
-16.02737257023269
20
-0.3013309128032777
30
0
10
-16.059824221521176
20
-0.2294076666252839
30
0
10
-16.07604994324631
20
-0.15053015372268735
30
0
10
-16.07604994324631
20
-0.06469920544835417
30
0
0
SPLINE
5
653
330
3AD
100
AcDbEntity
100
AcDbSpline
8
Layer_1
210
0
220
0
230
1
70
8
71
3
72
8
73
4
74
0
42
1e-7
43
1e-7
44
1e-10
40
0
40
0
40
0
40
0
40
1
40
1
40
1
40
1
10
-16.07604994324631
20
-0.06469920544835417
30
0
10
-16.07604994324631
20
0.0964812712826334
30
0
10
-16.02043132803632
20
0.2326901248581158
30
0
10
-15.909194097616345
20
0.34392735527809315
30
0
0
SPLINE
5
654
330
3AD
100
AcDbEntity
100
AcDbSpline
8
Layer_1
210
0
220
0
230
1
70
8
71
3
72
8
73
4
74
0
42
1e-7
43
1e-7
44
1e-10
40
0
40
0
40
0
40
0
40
1
40
1
40
1
40
1
10
-15.909194097616345
20
0.34392735527809315
30
0
10
-15.797957005755178
20
0.45516444713925946
30
0
10
-15.661748152179698
20
0.5107832009080592
30
0
10
-15.500567536889898
20
0.5107832009080592
30
0
0
SPLINE
5
655
330
3AD
100
AcDbEntity
100
AcDbSpline
8
Layer_1
210
0
220
0
230
1
70
8
71
3
72
8
73
4
74
0
42
1e-7
43
1e-7
44
1e-10
40
0
40
0
40
0
40
0
40
1
40
1
40
1
40
1
10
-15.500567536889898
20
0.5107832009080592
30
0
10
-15.341657346277312
20
0.5107832009080592
30
0
10
-15.206583289364005
20
0.45516444713925946
30
0
10
-15.095346197502838
20
0.34392735527809315
30
0
0
SPLINE
5
656
330
3AD
100
AcDbEntity
100
AcDbSpline
8
Layer_1
210
0
220
0
230
1
70
8
71
3
72
8
73
4
74
0
42
1e-7
43
1e-7
44
1e-10
40
0
40
0
40
0
40
0
40
1
40
1
40
1
40
1
10
-15.095346197502838
20
0.34392735527809315
30
0
10
-14.984109105641672
20
0.23269026341692683
30
0
10
-14.928490351872872
20
0.0964814098414444
30
0
10
-14.928490351872872
20
-0.06469920544835417
30
0
0
SPLINE
5
657
330
3AD
100
AcDbEntity
100
AcDbSpline
8
Layer_1
210
0
220
0
230
1
70
8
71
3
72
8
73
4
74
0
42
1e-7
43
1e-7
44
1e-10
40
0
40
0
40
0
40
0
40
1
40
1
40
1
40
1
10
-14.928490351872872
20
-0.06469920544835417
30
0
10
-14.928490351872872
20
-0.22360939606093935
30
0
10
-14.984109105641672
20
-0.35868345297424814
30
0
10
-15.095346197502838
20
-0.46992054483541446
30
0
0
SPLINE
5
658
330
3AD
100
AcDbEntity
100
AcDbSpline
8
Layer_1
210
0
220
0
230
1
70
8
71
3
72
8
73
4
74
0
42
1e-7
43
1e-7
44
1e-10
40
0
40
0
40
0
40
0
40
1
40
1
40
1
40
1
10
-15.095346197502838
20
-0.46992054483541446
30
0
10
-15.206583289364005
20
-0.5811576366965808
30
0
10
-15.341657346277312
20
-0.6367763904653805
30
0
10
-15.500567536889898
20
-0.6367763904653805
30
0
0
SPLINE
5
659
330
3AD
100
AcDbEntity
100
AcDbSpline
8
Layer_1
210
0
220
0
230
1
70
8
71
3
72
8
73
4
74
0
42
1e-7
43
1e-7
44
1e-10
40
0
40
0
40
0
40
0
40
1
40
1
40
1
40
1
10
-15.500567536889898
20
-0.6367763904653805
30
0
10
-15.566185802931683
20
-0.6367763904653805
30
0
10
-15.627665178729782
20
-0.627558349886493
30
0
10
-15.685006079960628
20
-0.6091218530522846
30
0
0
LINE
5
65A
330
3AD
100
AcDbEntity
100
AcDbLine
8
Layer_1
10
-15.685006079960628
20
-0.6091218530522846
30
0
11
-14.91978608736521
21
-1.2970621929536752
31
0
0
SPLINE
5
65B
330
3AD
100
AcDbEntity
100
AcDbSpline
8
Layer_1
210
0
220
0
230
1
70
8
71
3
72
8
73
4
74
0
42
1e-7
43
1e-7
44
1e-10
40
0
40
0
40
0
40
0
40
1
40
1
40
1
40
1
10
-14.91978608736521
20
-1.2970621929536752
30
0
10
-14.921048496692324
20
-1.2837859033591092
30
0
10
-14.921679909194097
20
-1.2702739252270152
30
0
10
-14.921679909194097
20
-1.2565266742338257
30
0
0
SPLINE
5
65C
330
3AD
100
AcDbEntity
100
AcDbSpline
8
Layer_1
210
0
220
0
230
1
70
8
71
3
72
8
73
4
74
0
42
1e-7
43
1e-7
44
1e-10
40
0
40
0
40
0
40
0
40
1
40
1
40
1
40
1
10
-14.921679909194097
20
-1.2565266742338257
30
0
10
-14.921679909194097
20
-1.1475595913734398
30
0
10
-14.883655076129752
20
-1.0544834028713823
30
0
10
-14.807604994324631
20
-0.9772985244040866
30
0
0
SPLINE
5
65D
330
3AD
100
AcDbEntity
100
AcDbSpline
8
Layer_1
210
0
220
0
230
1
70
8
71
3
72
8
73
4
74
0
42
1e-7
43
1e-7
44
1e-10
40
0
40
0
40
0
40
0
40
1
40
1
40
1
40
1
10
-14.807604994324631
20
-0.9772985244040866
30
0
10
-14.73155491251951
20
-0.9001136459367909
30
0
10
-14.639046538024973
20
-0.8615209988649265
30
0
10
-14.530079455164586
20
-0.8615209988649265
30
0
0
SPLINE
5
65E
330
3AD
100
AcDbEntity
100
AcDbSpline
8
Layer_1
210
0
220
0
230
1
70
8
71
3
72
8
73
4
74
0
42
1e-7
43
1e-7
44
1e-10
40
0
40
0
40
0
40
0
40
1
40
1
40
1
40
1
10
-14.530079455164586
20
-0.8615209988649265
30
0
10
-14.421112372304199
20
-0.8615209988649265
30
0
10
-14.328036183802142
20
-0.9001136459367909
30
0
10
-14.250851305334846
20
-0.9772985244040866
30
0
0
SPLINE
5
65F
330
3AD
100
AcDbEntity
100
AcDbSpline
8
Layer_1
210
0
220
0
230
1
70
8
71
3
72
8
73
4
74
0
42
1e-7
43
1e-7
44
1e-10
40
0
40
0
40
0
40
0
40
1
40
1
40
1
40
1
10
-14.250851305334846
20
-0.9772985244040866
30
0
10
-14.17366642686755
20
-1.0544834028713823
30
0
10
-14.135073779795686
20
-1.1475595913734398
30
0
10
-14.135073779795686
20
-1.2565266742338257
30
0
0
SPLINE
5
660
330
3AD
100
AcDbEntity
100
AcDbSpline
8
Layer_1
210
0
220
0
230
1
70
8
71
3
72
8
73
4
74
0
42
1e-7
43
1e-7
44
1e-10
40
0
40
0
40
0
40
0
40
1
40
1
40
1
40
1
10
-14.135073779795686
20
-1.2565266742338257
30
0
10
-14.135073779795686
20
-1.3632237480934313
30
0
10
-14.17366642686755
20
-1.4557321225879685
30
0
10
-14.250851305334846
20
-1.534052213393871
30
0
0
SPLINE
5
661
330
3AD
100
AcDbEntity
100
AcDbSpline
8
Layer_1
210
0
220
0
230
1
70
8
71
3
72
8
73
4
74
0
42
1e-7
43
1e-7
44
1e-10
40
0
40
0
40
0
40
0
40
1
40
1
40
1
40
1
10
-14.250851305334846
20
-1.534052213393871
30
0
10
-14.328036183802142
20
-1.6123723041997735
30
0
10
-14.421112372304199
20
-1.6515323496027248
30
0
10
-14.530079455164586
20
-1.6515323496027248
30
0
0
SPLINE
5
662
330
3AD
100
AcDbEntity
100
AcDbSpline
8
Layer_1
210
0
220
0
230
1
70
8
71
3
72
8
73
4
74
0
42
1e-7
43
1e-7
44
1e-10
40
0
40
0
40
0
40
0
40
1
40
1
40
1
40
1
10
-14.530079455164586
20
-1.6515323496027248
30
0
10
-14.607103051175866
20
-1.6515323496027248
30
0
10
-14.6759033203125
20
-1.6319660442235393
30
0
10
-14.736480262574489
20
-1.5928342648180343
30
0
0
SPLINE
5
663
330
3AD
100
AcDbEntity
100
AcDbSpline
8
Layer_1
210
0
220
0
230
1
70
8
71
3
72
8
73
4
74
0
42
1e-7
43
1e-7
44
1e-10
40
0
40
0
40
0
40
0
40
1
40
1
40
1
40
1
10
-14.736480262574489
20
-1.5928342648180343
30
0
10
-14.722959555237301
20
-1.645660088633301
30
0
10
-14.71375065953994
20
-1.7049538377465243
30
0
10
-14.708853575482406
20
-1.770715096481272
30
0
0
SPLINE
5
664
330
3AD
100
AcDbEntity
100
AcDbSpline
8
Layer_1
210
0
220
0
230
1
70
8
71
3
72
8
73
4
74
0
42
1e-7
43
1e-7
44
1e-10
40
0
40
0
40
0
40
0
40
1
40
1
40
1
40
1
10
-14.708853575482406
20
-1.770715096481272
30
0
10
-14.700907920465026
20
-1.8774121703408775
30
0
10
-14.696935300794552
20
-2.0113505992391465
30
0
10
-14.696935300794552
20
-2.172531214528945
30
0
0
SPLINE
5
665
330
3AD
100
AcDbEntity
100
AcDbSpline
8
Layer_1
210
0
220
0
230
1
70
8
71
3
72
8
73
4
74
0
42
1e-7
43
1e-7
44
1e-10
40
0
40
0
40
0
40
0
40
1
40
1
40
1
40
1
10
-14.696935300794552
20
-2.172531214528945
30
0
10
-14.696935300794552
20
-2.5198637911464252
30
0
10
-14.692962681124078
20
-2.7809310376170555
30
0
10
-14.685017026106697
20
-2.9557321225879694
30
0
0
SPLINE
5
666
330
3AD
100
AcDbEntity
100
AcDbSpline
8
Layer_1
210
0
220
0
230
1
70
8
71
3
72
8
73
4
74
0
42
1e-7
43
1e-7
44
1e-10
40
0
40
0
40
0
40
0
40
1
40
1
40
1
40
1
10
-14.685017026106697
20
-2.9557321225879694
30
0
10
-14.677071509648128
20
-3.130533484676505
30
0
10
-14.656640181611804
20
-3.2480136208853585
30
0
10
-14.62372304199773
20
-3.30817253121453
30
0
0
SPLINE
5
667
330
3AD
100
AcDbEntity
100
AcDbSpline
8
Layer_1
210
0
220
0
230
1
70
8
71
3
72
8
73
4
74
0
42
1e-7
43
1e-7
44
1e-10
40
0
40
0
40
0
40
0
40
1
40
1
40
1
40
1
10
-14.62372304199773
20
-3.30817253121453
30
0
10
-14.590806040942466
20
-3.3683317186613233
30
0
10
-14.539159906844139
20
-3.3984108967082873
30
0
10
-14.468785471055618
20
-3.3984108967082873
30
0
0
SPLINE
5
668
330
3AD
100
AcDbEntity
100
AcDbSpline
8
Layer_1
210
0
220
0
230
1
70
8
71
3
72
8
73
4
74
0
42
1e-7
43
1e-7
44
1e-10
40
0
40
0
40
0
40
0
40
1
40
1
40
1
40
1
10
-14.468785471055618
20
-3.3984108967082873
30
0
10
-14.368898839874786
20
-3.3984108967082873
30
0
10
-14.300227014755958
20
-3.3393873372765333
30
0
10
-14.2627695800227
20
-3.22133938706016
30
0
0
SPLINE
5
669
330
3AD
100
AcDbEntity
100
AcDbSpline
8
Layer_1
210
0
220
0
230
1
70
8
71
3
72
8
73
4
74
0
42
1e-7
43
1e-7
44
1e-10
40
0
40
0
40
0
40
0
40
1
40
1
40
1
40
1
10
-14.2627695800227
20
-3.22133938706016
30
0
10
-14.225312145289443
20
-3.1032914368437865
30
0
10
-14.206583427922816
20
-2.911464245175938
30
0
10
-14.206583427922816
20
-2.645856980703747
30
0
0
SPLINE
5
66A
330
3AD
100
AcDbEntity
100
AcDbSpline
8
Layer_1
210
0
220
0
230
1
70
8
71
3
72
8
73
4
74
0
42
1e-7
43
1e-7
44
1e-10
40
0
40
0
40
0
40
0
40
1
40
1
40
1
40
1
10
-14.206583427922816
20
-2.645856980703747
30
0
10
-14.206583427922816
20
-2.4483541430192974
30
0
10
-14.190124719556966
20
-2.30022701475596
30
0
10
-14.157207718501702
20
-2.201475595913735
30
0
0
SPLINE
5
66B
330
3AD
100
AcDbEntity
100
AcDbSpline
8
Layer_1
210
0
220
0
230
1
70
8
71
3
72
8
73
4
74
0
42
1e-7
43
1e-7
44
1e-10
40
0
40
0
40
0
40
0
40
1
40
1
40
1
40
1
10
-14.157207718501702
20
-2.201475595913735
30
0
10
-14.124290717446438
20
-2.10272417707151
30
0
10
-14.070374574347332
20
-2.053348467650398
30
0
10
-13.995459704880817
20
-2.053348467650398
30
0
0
SPLINE
5
66C
330
3AD
100
AcDbEntity
100
AcDbSpline
8
Layer_1
210
0
220
0
230
1
70
8
71
3
72
8
73
4
74
0
42
1e-7
43
1e-7
44
1e-10
40
0
40
0
40
0
40
0
40
1
40
1
40
1
40
1
10
-13.995459704880817
20
-2.053348467650398
30
0
10
-13.970487943166502
20
-2.053348467650398
30
0
10
-13.942678774120317
20
-2.059591511998085
30
0
10
-13.912031782065833
20
-2.0720771850170268
30
0
0
SPLINE
5
66D
330
3AD
100
AcDbEntity
100
AcDbSpline
8
Layer_1
210
0
220
0
230
1
70
8
71
3
72
8
73
4
74
0
42
1e-7
43
1e-7
44
1e-10
40
0
40
0
40
0
40
0
40
1
40
1
40
1
40
1
10
-13.912031782065833
20
-2.0720771850170268
30
0
10
-13.88138479001135
20
-2.0845628580359685
30
0
10
-13.853575620965167
20
-2.09988635406321
30
0
10
-13.828603859250851
20
-2.118047673098752
30
0
0
SPLINE
5
66E
330
3AD
100
AcDbEntity
100
AcDbSpline
8
Layer_1
210
0
220
0
230
1
70
8
71
3
72
8
73
4
74
0
42
1e-7
43
1e-7
44
1e-10
40
0
40
0
40
0
40
0
40
1
40
1
40
1
40
1
10
-13.828603859250851
20
-2.118047673098752
30
0
10
-13.744608538104782
20
-2.172531214528945
30
0
10
-13.632236233905008
20
-2.2412030396477736
30
0
10
-13.491486946651532
20
-2.3240635641316696
30
0
0
SPLINE
5
66F
330
3AD
100
AcDbEntity
100
AcDbSpline
8
Layer_1
210
0
220
0
230
1
70
8
71
3
72
8
73
4
74
0
42
1e-7
43
1e-7
44
1e-10
40
0
40
0
40
0
40
0
40
1
40
1
40
1
40
1
10
-13.491486946651532
20
-2.3240635641316696
30
0
10
-13.350737659398057
20
-2.4069240886155656
30
0
10
-13.202610531134718
20
-2.489784197423029
30
0
10
-13.047105561861521
20
-2.572644721906925
30
0
0
SPLINE
5
670
330
3AD
100
AcDbEntity
100
AcDbSpline
8
Layer_1
210
0
220
0
230
1
70
8
71
3
72
8
73
4
74
0
42
1e-7
43
1e-7
44
1e-10
40
0
40
0
40
0
40
0
40
1
40
1
40
1
40
1
10
-13.047105561861521
20
-2.572644721906925
30
0
10
-12.891600592588324
20
-2.655504830714388
30
0
10
-12.745743473325765
20
-2.7264474961868626
30
0
10
-12.609534619750283
20
-2.785471055618616
30
0
0
SPLINE
5
671
330
3AD
100
AcDbEntity
100
AcDbSpline
8
Layer_1
210
0
220
0
230
1
70
8
71
3
72
8
73
4
74
0
42
1e-7
43
1e-7
44
1e-10
40
0
40
0
40
0
40
0
40
1
40
1
40
1
40
1
10
-12.609534619750283
20
-2.785471055618616
30
0
10
-12.489175231448638
20
-2.8376268090238375
30
0
10
-12.392746058278943
20
-2.8702842894260794
30
0
10
-12.320247100241202
20
-2.8834434968253415
30
0
0
SPLINE
5
672
330
3AD
100
AcDbEntity
100
AcDbSpline
8
Layer_1
210
0
220
0
230
1
70
8
71
3
72
8
73
4
74
0
42
1e-7
43
1e-7
44
1e-10
40
0
40
0
40
0
40
0
40
1
40
1
40
1
40
1
10
-12.320247100241202
20
-2.8834434968253415
30
0
10
-12.321963012556752
20
-2.5626053046963686
30
0
10
-12.337801947360951
20
-2.260936031276604
30
0
10
-12.3677639046538
20
-1.9784335981838825
30
0
0
SPLINE
5
673
330
3AD
100
AcDbEntity
100
AcDbSpline
8
Layer_1
210
0
220
0
230
1
70
8
71
3
72
8
73
4
74
0
42
1e-7
43
1e-7
44
1e-10
40
0
40
0
40
0
40
0
40
1
40
1
40
1
40
1
10
-12.3677639046538
20
-1.9784335981838825
30
0
10
-12.39768761971481
20
-1.696294604852441
30
0
10
-12.437170784265039
20
-1.417676390908769
30
0
10
-12.486213398304482
20
-1.1425789563528665
30
0
0
SPLINE
5
674
330
3AD
100
AcDbEntity
100
AcDbSpline
8
Layer_1
210
0
220
0
230
1
70
8
71
3
72
8
73
4
74
0
42
1e-7
43
1e-7
44
1e-10
40
0
40
0
40
0
40
0
40
1
40
1
40
1
40
1
10
-12.486213398304482
20
-1.1425789563528665
30
0
10
-12.495505013612016
20
-1.1443397617231843
30
0
10
-12.504829883034192
20
-1.1459999733967086
30
0
10
-12.514188422247445
20
-1.1475595913734395
30
0
0
SPLINE
5
675
330
3AD
100
AcDbEntity
100
AcDbSpline
8
Layer_1
210
0
220
0
230
1
70
8
71
3
72
8
73
4
74
0
42
1e-7
43
1e-7
44
1e-10
40
0
40
0
40
0
40
0
40
1
40
1
40
1
40
1
10
-12.514188422247445
20
-1.1475595913734395
30
0
10
-12.568671963677637
20
-1.156640043052994
30
0
10
-12.622020292769225
20
-1.161180476730988
30
0
10
-12.674233825198638
20
-1.161180476730988
30
0
0
SPLINE
5
676
330
3AD
100
AcDbEntity
100
AcDbSpline
8
Layer_1
210
0
220
0
230
1
70
8
71
3
72
8
73
4
74
0
42
1e-7
43
1e-7
44
1e-10
40
0
40
0
40
0
40
0
40
1
40
1
40
1
40
1
10
-12.674233825198638
20
-1.161180476730988
30
0
10
-12.84449489216799
20
-1.161180476730988
30
0
10
-12.990919409761634
20
-1.1004538909531076
30
0
10
-13.113507377979568
20
-0.9790011350737801
30
0
0
SPLINE
5
677
330
3AD
100
AcDbEntity
100
AcDbSpline
8
Layer_1
210
0
220
0
230
1
70
8
71
3
72
8
73
4
74
0
42
1e-7
43
1e-7
44
1e-10
40
0
40
0
40
0
40
0
40
1
40
1
40
1
40
1
10
-13.113507377979568
20
-0.9790011350737801
30
0
10
-13.236095346197501
20
-0.8575483791944526
30
0
10
-13.29738933030647
20
-0.710556047593289
30
0
10
-13.29738933030647
20
-0.5380249716231557
30
0
0
SPLINE
5
678
330
3AD
100
AcDbEntity
100
AcDbSpline
8
Layer_1
210
0
220
0
230
1
70
8
71
3
72
8
73
4
74
0
42
1e-7
43
1e-7
44
1e-10
40
0
40
0
40
0
40
0
40
1
40
1
40
1
40
1
10
-13.29738933030647
20
-0.5380249716231557
30
0
10
-13.29738933030647
20
-0.3586834529742481
30
0
10
-13.223609673178562
20
-0.20601589103291723
30
0
10
-13.07604994324631
20
-0.08002270147559594
30
0
0
SPLINE
5
679
330
3AD
100
AcDbEntity
100
AcDbSpline
8
Layer_1
210
0
220
0
230
1
70
8
71
3
72
8
73
4
74
0
42
1e-7
43
1e-7
44
1e-10
40
0
40
0
40
0
40
0
40
1
40
1
40
1
40
1
10
-13.07604994324631
20
-0.08002270147559594
30
0
10
-12.97561752890891
20
0.005730930982193544
30
0
10
-12.859936440302212
20
0.06335324515820093
30
0
10
-12.729007093102652
20
0.09284424105242625
30
0
0
SPLINE
5
67A
330
3AD
100
AcDbEntity
100
AcDbSpline
8
Layer_1
210
0
220
0
230
1
70
8
71
3
72
8
73
4
74
0
42
1e-7
43
1e-7
44
1e-10
40
0
40
0
40
0
40
0
40
1
40
1
40
1
40
1
10
-12.729007093102652
20
0.09284424105242625
30
0
10
-12.777123718608115
20
0.33473633366735256
30
0
10
-12.825835177089244
20
0.5920969933846483
30
0
10
-12.875141884222474
20
0.8649262202043135
30
0
0
SPLINE
5
67B
330
3AD
100
AcDbEntity
100
AcDbSpline
8
Layer_1
210
0
220
0
230
1
70
8
71
3
72
8
73
4
74
0
42
1e-7
43
1e-7
44
1e-10
40
0
40
0
40
0
40
0
40
1
40
1
40
1
40
1
10
-12.875141884222474
20
0.8649262202043135
30
0
10
-12.876584004327468
20
0.872906376365636
30
0
10
-12.878034992196367
20
0.8809656496080451
30
0
10
-12.879494847829172
20
0.8891040399315412
30
0
0
SPLINE
5
67C
330
3AD
100
AcDbEntity
100
AcDbSpline
8
Layer_1
210
0
220
0
230
1
70
8
71
3
72
8
73
4
74
0
42
1e-7
43
1e-7
44
1e-10
40
0
40
0
40
0
40
0
40
1
40
1
40
1
40
1
10
-12.879494847829172
20
0.8891040399315412
30
0
10
-12.90666138110989
20
0.8354360556629543
30
0
10
-12.943235087746523
20
0.7853790525681047
30
0
10
-12.98921679909194
20
0.7389330306469923
30
0
0
SPLINE
5
67D
330
3AD
100
AcDbEntity
100
AcDbSpline
8
Layer_1
210
0
220
0
230
1
70
8
71
3
72
8
73
4
74
0
42
1e-7
43
1e-7
44
1e-10
40
0
40
0
40
0
40
0
40
1
40
1
40
1
40
1
10
-12.98921679909194
20
0.7389330306469923
30
0
10
-13.101589103291714
20
0.6254255141086126
30
0
10
-13.236095346197503
20
0.5686719636776393
30
0
10
-13.392735527809307
20
0.5686719636776393
30
0
0
SPLINE
5
67E
330
3AD
100
AcDbEntity
100
AcDbSpline
8
Layer_1
210
0
220
0
230
1
70
8
71
3
72
8
73
4
74
0
42
1e-7
43
1e-7
44
1e-10
40
0
40
0
40
0
40
0
40
1
40
1
40
1
40
1
10
-13.392735527809307
20
0.5686719636776393
30
0
10
-13.549375709421112
20
0.5686719636776393
30
0
10
-13.684449350657987
20
0.6254255141086126
30
0
10
-13.797956867196367
20
0.7389330306469923
30
0
0
SPLINE
5
67F
330
3AD
100
AcDbEntity
100
AcDbSpline
8
Layer_1
210
0
220
0
230
1
70
8
71
3
72
8
73
4
74
0
42
1e-7
43
1e-7
44
1e-10
40
0
40
0
40
0
40
0
40
1
40
1
40
1
40
1
10
-13.797956867196367
20
0.7389330306469923
30
0
10
-13.911464383734748
20
0.8524405471853721
30
0
10
-13.96821793416572
20
0.9875141884222478
30
0
10
-13.96821793416572
20
1.1441543700340526
30
0
0
SPLINE
5
680
330
3AD
100
AcDbEntity
100
AcDbSpline
8
Layer_1
210
0
220
0
230
1
70
8
71
3
72
8
73
4
74
0
42
1e-7
43
1e-7
44
1e-10
40
0
40
0
40
0
40
0
40
1
40
1
40
1
40
1
10
-13.96821793416572
20
1.1441543700340526
30
0
10
-13.96821793416572
20
1.3007945516458574
30
0
10
-13.911464383734748
20
1.4358684007209497
30
0
10
-13.797956867196367
20
1.549375709421113
30
0
0
SPLINE
5
681
330
3AD
100
AcDbEntity
100
AcDbSpline
8
Layer_1
210
0
220
0
230
1
70
8
71
3
72
8
73
4
74
0
42
1e-7
43
1e-7
44
1e-10
40
0
40
0
40
0
40
0
40
1
40
1
40
1
40
1
10
-13.797956867196367
20
1.549375709421113
30
0
10
-13.684449350657987
20
1.6628830181212761
30
0
10
-13.549375709421112
20
1.719636776390466
30
0
10
-13.392735527809307
20
1.719636776390466
30
0
0
SPLINE
5
682
330
3AD
100
AcDbEntity
100
AcDbSpline
8
Layer_1
210
0
220
0
230
1
70
8
71
3
72
8
73
4
74
0
42
1e-7
43
1e-7
44
1e-10
40
0
40
0
40
0
40
0
40
1
40
1
40
1
40
1
10
-13.392735527809307
20
1.719636776390466
30
0
10
-13.236095346197503
20
1.719636776390466
30
0
10
-13.101589103291714
20
1.6628830874006817
30
0
10
-12.98921679909194
20
1.549375709421113
30
0
0
SPLINE
5
683
330
3AD
100
AcDbEntity
100
AcDbSpline
8
Layer_1
210
0
220
0
230
1
70
8
71
3
72
8
73
4
74
0
42
1e-7
43
1e-7
44
1e-10
40
0
40
0
40
0
40
0
40
1
40
1
40
1
40
1
10
-12.98921679909194
20
1.549375709421113
30
0
10
-12.988452785808029
20
1.548603798284975
30
0
10
-12.987709279228149
20
1.5478494148384299
30
0
10
-12.986986279352298
20
1.5471125590814776
30
0
0
SPLINE
5
684
330
3AD
100
AcDbEntity
100
AcDbSpline
8
Layer_1
210
0
220
0
230
1
70
8
71
3
72
8
73
4
74
0
42
1e-7
43
1e-7
44
1e-10
40
0
40
0
40
0
40
0
40
1
40
1
40
1
40
1
10
-12.986986279352298
20
1.5471125590814776
30
0
10
-13.010101214440265
20
1.7019657477076837
30
0
10
-13.032774562597545
20
1.8629773905274554
30
0
10
-13.055006323824134
20
2.0301474875407926
30
0
0
SPLINE
5
685
330
3AD
100
AcDbEntity
100
AcDbSpline
8
Layer_1
210
0
220
0
230
1
70
8
71
3
72
8
73
4
74
0
42
1e-7
43
1e-7
44
1e-10
40
0
40
0
40
0
40
0
40
1
40
1
40
1
40
1
10
-12.33137725241203
20
-3.1488994550759095
30
0
10
-12.400673839209704
20
-3.136498164372873
30
0
10
-12.489987740316403
20
-3.1084316916146437
30
0
10
-12.599318955732123
20
-3.0646992054483553
30
0
0
SPLINE
5
686
330
3AD
100
AcDbEntity
100
AcDbSpline
8
Layer_1
210
0
220
0
230
1
70
8
71
3
72
8
73
4
74
0
42
1e-7
43
1e-7
44
1e-10
40
0
40
0
40
0
40
0
40
1
40
1
40
1
40
1
10
-12.599318955732123
20
-3.0646992054483553
30
0
10
-12.724176932950838
20
-3.014755682019723
30
0
10
-12.859250989864146
20
-2.954029511918276
30
0
10
-13.004540295119183
20
-2.8825198637911478
30
0
0
SPLINE
5
687
330
3AD
100
AcDbEntity
100
AcDbSpline
8
Layer_1
210
0
220
0
230
1
70
8
71
3
72
8
73
4
74
0
42
1e-7
43
1e-7
44
1e-10
40
0
40
0
40
0
40
0
40
1
40
1
40
1
40
1
10
-13.004540295119183
20
-2.8825198637911478
30
0
10
-13.14982960037422
20
-2.8110102156640195
30
0
10
-13.29228149829739
20
-2.735527532189984
30
0
10
-13.431895573212259
20
-2.656072644721908
30
0
0
SPLINE
5
688
330
3AD
100
AcDbEntity
100
AcDbSpline
8
Layer_1
210
0
220
0
230
1
70
8
71
3
72
8
73
4
74
0
42
1e-7
43
1e-7
44
1e-10
40
0
40
0
40
0
40
0
40
1
40
1
40
1
40
1
10
-13.431895573212259
20
-2.656072644721908
30
0
10
-13.571509648127128
20
-2.576617757253832
30
0
10
-13.692395005675369
20
-2.501702472110883
30
0
10
-13.79455164585698
20
-2.4313280363223617
30
0
0
SPLINE
5
689
330
3AD
100
AcDbEntity
100
AcDbSpline
8
Layer_1
210
0
220
0
230
1
70
8
71
3
72
8
73
4
74
0
42
1e-7
43
1e-7
44
1e-10
40
0
40
0
40
0
40
0
40
1
40
1
40
1
40
1
10
-13.79455164585698
20
-2.4313280363223617
30
0
10
-13.80817253121453
20
-2.422247584642807
30
0
10
-13.82065820423347
20
-2.417707150964813
30
0
10
-13.832009080590238
20
-2.417707150964813
30
0
0
SPLINE
5
68A
330
3AD
100
AcDbEntity
100
AcDbSpline
8
Layer_1
210
0
220
0
230
1
70
8
71
3
72
8
73
4
74
0
42
1e-7
43
1e-7
44
1e-10
40
0
40
0
40
0
40
0
40
1
40
1
40
1
40
1
10
-13.832009080590238
20
-2.417707150964813
30
0
10
-13.866061293984108
20
-2.417707150964813
30
0
10
-13.886492622020432
20
-2.4653802497162323
30
0
10
-13.893303064699206
20
-2.56072644721907
30
0
0
SPLINE
5
68B
330
3AD
100
AcDbEntity
100
AcDbSpline
8
Layer_1
210
0
220
0
230
1
70
8
71
3
72
8
73
4
74
0
42
1e-7
43
1e-7
44
1e-10
40
0
40
0
40
0
40
0
40
1
40
1
40
1
40
1
10
-13.893303064699206
20
-2.56072644721907
30
0
10
-13.896357039452681
20
-2.6034829251206024
30
0
10
-13.898726395120955
20
-2.65536932019722
30
0
10
-13.900410716027595
20
-2.716386463801789
30
0
0
SPLINE
5
68C
330
3AD
100
AcDbEntity
100
AcDbSpline
8
Layer_1
210
0
220
0
230
1
70
8
71
3
72
8
73
4
74
0
42
1e-7
43
1e-7
44
1e-10
40
0
40
0
40
0
40
0
40
1
40
1
40
1
40
1
10
-13.900410716027595
20
-2.716386463801789
30
0
10
-13.489807613862087
20
-2.9437257244963124
30
0
10
-13.171887885969424
20
-3.1126100711194677
30
0
10
-12.946651532349602
20
-3.2230419977298537
30
0
0
SPLINE
5
68D
330
3AD
100
AcDbEntity
100
AcDbSpline
8
Layer_1
210
0
220
0
230
1
70
8
71
3
72
8
73
4
74
0
42
1e-7
43
1e-7
44
1e-10
40
0
40
0
40
0
40
0
40
1
40
1
40
1
40
1
10
-12.946651532349602
20
-3.2230419977298537
30
0
10
-12.712826472270502
20
-3.33768472660684
30
0
10
-12.55732108732087
20
-3.3950056753689
30
0
10
-12.480136208853574
20
-3.3950056753689
30
0
0
SPLINE
5
68E
330
3AD
100
AcDbEntity
100
AcDbSpline
8
Layer_1
210
0
220
0
230
1
70
8
71
3
72
8
73
4
74
0
42
1e-7
43
1e-7
44
1e-10
40
0
40
0
40
0
40
0
40
1
40
1
40
1
40
1
10
-12.480136208853574
20
-3.3950056753689
30
0
10
-12.423382242746168
20
-3.3950056753689
30
0
10
-12.382519586673524
20
-3.355277815958429
30
0
10
-12.35754824063564
20
-3.275822928490353
30
0
0
SPLINE
5
68F
330
3AD
100
AcDbEntity
100
AcDbSpline
8
Layer_1
210
0
220
0
230
1
70
8
71
3
72
8
73
4
74
0
42
1e-7
43
1e-7
44
1e-10
40
0
40
0
40
0
40
0
40
1
40
1
40
1
40
1
10
-12.35754824063564
20
-3.275822928490353
30
0
10
-12.346284240653377
20
-3.239982475081584
30
0
10
-12.337560023676929
20
-3.1976740963748598
30
0
10
-12.33137725241203
20
-3.1488994550759095
30
0
0
SPLINE
5
690
330
3AD
100
AcDbEntity
100
AcDbSpline
8
Layer_1
210
0
220
0
230
1
70
8
71
3
72
8
73
4
74
0
42
1e-7
43
1e-7
44
1e-10
40
0
40
0
40
0
40
0
40
1
40
1
40
1
40
1
10
-16.713807122255428
20
-0.03869947591515325
30
0
10
-16.725951940599284
20
-0.07923707301716802
30
0
10
-16.736408073433957
20
-0.11911831703142742
30
0
10
-16.74517593643587
20
-0.15834279228149836
30
0
0
SPLINE
5
691
330
3AD
100
AcDbEntity
100
AcDbSpline
8
Layer_1
210
0
220
0
230
1
70
8
71
3
72
8
73
4
74
0
42
1e-7
43
1e-7
44
1e-10
40
0
40
0
40
0
40
0
40
1
40
1
40
1
40
1
10
-16.74517593643587
20
-0.15834279228149836
30
0
10
-16.760604182924236
20
-0.22736364704526116
30
0
10
-16.77719424504292
20
-0.2914470971374859
30
0
10
-16.794946122791927
20
-0.35059314255817264
30
0
0
SPLINE
5
692
330
3AD
100
AcDbEntity
100
AcDbSpline
8
Layer_1
210
0
220
0
230
1
70
8
71
3
72
8
73
4
74
0
42
1e-7
43
1e-7
44
1e-10
40
0
40
0
40
0
40
0
40
1
40
1
40
1
40
1
10
-16.794946122791927
20
-0.35059314255817264
30
0
10
-16.595231886483756
20
-0.5447252600471767
30
0
10
-16.395895084376775
20
-0.73433107685691
30
0
10
-16.196935300794554
20
-0.9194097616345066
30
0
0
SPLINE
5
693
330
3AD
100
AcDbEntity
100
AcDbSpline
8
Layer_1
210
0
220
0
230
1
70
8
71
3
72
8
73
4
74
0
42
1e-7
43
1e-7
44
1e-10
40
0
40
0
40
0
40
0
40
1
40
1
40
1
40
1
10
-16.196935300794554
20
-0.9194097616345066
30
0
10
-15.952894368859075
20
-1.146424379034833
30
0
10
-15.71623169360989
20
-1.3598185267540441
30
0
10
-15.48694665153235
20
-1.5595913734392741
30
0
0
SPLINE
5
694
330
3AD
100
AcDbEntity
100
AcDbSpline
8
Layer_1
210
0
220
0
230
1
70
8
71
3
72
8
73
4
74
0
42
1e-7
43
1e-7
44
1e-10
40
0
40
0
40
0
40
0
40
1
40
1
40
1
40
1
10
-15.48694665153235
20
-1.5595913734392741
30
0
10
-15.322584587382945
20
-1.7027980012060164
30
0
10
-15.166385022790154
20
-1.8360915773978441
30
0
10
-15.018347957753972
20
-1.9594721020147567
30
0
0
SPLINE
5
695
330
3AD
100
AcDbEntity
100
AcDbSpline
8
Layer_1
210
0
220
0
230
1
70
8
71
3
72
8
73
4
74
0
42
1e-7
43
1e-7
44
1e-10
40
0
40
0
40
0
40
0
40
1
40
1
40
1
40
1
10
-15.018347957753972
20
-1.9594721020147567
30
0
10
-15.02344040973503
20
-1.8356466650556902
30
0
10
-15.032648058403092
20
-1.7386755883761356
30
0
10
-15.045970488081725
20
-1.66855845629966
30
0
0
SPLINE
5
696
330
3AD
100
AcDbEntity
100
AcDbSpline
8
Layer_1
210
0
220
0
230
1
70
8
71
3
72
8
73
4
74
0
42
1e-7
43
1e-7
44
1e-10
40
0
40
0
40
0
40
0
40
1
40
1
40
1
40
1
10
-15.045970488081725
20
-1.66855845629966
30
0
10
-15.067537028456654
20
-1.5550509397612804
30
0
10
-15.102156640181612
20
-1.4767308489553779
30
0
10
-15.14982973893303
20
-1.4335981838819527
30
0
0
LINE
5
697
330
3AD
100
AcDbEntity
100
AcDbLine
8
Layer_1
10
-15.14982973893303
20
-1.4335981838819527
30
0
11
-16.713807122255428
21
-0.03869947591515325
31
0
0
SPLINE
5
698
330
3AD
100
AcDbEntity
100
AcDbSpline
8
Layer_1
210
0
220
0
230
1
70
8
71
3
72
8
73
4
74
0
42
1e-7
43
1e-7
44
1e-10
40
0
40
0
40
0
40
0
40
1
40
1
40
1
40
1
10
-17.077185017026107
20
-0.2622020431328037
30
0
10
-17.102156570902206
20
-0.32122601824099045
30
0
10
-17.149829669653624
20
-0.3507377979568673
30
0
10
-17.220204313280362
20
-0.3507377979568673
30
0
0
SPLINE
5
699
330
3AD
100
AcDbEntity
100
AcDbSpline
8
Layer_1
210
0
220
0
230
1
70
8
71
3
72
8
73
4
74
0
42
1e-7
43
1e-7
44
1e-10
40
0
40
0
40
0
40
0
40
1
40
1
40
1
40
1
10
-17.220204313280362
20
-0.3507377979568673
30
0
10
-17.356413166855845
20
-0.3507377979568673
30
0
10
-17.467082860385926
20
-0.3002268761971482
30
0
10
-17.552213393870602
20
-0.19920544835414308
30
0
0
SPLINE
5
69A
330
3AD
100
AcDbEntity
100
AcDbSpline
8
Layer_1
210
0
220
0
230
1
70
8
71
3
72
8
73
4
74
0
42
1e-7
43
1e-7
44
1e-10
40
0
40
0
40
0
40
0
40
1
40
1
40
1
40
1
10
-17.552213393870602
20
-0.19920544835414308
30
0
10
-17.63734392735528
20
-0.09818402051113793
30
0
10
-17.67990919409762
20
0.04086265607264472
30
0
10
-17.67990919409762
20
0.21793416572077193
30
0
0
SPLINE
5
69B
330
3AD
100
AcDbEntity
100
AcDbSpline
8
Layer_1
210
0
220
0
230
1
70
8
71
3
72
8
73
4
74
0
42
1e-7
43
1e-7
44
1e-10
40
0
40
0
40
0
40
0
40
1
40
1
40
1
40
1
10
-17.67990919409762
20
0.21793416572077193
30
0
10
-17.67990919409762
20
0.49716231555051094
30
0
10
-17.6044267184618
20
0.7741204563794696
30
0
10
-17.45346197502838
20
1.0488081725312148
30
0
0
SPLINE
5
69C
330
3AD
100
AcDbEntity
100
AcDbSpline
8
Layer_1
210
0
220
0
230
1
70
8
71
3
72
8
73
4
74
0
42
1e-7
43
1e-7
44
1e-10
40
0
40
0
40
0
40
0
40
1
40
1
40
1
40
1
10
-17.45346197502838
20
1.0488081725312148
30
0
10
-17.302497162315554
20
1.323496027241771
30
0
10
-17.094211123723042
20
1.5828603859250858
30
0
10
-16.82860385925085
20
1.8269012485811584
30
0
0
SPLINE
5
69D
330
3AD
100
AcDbEntity
100
AcDbSpline
8
Layer_1
210
0
220
0
230
1
70
8
71
3
72
8
73
4
74
0
42
1e-7
43
1e-7
44
1e-10
40
0
40
0
40
0
40
0
40
1
40
1
40
1
40
1
10
-16.82860385925085
20
1.8269012485811584
30
0
10
-16.56299659477866
20
2.070942111237231
30
0
10
-16.25766174801362
20
2.287173666288309
30
0
10
-15.912599318955733
20
2.4755959137343932
30
0
0
SPLINE
5
69E
330
3AD
100
AcDbEntity
100
AcDbSpline
8
Layer_1
210
0
220
0
230
1
70
8
71
3
72
8
73
4
74
0
42
1e-7
43
1e-7
44
1e-10
40
0
40
0
40
0
40
0
40
1
40
1
40
1
40
1
10
-15.912599318955733
20
2.4755959137343932
30
0
10
-15.567536889897845
20
2.6640181611804774
30
0
10
-15.199772985244042
20
2.812145289443815
30
0
10
-14.809307604994325
20
2.919977298524405
30
0
0
SPLINE
5
69F
330
3AD
100
AcDbEntity
100
AcDbSpline
8
Layer_1
210
0
220
0
230
1
70
8
71
3
72
8
73
4
74
0
42
1e-7
43
1e-7
44
1e-10
40
0
40
0
40
0
40
0
40
1
40
1
40
1
40
1
10
-14.809307604994325
20
2.919977298524405
30
0
10
-14.418842224744608
20
3.0278093076049952
30
0
10
-14.022701475595913
20
3.0817253121452906
30
0
10
-13.62088535754824
20
3.0817253121452906
30
0
0
SPLINE
5
6A0
330
3AD
100
AcDbEntity
100
AcDbSpline
8
Layer_1
210
0
220
0
230
1
70
8
71
3
72
8
73
4
74
0
42
1e-7
43
1e-7
44
1e-10
40
0
40
0
40
0
40
0
40
1
40
1
40
1
40
1
10
-13.62088535754824
20
3.0817253121452906
30
0
10
-13.30760499432463
20
3.0817253121452906
30
0
10
-13.077185155584917
20
3.040295153822451
30
0
10
-12.929625425652667
20
2.957434733257663
30
0
0
SPLINE
5
6A1
330
3AD
100
AcDbEntity
100
AcDbSpline
8
Layer_1
210
0
220
0
230
1
70
8
71
3
72
8
73
4
74
0
42
1e-7
43
1e-7
44
1e-10
40
0
40
0
40
0
40
0
40
1
40
1
40
1
40
1
10
-12.929625425652667
20
2.957434733257663
30
0
10
-12.782065834279226
20
2.8745743473325778
30
0
10
-12.708286038592508
20
2.7468785471055632
30
0
10
-12.708286038592508
20
2.5743473325766186
30
0
0
SPLINE
5
6A2
330
3AD
100
AcDbEntity
100
AcDbSpline
8
Layer_1
210
0
220
0
230
1
70
8
71
3
72
8
73
4
74
0
42
1e-7
43
1e-7
44
1e-10
40
0
40
0
40
0
40
0
40
1
40
1
40
1
40
1
10
-12.708286038592508
20
2.5743473325766186
30
0
10
-12.708286038592508
20
2.5062429057888775
30
0
10
-12.719636914949277
20
2.4455165278492133
30
0
10
-12.742338251986379
20
2.3921679909194102
30
0
0
SPLINE
5
6A3
330
3AD
100
AcDbEntity
100
AcDbSpline
8
Layer_1
210
0
220
0
230
1
70
8
71
3
72
8
73
4
74
0
42
1e-7
43
1e-7
44
1e-10
40
0
40
0
40
0
40
0
40
1
40
1
40
1
40
1
10
-12.742338251986379
20
2.3921679909194102
30
0
10
-12.76503958902348
20
2.3388194539896072
30
0
10
-12.800227014755958
20
2.291713961407492
30
0
10
-12.847900113507377
20
2.250851305334847
30
0
0
SPLINE
5
6A4
330
3AD
100
AcDbEntity
100
AcDbSpline
8
Layer_1
210
0
220
0
230
1
70
8
71
3
72
8
73
4
74
0
42
1e-7
43
1e-7
44
1e-10
40
0
40
0
40
0
40
0
40
1
40
1
40
1
40
1
10
-12.847900113507377
20
2.250851305334847
30
0
10
-12.90238365493757
20
2.282633301889721
30
0
10
-12.971055480056398
20
2.3144155062828116
30
0
10
-13.053916004540294
20
2.3461975028376854
30
0
0
SPLINE
5
6A5
330
3AD
100
AcDbEntity
100
AcDbSpline
8
Layer_1
210
0
220
0
230
1
70
8
71
3
72
8
73
4
74
0
42
1e-7
43
1e-7
44
1e-10
40
0
40
0
40
0
40
0
40
1
40
1
40
1
40
1
10
-13.053916004540294
20
2.3461975028376854
30
0
10
-13.136776529024191
20
2.377979499392559
30
0
10
-13.219069239500566
20
2.393870601589104
30
0
10
-13.300794551645856
20
2.393870601589104
30
0
0
SPLINE
5
6A6
330
3AD
100
AcDbEntity
100
AcDbSpline
8
Layer_1
210
0
220
0
230
1
70
8
71
3
72
8
73
4
74
0
42
1e-7
43
1e-7
44
1e-10
40
0
40
0
40
0
40
0
40
1
40
1
40
1
40
1
10
-13.300794551645856
20
2.393870601589104
30
0
10
-13.425652528864571
20
2.393870601589104
30
0
10
-13.535754824063563
20
2.3654938263736174
30
0
10
-13.631101021566401
20
2.3087400681044277
30
0
0
SPLINE
5
6A7
330
3AD
100
AcDbEntity
100
AcDbSpline
8
Layer_1
210
0
220
0
230
1
70
8
71
3
72
8
73
4
74
0
42
1e-7
43
1e-7
44
1e-10
40
0
40
0
40
0
40
0
40
1
40
1
40
1
40
1
10
-13.631101021566401
20
2.3087400681044277
30
0
10
-13.72644721906924
20
2.251986309835238
30
0
10
-13.820658204233471
20
2.2111236537625927
30
0
10
-13.913734392735527
20
2.186152099886493
30
0
0
SPLINE
5
6A8
330
3AD
100
AcDbEntity
100
AcDbSpline
8
Layer_1
210
0
220
0
230
1
70
8
71
3
72
8
73
4
74
0
42
1e-7
43
1e-7
44
1e-10
40
0
40
0
40
0
40
0
40
1
40
1
40
1
40
1
10
-13.913734392735527
20
2.186152099886493
30
0
10
-14.04994324631101
20
2.1475596606528455
30
0
10
-14.189557321225879
20
2.124290509608223
30
0
10
-14.332576617480136
20
2.1163450624290587
30
0
0
SPLINE
5
6A9
330
3AD
100
AcDbEntity
100
AcDbSpline
8
Layer_1
210
0
220
0
230
1
70
8
71
3
72
8
73
4
74
0
42
1e-7
43
1e-7
44
1e-10
40
0
40
0
40
0
40
0
40
1
40
1
40
1
40
1
10
-14.332576617480136
20
2.1163450624290587
30
0
10
-14.475595913734393
20
2.1083996152498945
30
0
10
-14.616912599318956
20
2.092508513053349
30
0
10
-14.756526674233825
20
2.0686719636776396
30
0
0
SPLINE
5
6AA
330
3AD
100
AcDbEntity
100
AcDbSpline
8
Layer_1
210
0
220
0
230
1
70
8
71
3
72
8
73
4
74
0
42
1e-7
43
1e-7
44
1e-10
40
0
40
0
40
0
40
0
40
1
40
1
40
1
40
1
10
-14.756526674233825
20
2.0686719636776396
30
0
10
-14.896140749148694
20
2.04483541430193
30
0
10
-15.028376983053702
20
1.990919479041041
30
0
10
-15.153234960272417
20
1.9069239500567545
30
0
0
SPLINE
5
6AB
330
3AD
100
AcDbEntity
100
AcDbSpline
8
Layer_1
210
0
220
0
230
1
70
8
71
3
72
8
73
4
74
0
42
1e-7
43
1e-7
44
1e-10
40
0
40
0
40
0
40
0
40
1
40
1
40
1
40
1
10
-15.153234960272417
20
1.9069239500567545
30
0
10
-15.287173666288309
20
1.818388195232691
30
0
10
-15.392735527809307
20
1.727014755959138
30
0
10
-15.469920544835414
20
1.632803632236096
30
0
0
SPLINE
5
6AC
330
3AD
100
AcDbEntity
100
AcDbSpline
8
Layer_1
210
0
220
0
230
1
70
8
71
3
72
8
73
4
74
0
42
1e-7
43
1e-7
44
1e-10
40
0
40
0
40
0
40
0
40
1
40
1
40
1
40
1
10
-15.469920544835414
20
1.632803632236096
30
0
10
-15.54710542330271
20
1.5385924392336483
30
0
10
-15.61577766409797
20
1.4477866754088042
30
0
10
-15.675936435868332
20
1.360385925085131
30
0
0
SPLINE
5
6AD
330
3AD
100
AcDbEntity
100
AcDbSpline
8
Layer_1
210
0
220
0
230
1
70
8
71
3
72
8
73
4
74
0
42
1e-7
43
1e-7
44
1e-10
40
0
40
0
40
0
40
0
40
1
40
1
40
1
40
1
10
-15.675936435868332
20
1.360385925085131
30
0
10
-15.736095207638693
20
1.2729851747614576
30
0
10
-15.810442678774121
20
1.1940976856244683
30
0
10
-15.898978433598185
20
1.1237230419977302
30
0
0
SPLINE
5
6AE
330
3AD
100
AcDbEntity
100
AcDbSpline
8
Layer_1
210
0
220
0
230
1
70
8
71
3
72
8
73
4
74
0
42
1e-7
43
1e-7
44
1e-10
40
0
40
0
40
0
40
0
40
1
40
1
40
1
40
1
10
-15.898978433598185
20
1.1237230419977302
30
0
10
-15.973893303064699
20
1.06469927472776
30
0
10
-16.058456230380074
20
1.0147559591373443
30
0
10
-16.15266742338252
20
0.9738933030646996
30
0
0
SPLINE
5
6AF
330
3AD
100
AcDbEntity
100
AcDbSpline
8
Layer_1
210
0
220
0
230
1
70
8
71
3
72
8
73
4
74
0
42
1e-7
43
1e-7
44
1e-10
40
0
40
0
40
0
40
0
40
1
40
1
40
1
40
1
10
-16.15266742338252
20
0.9738933030646996
30
0
10
-16.24687861638497
20
0.9330306469920548
30
0
10
-16.33995459704881
20
0.8898979819186297
30
0
10
-16.43189557321226
20
0.8444948921679912
30
0
0
SPLINE
5
6B0
330
3AD
100
AcDbEntity
100
AcDbSpline
8
Layer_1
210
0
220
0
230
1
70
8
71
3
72
8
73
4
74
0
42
1e-7
43
1e-7
44
1e-10
40
0
40
0
40
0
40
0
40
1
40
1
40
1
40
1
10
-16.43189557321226
20
0.8444948921679912
30
0
10
-16.52383654937571
20
0.7990918024173528
30
0
10
-16.607264472190693
20
0.7366630216462119
30
0
10
-16.682179341657207
20
0.6572077185017028
30
0
0
SPLINE
5
6B1
330
3AD
100
AcDbEntity
100
AcDbSpline
8
Layer_1
210
0
220
0
230
1
70
8
71
3
72
8
73
4
74
0
42
1e-7
43
1e-7
44
1e-10
40
0
40
0
40
0
40
0
40
1
40
1
40
1
40
1
10
-16.682179341657207
20
0.6572077185017028
30
0
10
-16.79568665035737
20
0.536889759284549
30
0
10
-16.875141953501878
20
0.41713961407491507
30
0
10
-16.9205448354143
20
0.2979568671963679
30
0
0
SPLINE
5
6B2
330
3AD
100
AcDbEntity
100
AcDbSpline
8
Layer_1
210
0
220
0
230
1
70
8
71
3
72
8
73
4
74
0
42
1e-7
43
1e-7
44
1e-10
40
0
40
0
40
0
40
0
40
1
40
1
40
1
40
1
10
-16.9205448354143
20
0.2979568671963679
30
0
10
-16.965947717326724
20
0.17877412031782072
30
0
10
-16.99716231555051
20
0.07037443578852158
30
0
10
-17.014188422247447
20
-0.02724177071509649
30
0
0
SPLINE
5
6B3
330
3AD
100
AcDbEntity
100
AcDbSpline
8
Layer_1
210
0
220
0
230
1
70
8
71
3
72
8
73
4
74
0
42
1e-7
43
1e-7
44
1e-10
40
0
40
0
40
0
40
0
40
1
40
1
40
1
40
1
10
-17.014188422247447
20
-0.02724177071509649
30
0
10
-17.031214528944382
20
-0.12485797721871457
30
0
10
-17.052213463150007
20
-0.20317806802461696
30
0
10
-17.077185017026107
20
-0.2622020431328037
30
0
0
SPLINE
5
6B4
330
3AD
100
AcDbEntity
100
AcDbSpline
8
Layer_1
210
0
220
0
230
1
70
8
71
3
72
8
73
4
74
0
42
1e-7
43
1e-7
44
1e-10
40
0
40
0
40
0
40
0
40
1
40
1
40
1
40
1
10
-14.458569807037458
20
-0.41032917139614095
30
0
10
-14.358683175856626
20
-0.511350599239146
30
0
10
-14.238365632315904
20
-0.5618615209988651
30
0
10
-14.097616345062429
20
-0.5618615209988651
30
0
0
SPLINE
5
6B5
330
3AD
100
AcDbEntity
100
AcDbSpline
8
Layer_1
210
0
220
0
230
1
70
8
71
3
72
8
73
4
74
0
42
1e-7
43
1e-7
44
1e-10
40
0
40
0
40
0
40
0
40
1
40
1
40
1
40
1
10
-14.097616345062429
20
-0.5618615209988651
30
0
10
-13.954597048808171
20
-0.5618615209988651
30
0
10
-13.832576478921325
20
-0.511350599239146
30
0
10
-13.73155505107832
20
-0.41032917139614095
30
0
0
SPLINE
5
6B6
330
3AD
100
AcDbEntity
100
AcDbSpline
8
Layer_1
210
0
220
0
230
1
70
8
71
3
72
8
73
4
74
0
42
1e-7
43
1e-7
44
1e-10
40
0
40
0
40
0
40
0
40
1
40
1
40
1
40
1
10
-13.73155505107832
20
-0.41032917139614095
30
0
10
-13.630533623235316
20
-0.3093077435531358
30
0
10
-13.580022701475595
20
-0.18842238600489508
30
0
10
-13.580022701475595
20
-0.047673098751418855
30
0
0
SPLINE
5
6B7
330
3AD
100
AcDbEntity
100
AcDbSpline
8
Layer_1
210
0
220
0
230
1
70
8
71
3
72
8
73
4
74
0
42
1e-7
43
1e-7
44
1e-10
40
0
40
0
40
0
40
0
40
1
40
1
40
1
40
1
10
-13.580022701475595
20
-0.047673098751418855
30
0
10
-13.580022701475595
20
0.09307618850205736
30
0
10
-13.630533623235316
20
0.213961546050298
30
0
10
-13.73155505107832
20
0.31498297389330315
30
0
0
SPLINE
5
6B8
330
3AD
100
AcDbEntity
100
AcDbSpline
8
Layer_1
210
0
220
0
230
1
70
8
71
3
72
8
73
4
74
0
42
1e-7
43
1e-7
44
1e-10
40
0
40
0
40
0
40
0
40
1
40
1
40
1
40
1
10
-13.73155505107832
20
0.31498297389330315
30
0
10
-13.832576478921325
20
0.4160044017363083
30
0
10
-13.954597048808171
20
0.46651532349602737
30
0
10
-14.097616345062429
20
0.46651532349602737
30
0
0
SPLINE
5
6B9
330
3AD
100
AcDbEntity
100
AcDbSpline
8
Layer_1
210
0
220
0
230
1
70
8
71
3
72
8
73
4
74
0
42
1e-7
43
1e-7
44
1e-10
40
0
40
0
40
0
40
0
40
1
40
1
40
1
40
1
10
-14.097616345062429
20
0.46651532349602737
30
0
10
-14.238365632315904
20
0.46651532349602737
30
0
10
-14.358683175856626
20
0.4160044017363083
30
0
10
-14.458569807037458
20
0.31498297389330315
30
0
0
SPLINE
5
6BA
330
3AD
100
AcDbEntity
100
AcDbSpline
8
Layer_1
210
0
220
0
230
1
70
8
71
3
72
8
73
4
74
0
42
1e-7
43
1e-7
44
1e-10
40
0
40
0
40
0
40
0
40
1
40
1
40
1
40
1
10
-14.458569807037458
20
0.31498297389330315
30
0
10
-14.55845643821829
20
0.213961546050298
30
0
10
-14.608399545970489
20
0.09307618850205736
30
0
10
-14.608399545970489
20
-0.047673098751418855
30
0
0
SPLINE
5
6BB
330
3AD
100
AcDbEntity
100
AcDbSpline
8
Layer_1
210
0
220
0
230
1
70
8
71
3
72
8
73
4
74
0
42
1e-7
43
1e-7
44
1e-10
40
0
40
0
40
0
40
0
40
1
40
1
40
1
40
1
10
-14.608399545970489
20
-0.047673098751418855
30
0
10
-14.608399545970489
20
-0.18842238600489508
30
0
10
-14.55845643821829
20
-0.3093077435531358
30
0
10
-14.458569807037458
20
-0.41032917139614095
30
0
0
SPLINE
5
6BC
330
3AD
100
AcDbEntity
100
AcDbSpline
8
Layer_1
210
0
220
0
230
1
70
8
71
3
72
8
73
4
74
0
42
1e-7
43
1e-7
44
1e-10
40
0
40
0
40
0
40
0
40
1
40
1
40
1
40
1
10
-13.38422247446084
20
-2.0959137343927363
30
0
10
-13.305902383654937
20
-2.174233825198639
30
0
10
-13.208853575482406
20
-2.21339387060159
30
0
10
-13.093076049943246
20
-2.21339387060159
30
0
0
SPLINE
5
6BD
330
3AD
100
AcDbEntity
100
AcDbSpline
8
Layer_1
210
0
220
0
230
1
70
8
71
3
72
8
73
4
74
0
42
1e-7
43
1e-7
44
1e-10
40
0
40
0
40
0
40
0
40
1
40
1
40
1
40
1
10
-13.093076049943246
20
-2.21339387060159
30
0
10
-12.98183895808208
20
-2.21339387060159
30
0
10
-12.887060158910328
20
-2.174233825198639
30
0
10
-12.808740068104425
20
-2.0959137343927363
30
0
0
SPLINE
5
6BE
330
3AD
100
AcDbEntity
100
AcDbSpline
8
Layer_1
210
0
220
0
230
1
70
8
71
3
72
8
73
4
74
0
42
1e-7
43
1e-7
44
1e-10
40
0
40
0
40
0
40
0
40
1
40
1
40
1
40
1
10
-12.808740068104425
20
-2.0959137343927363
30
0
10
-12.730419977298522
20
-2.017593643586834
30
0
10
-12.691259931895573
20
-1.9205448354143024
30
0
10
-12.691259931895573
20
-1.8047673098751424
30
0
0
SPLINE
5
6BF
330
3AD
100
AcDbEntity
100
AcDbSpline
8
Layer_1
210
0
220
0
230
1
70
8
71
3
72
8
73
4
74
0
42
1e-7
43
1e-7
44
1e-10
40
0
40
0
40
0
40
0
40
1
40
1
40
1
40
1
10
-12.691259931895573
20
-1.8047673098751424
30
0
10
-12.691259931895573
20
-1.6912597933367628
30
0
10
-12.730419977298522
20
-1.5953461975028382
30
0
10
-12.808740068104425
20
-1.5170261066969357
30
0
0
SPLINE
5
6C0
330
3AD
100
AcDbEntity
100
AcDbSpline
8
Layer_1
210
0
220
0
230
1
70
8
71
3
72
8
73
4
74
0
42
1e-7
43
1e-7
44
1e-10
40
0
40
0
40
0
40
0
40
1
40
1
40
1
40
1
10
-12.808740068104425
20
-1.5170261066969357
30
0
10
-12.887060158910328
20
-1.4387060158910332
30
0
10
-12.98183895808208
20
-1.3995459704880824
30
0
10
-13.093076049943246
20
-1.3995459704880824
30
0
0
SPLINE
5
6C1
330
3AD
100
AcDbEntity
100
AcDbSpline
8
Layer_1
210
0
220
0
230
1
70
8
71
3
72
8
73
4
74
0
42
1e-7
43
1e-7
44
1e-10
40
0
40
0
40
0
40
0
40
1
40
1
40
1
40
1
10
-13.093076049943246
20
-1.3995459704880824
30
0
10
-13.208853575482406
20
-1.3995459704880824
30
0
10
-13.305902383654937
20
-1.4387060158910332
30
0
10
-13.38422247446084
20
-1.5170261066969357
30
0
0
SPLINE
5
6C2
330
3AD
100
AcDbEntity
100
AcDbSpline
8
Layer_1
210
0
220
0
230
1
70
8
71
3
72
8
73
4
74
0
42
1e-7
43
1e-7
44
1e-10
40
0
40
0
40
0
40
0
40
1
40
1
40
1
40
1
10
-13.38422247446084
20
-1.5170261066969357
30
0
10
-13.462542565266743
20
-1.5953461975028382
30
0
10
-13.501702610669692
20
-1.6912597933367628
30
0
10
-13.501702610669692
20
-1.8047673098751424
30
0
0
SPLINE
5
6C3
330
3AD
100
AcDbEntity
100
AcDbSpline
8
Layer_1
210
0
220
0
230
1
70
8
71
3
72
8
73
4
74
0
42
1e-7
43
1e-7
44
1e-10
40
0
40
0
40
0
40
0
40
1
40
1
40
1
40
1
10
-13.501702610669692
20
-1.8047673098751424
30
0
10
-13.501702610669692
20
-1.9205448354143024
30
0
10
-13.462542565266743
20
-2.017593643586834
30
0
10
-13.38422247446084
20
-2.0959137343927363
30
0
0
LINE
5
6C4
330
3AD
100
AcDbEntity
100
AcDbLine
8
Layer_1
10
14.27775745560461
20
-4.211538461538462
30
0
11
15.735449763296916
21
-4.211538461538462
31
0
0
LINE
5
6C5
330
3AD
100
AcDbEntity
100
AcDbLine
8
Layer_1
10
15.735449763296916
20
-4.211538461538462
30
0
11
15.866218994066148
21
-2.9
31
0
0
SPLINE
5
6C6
330
3AD
100
AcDbEntity
100
AcDbSpline
8
Layer_1
210
0
220
0
230
1
70
8
71
3
72
8
73
4
74
0
42
1e-7
43
1e-7
44
1e-10
40
0
40
0
40
0
40
0
40
1
40
1
40
1
40
1
10
15.866218994066148
20
-2.9
30
0
10
15.943142070989225
20
-2.876923076923077
30
0
10
16.01878294012985
20
-2.849359130859375
30
0
10
16.093142070989224
20
-2.8173076923076925
30
0
0
SPLINE
5
6C7
330
3AD
100
AcDbEntity
100
AcDbSpline
8
Layer_1
210
0
220
0
230
1
70
8
71
3
72
8
73
4
74
0
42
1e-7
43
1e-7
44
1e-10
40
0
40
0
40
0
40
0
40
1
40
1
40
1
40
1
10
16.093142070989224
20
-2.8173076923076925
30
0
10
16.167501201848598
20
-2.78525625375601
30
0
10
16.243142070989226
20
-2.7499999999999996
30
0
10
16.320065147912302
20
-2.7115384615384612
30
0
0
LINE
5
6C8
330
3AD
100
AcDbEntity
100
AcDbLine
8
Layer_1
10
16.320065147912302
20
-2.7115384615384612
30
0
11
17.339295917143073
21
-3.542307692307692
31
0
0
LINE
5
6C9
330
3AD
100
AcDbEntity
100
AcDbLine
8
Layer_1
10
17.339295917143073
20
-3.542307692307692
30
0
11
18.370065147912303
21
-2.5153846153846153
31
0
0
LINE
5
6CA
330
3AD
100
AcDbEntity
100
AcDbLine
8
Layer_1
10
18.370065147912303
20
-2.5153846153846153
30
0
11
17.539295917143072
21
-1.4923076923076923
31
0
0
SPLINE
5
6CB
330
3AD
100
AcDbEntity
100
AcDbSpline
8
Layer_1
210
0
220
0
230
1
70
8
71
3
72
8
73
4
74
0
42
1e-7
43
1e-7
44
1e-10
40
0
40
0
40
0
40
0
40
1
40
1
40
1
40
1
10
17.539295917143072
20
-1.4923076923076923
30
0
10
17.613655048002446
20
-1.3358975923978367
30
0
10
17.673911301758455
20
-1.1846153846153846
30
0
10
17.7200651479123
20
-1.0384615384615385
30
0
0
LINE
5
6CC
330
3AD
100
AcDbEntity
100
AcDbLine
8
Layer_1
10
17.7200651479123
20
-1.0384615384615385
30
0
11
19.031603609450762
21
-0.9076923076923077
31
0
0
LINE
5
6CD
330
3AD
100
AcDbEntity
100
AcDbLine
8
Layer_1
10
19.031603609450762
20
-0.9076923076923077
30
0
11
19.031603609450762
21
0.5423076923076923
31
0
0
LINE
5
6CE
330
3AD
100
AcDbEntity
100
AcDbLine
8
Layer_1
10
19.031603609450762
20
0.5423076923076923
30
0
11
17.716218994066146
21
0.673076923076923
31
0
0
SPLINE
5
6CF
330
3AD
100
AcDbEntity
100
AcDbSpline
8
Layer_1
210
0
220
0
230
1
70
8
71
3
72
8
73
4
74
0
42
1e-7
43
1e-7
44
1e-10
40
0
40
0
40
0
40
0
40
1
40
1
40
1
40
1
10
17.716218994066146
20
0.673076923076923
30
0
10
17.6700651479123
20
0.8294870229867788
30
0
10
17.60852668637384
20
0.9782052847055289
30
0
10
17.531603609450762
20
1.1192307692307693
30
0
0
LINE
5
6D0
330
3AD
100
AcDbEntity
100
AcDbLine
8
Layer_1
10
17.531603609450762
20
1.1192307692307693
30
0
11
18.370065147912303
21
2.146153846153846
31
0
0
LINE
5
6D1
330
3AD
100
AcDbEntity
100
AcDbLine
8
Layer_1
10
18.370065147912303
20
2.146153846153846
30
0
11
17.339295917143073
21
3.173076923076923
31
0
0
LINE
5
6D2
330
3AD
100
AcDbEntity
100
AcDbLine
8
Layer_1
10
17.339295917143073
20
3.173076923076923
30
0
11
16.320065147912302
21
2.3423076923076924
31
0
0
SPLINE
5
6D3
330
3AD
100
AcDbEntity
100
AcDbSpline
8
Layer_1
210
0
220
0
230
1
70
8
71
3
72
8
73
4
74
0
42
1e-7
43
1e-7
44
1e-10
40
0
40
0
40
0
40
0
40
1
40
1
40
1
40
1
10
16.320065147912302
20
2.3423076923076924
30
0
10
16.179039663387062
20
2.4192307692307695
30
0
10
16.02775745560461
20
2.4820512038010816
30
0
10
15.866218994066148
20
2.5307692307692307
30
0
0
LINE
5
6D4
330
3AD
100
AcDbEntity
100
AcDbLine
8
Layer_1
10
15.866218994066148
20
2.5307692307692307
30
0
11
15.735449763296916
21
3.842307692307692
31
0
0
LINE
5
6D5
330
3AD
100
AcDbEntity
100
AcDbLine
8
Layer_1
10
15.735449763296916
20
3.842307692307692
30
0
11
14.27775745560461
21
3.842307692307692
31
0
0
LINE
5
6D6
330
3AD
100
AcDbEntity
100
AcDbLine
8
Layer_1
10
14.27775745560461
20
3.842307692307692
30
0
11
14.146988224835379
21
2.5307692307692307
31
0
0
SPLINE
5
6D7
330
3AD
100
AcDbEntity
100
AcDbSpline
8
Layer_1
210
0
220
0
230
1
70
8
71
3
72
8
73
4
74
0
42
1e-7
43
1e-7
44
1e-10
40
0
40
0
40
0
40
0
40
1
40
1
40
1
40
1
10
14.146988224835379
20
2.5307692307692307
30
0
10
13.980321401668311
20
2.4794872577373797
30
0
10
13.827757455604608
20
2.4166665884164664
30
0
10
13.68929591714307
20
2.3423076923076924
30
0
0
LINE
5
6D8
330
3AD
100
AcDbEntity
100
AcDbLine
8
Layer_1
10
13.68929591714307
20
2.3423076923076924
30
0
11
12.670065147912302
21
3.173076923076923
31
0
0
LINE
5
6D9
330
3AD
100
AcDbEntity
100
AcDbLine
8
Layer_1
10
12.670065147912302
20
3.173076923076923
30
0
11
11.63929591714307
21
2.146153846153846
31
0
0
LINE
5
6DA
330
3AD
100
AcDbEntity
100
AcDbLine
8
Layer_1
10
11.63929591714307
20
2.146153846153846
30
0
11
12.477757455604609
21
1.1192307692307693
31
0
0
SPLINE
5
6DB
330
3AD
100
AcDbEntity
100
AcDbSpline
8
Layer_1
210
0
220
0
230
1
70
8
71
3
72
8
73
4
74
0
42
1e-7
43
1e-7
44
1e-10
40
0
40
0
40
0
40
0
40
1
40
1
40
1
40
1
10
12.477757455604609
20
1.1192307692307693
30
0
10
12.400834378681532
20
0.9782052847055289
30
0
10
12.33929591714307
20
0.8294870229867788
30
0
10
12.293142070989225
20
0.673076923076923
30
0
0
LINE
5
6DC
330
3AD
100
AcDbEntity
100
AcDbLine
8
Layer_1
10
12.293142070989225
20
0.673076923076923
30
0
11
10.97775745560461
21
0.5423076923076923
31
0
0
LINE
5
6DD
330
3AD
100
AcDbEntity
100
AcDbLine
8
Layer_1
10
10.97775745560461
20
0.5423076923076923
30
0
11
10.97775745560461
21
-0.9076923076923077
31
0
0
LINE
5
6DE
330
3AD
100
AcDbEntity
100
AcDbLine
8
Layer_1
10
10.97775745560461
20
-0.9076923076923077
30
0
11
12.289295917143072
21
-1.0384615384615385
31
0
0
SPLINE
5
6DF
330
3AD
100
AcDbEntity
100
AcDbSpline
8
Layer_1
210
0
220
0
230
1
70
8
71
3
72
8
73
4
74
0
42
1e-7
43
1e-7
44
1e-10
40
0
40
0
40
0
40
0
40
1
40
1
40
1
40
1
10
12.289295917143072
20
-1.0384615384615385
30
0
10
12.332885582482614
20
-1.1820514385516827
30
0
10
12.394424044021076
20
-1.3333331768329328
30
0
10
12.473911301758456
20
-1.4923076923076923
30
0
0
LINE
5
6E0
330
3AD
100
AcDbEntity
100
AcDbLine
8
Layer_1
10
12.473911301758456
20
-1.4923076923076923
30
0
11
11.63929591714307
21
-2.5153846153846153
31
0
0
LINE
5
6E1
330
3AD
100
AcDbEntity
100
AcDbLine
8
Layer_1
10
11.63929591714307
20
-2.5153846153846153
30
0
11
12.670065147912302
21
-3.542307692307692
31
0
0
LINE
5
6E2
330
3AD
100
AcDbEntity
100
AcDbLine
8
Layer_1
10
12.670065147912302
20
-3.542307692307692
30
0
11
13.68929591714307
21
-2.7115384615384612
31
0
0
SPLINE
5
6E3
330
3AD
100
AcDbEntity
100
AcDbSpline
8
Layer_1
210
0
220
0
230
1
70
8
71
3
72
8
73
4
74
0
42
1e-7
43
1e-7
44
1e-10
40
0
40
0
40
0
40
0
40
1
40
1
40
1
40
1
10
13.68929591714307
20
-2.7115384615384612
30
0
10
13.766218994066147
20
-2.7499999999999996
30
0
10
13.843142070989225
20
-2.78525625375601
30
0
10
13.920065147912302
20
-2.8173076923076925
30
0
0
SPLINE
5
6E4
330
3AD
100
AcDbEntity
100
AcDbSpline
8
Layer_1
210
0
220
0
230
1
70
8
71
3
72
8
73
4
74
0
42
1e-7
43
1e-7
44
1e-10
40
0
40
0
40
0
40
0
40
1
40
1
40
1
40
1
10
13.920065147912302
20
-2.8173076923076925
30
0
10
13.996988224835379
20
-2.849359130859375
30
0
10
14.072629093976005
20
-2.876923076923077
30
0
10
14.146988224835379
20
-2.9
30
0
0
LINE
5
6E5
330
3AD
100
AcDbEntity
100
AcDbLine
8
Layer_1
10
14.146988224835379
20
-2.9
30
0
11
14.27775745560461
21
-4.211538461538462
31
0
0
LINE
5
6E6
330
3AD
100
AcDbEntity
100
AcDbLine
8
Layer_1
10
14.646988224835379
20
-3.8
30
0
11
14.520065147912302
21
-2.5769230769230766
31
0
0
SPLINE
5
6E7
330
3AD
100
AcDbEntity
100
AcDbSpline
8
Layer_1
210
0
220
0
230
1
70
8
71
3
72
8
73
4
74
0
42
1e-7
43
1e-7
44
1e-10
40
0
40
0
40
0
40
0
40
1
40
1
40
1
40
1
10
14.520065147912302
20
-2.5769230769230766
30
0
10
14.207244478591388
20
-2.510256253756009
30
0
10
13.917500967097999
20
-2.3884615384615384
30
0
10
13.650834378681532
20
-2.2115384615384617
30
0
0
LINE
5
6E8
330
3AD
100
AcDbEntity
100
AcDbLine
8
Layer_1
10
13.650834378681532
20
-2.2115384615384617
30
0
11
12.693142070989225
21
-2.9923076923076923
31
0
0
LINE
5
6E9
330
3AD
100
AcDbEntity
100
AcDbLine
8
Layer_1
10
12.693142070989225
20
-2.9923076923076923
30
0
11
12.193142070989225
21
-2.4923076923076923
31
0
0
LINE
5
6EA
330
3AD
100
AcDbEntity
100
AcDbLine
8
Layer_1
10
12.193142070989225
20
-2.4923076923076923
30
0
11
12.970065147912301
21
-1.5346153846153845
31
0
0
SPLINE
5
6EB
330
3AD
100
AcDbEntity
100
AcDbSpline
8
Layer_1
210
0
220
0
230
1
70
8
71
3
72
8
73
4
74
0
42
1e-7
43
1e-7
44
1e-10
40
0
40
0
40
0
40
0
40
1
40
1
40
1
40
1
10
12.970065147912301
20
-1.5346153846153845
30
0
10
12.785449763296917
20
-1.2346153846153844
30
0
10
12.66878309663025
20
-0.9448717948717948
30
0
10
12.620065147912301
20
-0.6653846153846154
30
0
0
LINE
5
6EC
330
3AD
100
AcDbEntity
100
AcDbLine
8
Layer_1
10
12.620065147912301
20
-0.6653846153846154
30
0
11
11.389295917143071
21
-0.5384615384615385
31
0
0
LINE
5
6ED
330
3AD
100
AcDbEntity
100
AcDbLine
8
Layer_1
10
11.389295917143071
20
-0.5384615384615385
30
0
11
11.389295917143071
21
0.17307692307692307
31
0
0
LINE
5
6EE
330
3AD
100
AcDbEntity
100
AcDbLine
8
Layer_1
10
11.389295917143071
20
0.17307692307692307
30
0
11
12.612372840219994
21
0.29615384615384616
31
0
0
SPLINE
5
6EF
330
3AD
100
AcDbEntity
100
AcDbSpline
8
Layer_1
210
0
220
0
230
1
70
8
71
3
72
8
73
4
74
0
42
1e-7
43
1e-7
44
1e-10
40
0
40
0
40
0
40
0
40
1
40
1
40
1
40
1
10
12.612372840219994
20
0.29615384615384616
30
0
10
12.648270197867229
20
0.46025625375600965
30
0
10
12.696347120944154
20
0.6128206693209135
30
0
10
12.756603609450764
20
0.7538461538461538
30
0
0
SPLINE
5
6F0
330
3AD
100
AcDbEntity
100
AcDbSpline
8
Layer_1
210
0
220
0
230
1
70
8
71
3
72
8
73
4
74
0
42
1e-7
43
1e-7
44
1e-10
40
0
40
0
40
0
40
0
40
1
40
1
40
1
40
1
10
12.756603609450764
20
0.7538461538461538
30
0
10
12.816860097957374
20
0.8948716383713942
30
0
10
12.890577890174923
20
1.0294870229867787
30
0
10
12.97775745560461
20
1.1576923076923076
30
0
0
LINE
5
6F1
330
3AD
100
AcDbEntity
100
AcDbLine
8
Layer_1
10
12.97775745560461
20
1.1576923076923076
30
0
11
12.193142070989225
21
2.123076923076923
31
0
0
LINE
5
6F2
330
3AD
100
AcDbEntity
100
AcDbLine
8
Layer_1
10
12.193142070989225
20
2.123076923076923
30
0
11
12.693142070989225
21
2.623076923076923
31
0
0
LINE
5
6F3
330
3AD
100
AcDbEntity
100
AcDbLine
8
Layer_1
10
12.693142070989225
20
2.623076923076923
30
0
11
13.650834378681532
21
1.8423076923076922
31
0
0
SPLINE
5
6F4
330
3AD
100
AcDbEntity
100
AcDbSpline
8
Layer_1
210
0
220
0
230
1
70
8
71
3
72
8
73
4
74
0
42
1e-7
43
1e-7
44
1e-10
40
0
40
0
40
0
40
0
40
1
40
1
40
1
40
1
10
13.650834378681532
20
1.8423076923076922
30
0
10
13.935449763296917
20
2.0294871794871794
30
0
10
14.225193353040506
20
2.148717948717949
30
0
10
14.520065147912302
20
2.2
30
0
0
LINE
5
6F5
330
3AD
100
AcDbEntity
100
AcDbLine
8
Layer_1
10
14.520065147912302
20
2.2
30
0
11
14.646988224835379
21
3.4307692307692306
31
0
0
LINE
5
6F6
330
3AD
100
AcDbEntity
100
AcDbLine
8
Layer_1
10
14.646988224835379
20
3.4307692307692306
30
0
11
15.366218994066148
21
3.4307692307692306
31
0
0
LINE
5
6F7
330
3AD
100
AcDbEntity
100
AcDbLine
8
Layer_1
10
15.366218994066148
20
3.4307692307692306
30
0
11
15.489295917143071
21
2.2
31
0
0
SPLINE
5
6F8
330
3AD
100
AcDbEntity
100
AcDbSpline
8
Layer_1
210
0
220
0
230
1
70
8
71
3
72
8
73
4
74
0
42
1e-7
43
1e-7
44
1e-10
40
0
40
0
40
0
40
0
40
1
40
1
40
1
40
1
10
15.489295917143071
20
2.2
30
0
10
15.784167712014867
20
2.148717948717949
30
0
10
16.073911301758454
20
2.0294871794871794
30
0
10
16.35852668637384
20
1.8423076923076922
30
0
0
LINE
5
6F9
330
3AD
100
AcDbEntity
100
AcDbLine
8
Layer_1
10
16.35852668637384
20
1.8423076923076922
30
0
11
17.316218994066148
21
2.623076923076923
31
0
0
LINE
5
6FA
330
3AD
100
AcDbEntity
100
AcDbLine
8
Layer_1
10
17.316218994066148
20
2.623076923076923
30
0
11
17.820065147912302
21
2.123076923076923
31
0
0
LINE
5
6FB
330
3AD
100
AcDbEntity
100
AcDbLine
8
Layer_1
10
17.820065147912302
20
2.123076923076923
30
0
11
17.031603609450762
21
1.1576923076923076
31
0
0
SPLINE
5
6FC
330
3AD
100
AcDbEntity
100
AcDbSpline
8
Layer_1
210
0
220
0
230
1
70
8
71
3
72
8
73
4
74
0
42
1e-7
43
1e-7
44
1e-10
40
0
40
0
40
0
40
0
40
1
40
1
40
1
40
1
10
17.031603609450762
20
1.1576923076923076
30
0
10
17.118782940129847
20
1.0294870229867787
30
0
10
17.1925012018486
20
0.8948716383713942
30
0
10
17.25275745560461
20
0.7538461538461538
30
0
0
SPLINE
5
6FD
330
3AD
100
AcDbEntity
100
AcDbSpline
8
Layer_1
210
0
220
0
230
1
70
8
71
3
72
8
73
4
74
0
42
1e-7
43
1e-7
44
1e-10
40
0
40
0
40
0
40
0
40
1
40
1
40
1
40
1
10
17.25275745560461
20
0.7538461538461538
30
0
10
17.313013709360618
20
0.6128206693209135
30
0
10
17.36109063243754
20
0.46025625375600965
30
0
10
17.39698822483538
20
0.29615384615384616
30
0
0
LINE
5
6FE
330
3AD
100
AcDbEntity
100
AcDbLine
8
Layer_1
10
17.39698822483538
20
0.29615384615384616
30
0
11
18.620065147912303
21
0.17307692307692307
31
0
0
LINE
5
6FF
330
3AD
100
AcDbEntity
100
AcDbLine
8
Layer_1
10
18.620065147912303
20
0.17307692307692307
30
0
11
18.620065147912303
21
-0.5384615384615385
31
0
0
LINE
5
700
330
3AD
100
AcDbEntity
100
AcDbLine
8
Layer_1
10
18.620065147912303
20
-0.5384615384615385
30
0
11
17.38929591714307
21
-0.6653846153846154
31
0
0
SPLINE
5
701
330
3AD
100
AcDbEntity
100
AcDbSpline
8
Layer_1
210
0
220
0
230
1
70
8
71
3
72
8
73
4
74
0
42
1e-7
43
1e-7
44
1e-10
40
0
40
0
40
0
40
0
40
1
40
1
40
1
40
1
10
17.38929591714307
20
-0.6653846153846154
30
0
10
17.338013709360617
20
-0.947436053936298
30
0
10
17.221347355694753
20
-1.2371793306790864
30
0
10
17.039295917143072
20
-1.5346153846153845
30
0
0
LINE
5
702
330
3AD
100
AcDbEntity
100
AcDbLine
8
Layer_1
10
17.039295917143072
20
-1.5346153846153845
30
0
11
17.820065147912302
21
-2.4923076923076923
31
0
0
LINE
5
703
330
3AD
100
AcDbEntity
100
AcDbLine
8
Layer_1
10
17.820065147912302
20
-2.4923076923076923
30
0
11
17.316218994066148
21
-2.9923076923076923
31
0
0
LINE
5
704
330
3AD
100
AcDbEntity
100
AcDbLine
8
Layer_1
10
17.316218994066148
20
-2.9923076923076923
30
0
11
16.35852668637384
21
-2.2115384615384617
31
0
0
SPLINE
5
705
330
3AD
100
AcDbEntity
100
AcDbSpline
8
Layer_1
210
0
220
0
230
1
70
8
71
3
72
8
73
4
74
0
42
1e-7
43
1e-7
44
1e-10
40
0
40
0
40
0
40
0
40
1
40
1
40
1
40
1
10
16.35852668637384
20
-2.2115384615384617
30
0
10
16.09185986320677
20
-2.3910254845252403
30
0
10
15.802116586463985
20
-2.512820669320913
30
0
10
15.489295917143071
20
-2.5769230769230766
30
0
0
LINE
5
706
330
3AD
100
AcDbEntity
100
AcDbLine
8
Layer_1
10
15.489295917143071
20
-2.5769230769230766
30
0
11
15.366218994066148
21
-3.8
31
0
0
LINE
5
707
330
3AD
100
AcDbEntity
100
AcDbLine
8
Layer_1
10
15.366218994066148
20
-3.8
30
0
11
14.646988224835379
21
-3.8
31
0
0
SPLINE
5
708
330
3AD
100
AcDbEntity
100
AcDbSpline
8
Layer_1
210
0
220
0
230
1
70
8
71
3
72
8
73
4
74
0
42
1e-7
43
1e-7
44
1e-10
40
0
40
0
40
0
40
0
40
1
40
1
40
1
40
1
10
14.023911301758456
20
-1.875
30
0
10
14.318783096630252
20
-2.0506410256410255
30
0
10
14.645706173553327
20
-2.1384615384615384
30
0
10
15.004680532527686
20
-2.1384615384615384
30
0
0
SPLINE
5
709
330
3AD
100
AcDbEntity
100
AcDbSpline
8
Layer_1
210
0
220
0
230
1
70
8
71
3
72
8
73
4
74
0
42
1e-7
43
1e-7
44
1e-10
40
0
40
0
40
0
40
0
40
1
40
1
40
1
40
1
10
15.004680532527686
20
-2.1384615384615384
30
0
10
15.366218994066148
20
-2.1384615384615384
30
0
10
15.69378294012985
20
-2.050640869140625
30
0
10
15.987372840219994
20
-1.875
30
0
0
SPLINE
5
70A
330
3AD
100
AcDbEntity
100
AcDbSpline
8
Layer_1
210
0
220
0
230
1
70
8
71
3
72
8
73
4
74
0
42
1e-7
43
1e-7
44
1e-10
40
0
40
0
40
0
40
0
40
1
40
1
40
1
40
1
10
15.987372840219994
20
-1.875
30
0
10
16.280962740310137
20
-1.699359130859375
30
0
10
16.515578124925522
20
-1.4641024076021636
30
0
10
16.691218994066148
20
-1.1692307692307693
30
0
0
SPLINE
5
70B
330
3AD
100
AcDbEntity
100
AcDbSpline
8
Layer_1
210
0
220
0
230
1
70
8
71
3
72
8
73
4
74
0
42
1e-7
43
1e-7
44
1e-10
40
0
40
0
40
0
40
0
40
1
40
1
40
1
40
1
10
16.691218994066148
20
-1.1692307692307693
30
0
10
16.866860019707172
20
-0.8743589743589745
30
0
10
16.954680532527686
20
-0.5474358974358974
30
0
10
16.954680532527686
20
-0.18846153846153846
30
0
0
SPLINE
5
70C
330
3AD
100
AcDbEntity
100
AcDbSpline
8
Layer_1
210
0
220
0
230
1
70
8
71
3
72
8
73
4
74
0
42
1e-7
43
1e-7
44
1e-10
40
0
40
0
40
0
40
0
40
1
40
1
40
1
40
1
10
16.954680532527686
20
-0.18846153846153846
30
0
10
16.954680532527686
20
0.17307692307692307
30
0
10
16.866859863206773
20
0.500640869140625
30
0
10
16.691218994066148
20
0.7942307692307693
30
0
0
SPLINE
5
70D
330
3AD
100
AcDbEntity
100
AcDbSpline
8
Layer_1
210
0
220
0
230
1
70
8
71
3
72
8
73
4
74
0
42
1e-7
43
1e-7
44
1e-10
40
0
40
0
40
0
40
0
40
1
40
1
40
1
40
1
10
16.691218994066148
20
0.7942307692307693
30
0
10
16.515578124925522
20
1.0878204345703124
30
0
10
16.28032140166831
20
1.322435819185697
30
0
10
15.985449763296916
20
1.498076923076923
30
0
0
SPLINE
5
70E
330
3AD
100
AcDbEntity
100
AcDbSpline
8
Layer_1
210
0
220
0
230
1
70
8
71
3
72
8
73
4
74
0
42
1e-7
43
1e-7
44
1e-10
40
0
40
0
40
0
40
0
40
1
40
1
40
1
40
1
10
15.985449763296916
20
1.498076923076923
30
0
10
15.69057796842512
20
1.6737179487179488
30
0
10
15.363654891502046
20
1.7615384615384615
30
0
10
15.004680532527686
20
1.7615384615384615
30
0
0
SPLINE
5
70F
330
3AD
100
AcDbEntity
100
AcDbSpline
8
Layer_1
210
0
220
0
230
1
70
8
71
3
72
8
73
4
74
0
42
1e-7
43
1e-7
44
1e-10
40
0
40
0
40
0
40
0
40
1
40
1
40
1
40
1
10
15.004680532527686
20
1.7615384615384615
30
0
10
14.645706017052927
20
1.7615384615384615
30
0
10
14.31878294012985
20
1.673718026968149
30
0
10
14.023911301758456
20
1.498076923076923
30
0
0
SPLINE
5
710
330
3AD
100
AcDbEntity
100
AcDbSpline
8
Layer_1
210
0
220
0
230
1
70
8
71
3
72
8
73
4
74
0
42
1e-7
43
1e-7
44
1e-10
40
0
40
0
40
0
40
0
40
1
40
1
40
1
40
1
10
14.023911301758456
20
1.498076923076923
30
0
10
13.72903950688666
20
1.3224358974358974
30
0
10
13.493783096630251
20
1.087179487179487
30
0
10
13.318142070989225
20
0.7923076923076923
30
0
0
SPLINE
5
711
330
3AD
100
AcDbEntity
100
AcDbSpline
8
Layer_1
210
0
220
0
230
1
70
8
71
3
72
8
73
4
74
0
42
1e-7
43
1e-7
44
1e-10
40
0
40
0
40
0
40
0
40
1
40
1
40
1
40
1
10
13.318142070989225
20
0.7923076923076923
30
0
10
13.1425010453482
20
0.49743589743589745
30
0
10
13.054680532527687
20
0.17051282051282046
30
0
10
13.054680532527687
20
-0.18846153846153846
30
0
0
SPLINE
5
712
330
3AD
100
AcDbEntity
100
AcDbSpline
8
Layer_1
210
0
220
0
230
1
70
8
71
3
72
8
73
4
74
0
42
1e-7
43
1e-7
44
1e-10
40
0
40
0
40
0
40
0
40
1
40
1
40
1
40
1
10
13.054680532527687
20
-0.18846153846153846
30
0
10
13.054680532527687
20
-0.5474360539362981
30
0
10
13.142500967098
20
-0.874359130859375
30
0
10
13.318142070989225
20
-1.1692307692307693
30
0
0
SPLINE
5
713
330
3AD
100
AcDbEntity
100
AcDbSpline
8
Layer_1
210
0
220
0
230
1
70
8
71
3
72
8
73
4
74
0
42
1e-7
43
1e-7
44
1e-10
40
0
40
0
40
0
40
0
40
1
40
1
40
1
40
1
10
13.318142070989225
20
-1.1692307692307693
30
0
10
13.49378317488045
20
-1.4641024076021636
30
0
10
13.729039428636462
20
-1.699359130859375
30
0
10
14.023911301758456
20
-1.875
30
0
0
SPLINE
5
714
330
3AD
100
AcDbEntity
100
AcDbSpline
8
Layer_1
210
0
220
0
230
1
70
8
71
3
72
8
73
4
74
0
42
1e-7
43
1e-7
44
1e-10
40
0
40
0
40
0
40
0
40
1
40
1
40
1
40
1
10
15.810449763296917
20
-1.575
30
0
10
15.568142070989225
20
-1.7198716383713941
30
0
10
15.29955217089908
20
-1.7923076923076922
30
0
10
15.004680532527686
20
-1.7923076923076922
30
0
0
SPLINE
5
715
330
3AD
100
AcDbEntity
100
AcDbSpline
8
Layer_1
210
0
220
0
230
1
70
8
71
3
72
8
73
4
74
0
42
1e-7
43
1e-7
44
1e-10
40
0
40
0
40
0
40
0
40
1
40
1
40
1
40
1
10
15.004680532527686
20
-1.7923076923076922
30
0
10
14.712372840219993
20
-1.7923076923076922
30
0
10
14.444424278771677
20
-1.7198716383713941
30
0
10
14.200834378681533
20
-1.575
30
0
0
SPLINE
5
716
330
3AD
100
AcDbEntity
100
AcDbSpline
8
Layer_1
210
0
220
0
230
1
70
8
71
3
72
8
73
4
74
0
42
1e-7
43
1e-7
44
1e-10
40
0
40
0
40
0
40
0
40
1
40
1
40
1
40
1
10
14.200834378681533
20
-1.575
30
0
10
13.95724463509179
20
-1.4301282051282052
30
0
10
13.763013865861021
20
-1.235897435897436
30
0
10
13.618142070989226
20
-0.9923076923076923
30
0
0
SPLINE
5
717
330
3AD
100
AcDbEntity
100
AcDbSpline
8
Layer_1
210
0
220
0
230
1
70
8
71
3
72
8
73
4
74
0
42
1e-7
43
1e-7
44
1e-10
40
0
40
0
40
0
40
0
40
1
40
1
40
1
40
1
10
13.618142070989226
20
-0.9923076923076923
30
0
10
13.47327027611743
20
-0.7487179487179487
30
0
10
13.400834378681532
20
-0.4807692307692308
30
0
10
13.400834378681532
20
-0.18846153846153846
30
0
0
SPLINE
5
718
330
3AD
100
AcDbEntity
100
AcDbSpline
8
Layer_1
210
0
220
0
230
1
70
8
71
3
72
8
73
4
74
0
42
1e-7
43
1e-7
44
1e-10
40
0
40
0
40
0
40
0
40
1
40
1
40
1
40
1
10
13.400834378681532
20
-0.18846153846153846
30
0
10
13.400834378681532
20
0.10641009990985578
30
0
10
13.473270197867231
20
0.37500000000000006
30
0
10
13.618142070989226
20
0.6173076923076923
30
0
0
SPLINE
5
719
330
3AD
100
AcDbEntity
100
AcDbSpline
8
Layer_1
210
0
220
0
230
1
70
8
71
3
72
8
73
4
74
0
42
1e-7
43
1e-7
44
1e-10
40
0
40
0
40
0
40
0
40
1
40
1
40
1
40
1
10
13.618142070989226
20
0.6173076923076923
30
0
10
13.76301394411122
20
0.8596153846153847
30
0
10
13.957244478591388
20
1.0532052847055289
30
0
10
14.200834378681533
20
1.198076923076923
30
0
0
SPLINE
5
71A
330
3AD
100
AcDbEntity
100
AcDbSpline
8
Layer_1
210
0
220
0
230
1
70
8
71
3
72
8
73
4
74
0
42
1e-7
43
1e-7
44
1e-10
40
0
40
0
40
0
40
0
40
1
40
1
40
1
40
1
10
14.200834378681533
20
1.198076923076923
30
0
10
14.444424122271275
20
1.3429487179487178
30
0
10
14.712372840219993
20
1.4153846153846152
30
0
10
15.004680532527686
20
1.4153846153846152
30
0
0
SPLINE
5
71B
330
3AD
100
AcDbEntity
100
AcDbSpline
8
Layer_1
210
0
220
0
230
1
70
8
71
3
72
8
73
4
74
0
42
1e-7
43
1e-7
44
1e-10
40
0
40
0
40
0
40
0
40
1
40
1
40
1
40
1
10
15.004680532527686
20
1.4153846153846152
30
0
10
15.29955217089908
20
1.4153846153846152
30
0
10
15.568142070989225
20
1.3429487961989182
30
0
10
15.810449763296917
20
1.198076923076923
30
0
0
SPLINE
5
71C
330
3AD
100
AcDbEntity
100
AcDbSpline
8
Layer_1
210
0
220
0
230
1
70
8
71
3
72
8
73
4
74
0
42
1e-7
43
1e-7
44
1e-10
40
0
40
0
40
0
40
0
40
1
40
1
40
1
40
1
10
15.810449763296917
20
1.198076923076923
30
0
10
16.05275745560461
20
1.0532052847055289
30
0
10
16.246347355694752
20
0.8596153846153847
30
0
10
16.391218994066147
20
0.6173076923076923
30
0
0
SPLINE
5
71D
330
3AD
100
AcDbEntity
100
AcDbSpline
8
Layer_1
210
0
220
0
230
1
70
8
71
3
72
8
73
4
74
0
42
1e-7
43
1e-7
44
1e-10
40
0
40
0
40
0
40
0
40
1
40
1
40
1
40
1
10
16.391218994066147
20
0.6173076923076923
30
0
10
16.536090632437542
20
0.37500000000000006
30
0
10
16.60852668637384
20
0.10641009990985578
30
0
10
16.60852668637384
20
-0.18846153846153846
30
0
0
SPLINE
5
71E
330
3AD
100
AcDbEntity
100
AcDbSpline
8
Layer_1
210
0
220
0
230
1
70
8
71
3
72
8
73
4
74
0
42
1e-7
43
1e-7
44
1e-10
40
0
40
0
40
0
40
0
40
1
40
1
40
1
40
1
10
16.60852668637384
20
-0.18846153846153846
30
0
10
16.60852668637384
20
-0.4807692307692308
30
0
10
16.536090632437542
20
-0.7487177922175481
30
0
10
16.391218994066147
20
-0.9923076923076923
30
0
0
SPLINE
5
71F
330
3AD
100
AcDbEntity
100
AcDbSpline
8
Layer_1
210
0
220
0
230
1
70
8
71
3
72
8
73
4
74
0
42
1e-7
43
1e-7
44
1e-10
40
0
40
0
40
0
40
0
40
1
40
1
40
1
40
1
10
16.391218994066147
20
-0.9923076923076923
30
0
10
16.246347355694752
20
-1.2358975923978366
30
0
10
16.05275745560461
20
-1.4301283616286058
30
0
10
15.810449763296917
20
-1.575
30
0
0
SPLINE
5
720
330
3AD
100
AcDbEntity
100
AcDbSpline
8
Layer_1
210
0
220
0
230
1
70
8
71
3
72
8
73
4
74
0
42
1e-7
43
1e-7
44
1e-10
40
0
40
0
40
0
40
0
40
1
40
1
40
1
40
1
10
14.441218994066148
20
-1.1576923076923076
30
0
10
14.611731971079369
20
-1.2576923076923077
30
0
10
14.79955217089908
20
-1.3076923076923077
30
0
10
15.004680532527686
20
-1.3076923076923077
30
0
0
SPLINE
5
721
330
3AD
100
AcDbEntity
100
AcDbSpline
8
Layer_1
210
0
220
0
230
1
70
8
71
3
72
8
73
4
74
0
42
1e-7
43
1e-7
44
1e-10
40
0
40
0
40
0
40
0
40
1
40
1
40
1
40
1
10
15.004680532527686
20
-1.3076923076923077
30
0
10
15.212372840219993
20
-1.3076923076923077
30
0
10
15.400834378681534
20
-1.2576923076923077
30
0
10
15.570065147912302
20
-1.1576923076923076
30
0
0
SPLINE
5
722
330
3AD
100
AcDbEntity
100
AcDbSpline
8
Layer_1
210
0
220
0
230
1
70
8
71
3
72
8
73
4
74
0
42
1e-7
43
1e-7
44
1e-10
40
0
40
0
40
0
40
0
40
1
40
1
40
1
40
1
10
15.570065147912302
20
-1.1576923076923076
30
0
10
15.739295917143071
20
-1.0576923076923075
30
0
10
15.873911301758456
20
-0.9224360539362981
30
0
10
15.973911301758456
20
-0.7519230769230769
30
0
0
SPLINE
5
723
330
3AD
100
AcDbEntity
100
AcDbSpline
8
Layer_1
210
0
220
0
230
1
70
8
71
3
72
8
73
4
74
0
42
1e-7
43
1e-7
44
1e-10
40
0
40
0
40
0
40
0
40
1
40
1
40
1
40
1
10
15.973911301758456
20
-0.7519230769230769
30
0
10
16.073911301758457
20
-0.5814100999098557
30
0
10
16.123911301758454
20
-0.3935899000901442
30
0
10
16.123911301758454
20
-0.18846153846153846
30
0
0
SPLINE
5
724
330
3AD
100
AcDbEntity
100
AcDbSpline
8
Layer_1
210
0
220
0
230
1
70
8
71
3
72
8
73
4
74
0
42
1e-7
43
1e-7
44
1e-10
40
0
40
0
40
0
40
0
40
1
40
1
40
1
40
1
10
16.123911301758454
20
-0.18846153846153846
30
0
10
16.123911301758454
20
0.019230769230769218
30
0
10
16.073911301758457
20
0.20769230769230768
30
0
10
15.973911301758456
20
0.3769230769230769
30
0
0
SPLINE
5
725
330
3AD
100
AcDbEntity
100
AcDbSpline
8
Layer_1
210
0
220
0
230
1
70
8
71
3
72
8
73
4
74
0
42
1e-7
43
1e-7
44
1e-10
40
0
40
0
40
0
40
0
40
1
40
1
40
1
40
1
10
15.973911301758456
20
0.3769230769230769
30
0
10
15.873911301758456
20
0.5461538461538462
30
0
10
15.739295917143071
20
0.6807692307692307
30
0
10
15.570065147912302
20
0.7807692307692307
30
0
0
SPLINE
5
726
330
3AD
100
AcDbEntity
100
AcDbSpline
8
Layer_1
210
0
220
0
230
1
70
8
71
3
72
8
73
4
74
0
42
1e-7
43
1e-7
44
1e-10
40
0
40
0
40
0
40
0
40
1
40
1
40
1
40
1
10
15.570065147912302
20
0.7807692307692307
30
0
10
15.400834378681534
20
0.8807692307692306
30
0
10
15.212372840219993
20
0.9307692307692307
30
0
10
15.004680532527686
20
0.9307692307692307
30
0
0
SPLINE
5
727
330
3AD
100
AcDbEntity
100
AcDbSpline
8
Layer_1
210
0
220
0
230
1
70
8
71
3
72
8
73
4
74
0
42
1e-7
43
1e-7
44
1e-10
40
0
40
0
40
0
40
0
40
1
40
1
40
1
40
1
10
15.004680532527686
20
0.9307692307692307
30
0
10
14.79955217089908
20
0.9307692307692307
30
0
10
14.611731971079369
20
0.8807692307692306
30
0
10
14.441218994066148
20
0.7807692307692307
30
0
0
SPLINE
5
728
330
3AD
100
AcDbEntity
100
AcDbSpline
8
Layer_1
210
0
220
0
230
1
70
8
71
3
72
8
73
4
74
0
42
1e-7
43
1e-7
44
1e-10
40
0
40
0
40
0
40
0
40
1
40
1
40
1
40
1
10
14.441218994066148
20
0.7807692307692307
30
0
10
14.270706173553327
20
0.6807692307692307
30
0
10
14.135449763296917
20
0.5461538461538462
30
0
10
14.035449763296917
20
0.3769230769230769
30
0
0
SPLINE
5
729
330
3AD
100
AcDbEntity
100
AcDbSpline
8
Layer_1
210
0
220
0
230
1
70
8
71
3
72
8
73
4
74
0
42
1e-7
43
1e-7
44
1e-10
40
0
40
0
40
0
40
0
40
1
40
1
40
1
40
1
10
14.035449763296917
20
0.3769230769230769
30
0
10
13.935449763296917
20
0.20769230769230768
30
0
10
13.885449763296917
20
0.019230769230769218
30
0
10
13.885449763296917
20
-0.18846153846153846
30
0
0
SPLINE
5
72A
330
3AD
100
AcDbEntity
100
AcDbSpline
8
Layer_1
210
0
220
0
230
1
70
8
71
3
72
8
73
4
74
0
42
1e-7
43
1e-7
44
1e-10
40
0
40
0
40
0
40
0
40
1
40
1
40
1
40
1
10
13.885449763296917
20
-0.18846153846153846
30
0
10
13.885449763296917
20
-0.3935899000901442
30
0
10
13.935449763296917
20
-0.5814100999098557
30
0
10
14.035449763296917
20
-0.7519230769230769
30
0
0
SPLINE
5
72B
330
3AD
100
AcDbEntity
100
AcDbSpline
8
Layer_1
210
0
220
0
230
1
70
8
71
3
72
8
73
4
74
0
42
1e-7
43
1e-7
44
1e-10
40
0
40
0
40
0
40
0
40
1
40
1
40
1
40
1
10
14.035449763296917
20
-0.7519230769230769
30
0
10
14.135449763296917
20
-0.9224360539362981
30
0
10
14.270706017052927
20
-1.0576923076923075
30
0
10
14.441218994066148
20
-1.1576923076923076
30
0
0
SPLINE
5
72C
330
3AD
100
AcDbEntity
100
AcDbSpline
8
Layer_1
210
0
220
0
230
1
70
8
71
3
72
8
73
4
74
0
42
1e-7
43
1e-7
44
1e-10
40
0
40
0
40
0
40
0
40
1
40
1
40
1
40
1
10
15.531603609450764
20
-0.7134615384615385
30
0
10
15.388013709360619
20
-0.8583331768329328
30
0
10
15.212372840219993
20
-0.9307692307692307
30
0
10
15.004680532527686
20
-0.9307692307692307
30
0
0
SPLINE
5
72D
330
3AD
100
AcDbEntity
100
AcDbSpline
8
Layer_1
210
0
220
0
230
1
70
8
71
3
72
8
73
4
74
0
42
1e-7
43
1e-7
44
1e-10
40
0
40
0
40
0
40
0
40
1
40
1
40
1
40
1
10
15.004680532527686
20
-0.9307692307692307
30
0
10
14.79955217089908
20
-0.9307692307692307
30
0
10
14.624552170899081
20
-0.8583331768329328
30
0
10
14.479680532527686
20
-0.7134615384615385
30
0
0
SPLINE
5
72E
330
3AD
100
AcDbEntity
100
AcDbSpline
8
Layer_1
210
0
220
0
230
1
70
8
71
3
72
8
73
4
74
0
42
1e-7
43
1e-7
44
1e-10
40
0
40
0
40
0
40
0
40
1
40
1
40
1
40
1
10
14.479680532527686
20
-0.7134615384615385
30
0
10
14.334808894156291
20
-0.5685899000901442
30
0
10
14.262372840219994
20
-0.3935899000901442
30
0
10
14.262372840219994
20
-0.18846153846153846
30
0
0
SPLINE
5
72F
330
3AD
100
AcDbEntity
100
AcDbSpline
8
Layer_1
210
0
220
0
230
1
70
8
71
3
72
8
73
4
74
0
42
1e-7
43
1e-7
44
1e-10
40
0
40
0
40
0
40
0
40
1
40
1
40
1
40
1
10
14.262372840219994
20
-0.18846153846153846
30
0
10
14.262372840219994
20
0.019230769230769218
30
0
10
14.334808894156291
20
0.19487163837139426
30
0
10
14.479680532527686
20
0.3384615384615385
30
0
0
SPLINE
5
730
330
3AD
100
AcDbEntity
100
AcDbSpline
8
Layer_1
210
0
220
0
230
1
70
8
71
3
72
8
73
4
74
0
42
1e-7
43
1e-7
44
1e-10
40
0
40
0
40
0
40
0
40
1
40
1
40
1
40
1
10
14.479680532527686
20
0.3384615384615385
30
0
10
14.624552170899081
20
0.4820514385516827
30
0
10
14.79955217089908
20
0.5538461538461539
30
0
10
15.004680532527686
20
0.5538461538461539
30
0
0
SPLINE
5
731
330
3AD
100
AcDbEntity
100
AcDbSpline
8
Layer_1
210
0
220
0
230
1
70
8
71
3
72
8
73
4
74
0
42
1e-7
43
1e-7
44
1e-10
40
0
40
0
40
0
40
0
40
1
40
1
40
1
40
1
10
15.004680532527686
20
0.5538461538461539
30
0
10
15.212372840219993
20
0.5538461538461539
30
0
10
15.388013709360619
20
0.4820514385516827
30
0
10
15.531603609450764
20
0.3384615384615385
30
0
0
SPLINE
5
732
330
3AD
100
AcDbEntity
100
AcDbSpline
8
Layer_1
210
0
220
0
230
1
70
8
71
3
72
8
73
4
74
0
42
1e-7
43
1e-7
44
1e-10
40
0
40
0
40
0
40
0
40
1
40
1
40
1
40
1
10
15.531603609450764
20
0.3384615384615385
30
0
10
15.67519350954091
20
0.19487163837139426
30
0
10
15.746988224835379
20
0.019230769230769218
30
0
10
15.746988224835379
20
-0.18846153846153846
30
0
0
SPLINE
5
733
330
3AD
100
AcDbEntity
100
AcDbSpline
8
Layer_1
210
0
220
0
230
1
70
8
71
3
72
8
73
4
74
0
42
1e-7
43
1e-7
44
1e-10
40
0
40
0
40
0
40
0
40
1
40
1
40
1
40
1
10
15.746988224835379
20
-0.18846153846153846
30
0
10
15.746988224835379
20
-0.3935899000901442
30
0
10
15.67519350954091
20
-0.5685899000901442
30
0
10
15.531603609450764
20
-0.7134615384615385
30
0
0
ENDSEC
0
SECTION
2
OBJECTS
0
DICTIONARY
5
39D
330
0
100
AcDbDictionary
281
1
3
ACAD_GROUP
350
3B1
0
DICTIONARY
5
3B1
330
39D
100
AcDbDictionary
281
1
0
ENDSEC
0
EOF