  0
SECTION
  2
HEADER
  9
$ACADVER
  1
AC1015
  9
$ACADMAINTVER
 70
     6
  9
$DWGCODEPAGE
  3
ANSI_1252
  9
$INSBASE
 10
0.0
 20
0.0
 30
0.0
  9
$EXTMIN
 10
-1200.0
 20
-600.0
 30
0.0
  9
$EXTMAX
 10
1200.0
 20
600.0
 30
0.0
  9
$LIMMIN
 10
0.0
 20
0.0
  9
$LIMMAX
 10
420.0
 20
297.0
  9
$ORTHOMODE
 70
     0
  9
$REGENMODE
 70
     1
  9
$FILLMODE
 70
     1
  9
$QTEXTMODE
 70
     0
  9
$MIRRTEXT
 70
     1
  9
$LTSCALE
 40
1.0
  9
$ATTMODE
 70
     1
  9
$TEXTSIZE
 40
3.175
  9
$TRACEWID
 40
1.0
  9
$TEXTSTYLE
  7
Standard
  9
$CLAYER
  8
0
  9
$CELTYPE
  6
ByLayer
  9
$CECOLOR
 62
   256
  9
$CELTSCALE
 40
1.0
  9
$DISPSILH
 70
     0
  9
$DIMSCALE
 40
1.0
  9
$DIMASZ
 40
3.302
  9
$DIMEXO
 40
0.0
  9
$DIMDLI
 40
3.75
  9
$DIMRND
 40
0.0
  9
$DIMDLE
 40
0.0
  9
$DIMEXE
 40
3.175
  9
$DIMTP
 40
0.0
  9
$DIMTM
 40
0.0
  9
$DIMTXT
 40
3.175
  9
$DIMCEN
 40
2.5
  9
$DIMTSZ
 40
0.0
  9
$DIMTOL
 70
     0
  9
$DIMLIM
 70
     0
  9
$DIMTIH
 70
     1
  9
$DIMTOH
 70
     1
  9
$DIMSE1
 70
     0
  9
$DIMSE2
 70
     0
  9
$DIMTAD
 70
     0
  9
$DIMZIN
 70
     1
  9
$DIMBLK
  1

  9
$DIMASO
 70
     1
  9
$DIMSHO
 70
     1
  9
$DIMPOST
  1

  9
$DIMAPOST
  1

  9
$DIMALT
 70
     0
  9
$DIMALTD
 70
     3
  9
$DIMALTF
 40
0.0393700787
  9
$DIMLFAC
 40
1.0
  9
$DIMTOFL
 70
     1
  9
$DIMTVP
 40
0.0
  9
$DIMTIX
 70
     0
  9
$DIMSOXD
 70
     0
  9
$DIMSAH
 70
     0
  9
$DIMBLK1
  1

  9
$DIMBLK2
  1

  9
$DIMSTYLE
  2
ISO-25
  9
$DIMCLRD
 70
     0
  9
$DIMCLRE
 70
     0
  9
$DIMCLRT
 70
     0
  9
$DIMTFAC
 40
1.0
  9
$DIMGAP
 40
1.524
  9
$DIMJUST
 70
     0
  9
$DIMSD1
 70
     0
  9
$DIMSD2
 70
     0
  9
$DIMTOLJ
 70
     0
  9
$DIMTZIN
 70
     1
  9
$DIMALTZ
 70
     0
  9
$DIMALTTZ
 70
     0
  9
$DIMUPT
 70
     0
  9
$DIMDEC
 70
     2
  9
$DIMTDEC
 70
     2
  9
$DIMALTU
 70
     2
  9
$DIMALTTD
 70
     3
  9
$DIMTXSTY
  7
Standard
  9
$DIMAUNIT
 70
     0
  9
$DIMADEC
 70
     2
  9
$DIMALTRND
 40
0.0
  9
$DIMAZIN
 70
     0
  9
$DIMDSEP
 70
    44
  9
$DIMATFIT
 70
     3
  9
$DIMFRAC
 70
     0
  9
$DIMLDRBLK
  1

  9
$DIMLUNIT
 70
     2
  9
$DIMLWD
 70
    -2
  9
$DIMLWE
 70
    -2
  9
$DIMTMOVE
 70
     0
  9
$LUNITS
 70
     2
  9
$LUPREC
 70
     6
  9
$SKETCHINC
 40
1.0
  9
$FILLETRAD
 40
0.0
  9
$AUNITS
 70
     0
  9
$AUPREC
 70
     2
  9
$MENU
  1
.
  9
$ELEVATION
 40
0.0
  9
$PELEVATION
 40
0.0
  9
$THICKNESS
 40
0.0
  9
$LIMCHECK
 70
     0
  9
$CHAMFERA
 40
0.0
  9
$CHAMFERB
 40
0.0
  9
$CHAMFERC
 40
0.0
  9
$CHAMFERD
 40
0.0
  9
$SKPOLY
 70
     0
  9
$TDCREATE
 40
2460532.744838843
  9
$TDUCREATE
 40
2460532.619838843
  9
$TDUPDATE
 40
2460532.744970209
  9
$TDUUPDATE
 40
2460532.619970209
  9
$TDINDWG
 40
0.0000000116
  9
$TDUSRTIMER
 40
0.0000000116
  9
$USRTIMER
 70
     1
  9
$ANGBASE
 50
0.0
  9
$ANGDIR
 70
     0
  9
$PDMODE
 70
     0
  9
$PDSIZE
 40
-1.0
  9
$PLINEWID
 40
0.0
  9
$SPLFRAME
 70
     0
  9
$SPLINETYPE
 70
     6
  9
$SPLINESEGS
 70
     8
  9
$HANDSEED
  5
6A1
  9
$SURFTAB1
 70
     6
  9
$SURFTAB2
 70
     6
  9
$SURFTYPE
 70
     6
  9
$SURFU
 70
     6
  9
$SURFV
 70
     6
  9
$UCSBASE
  2

  9
$UCSNAME
  2

  9
$UCSORG
 10
0.0
 20
0.0
 30
0.0
  9
$UCSXDIR
 10
1.0
 20
0.0
 30
0.0
  9
$UCSYDIR
 10
0.0
 20
1.0
 30
0.0
  9
$UCSORTHOREF
  2

  9
$UCSORTHOVIEW
 70
     0
  9
$UCSORGTOP
 10
0.0
 20
0.0
 30
0.0
  9
$UCSORGBOTTOM
 10
0.0
 20
0.0
 30
0.0
  9
$UCSORGLEFT
 10
0.0
 20
0.0
 30
0.0
  9
$UCSORGRIGHT
 10
0.0
 20
0.0
 30
0.0
  9
$UCSORGFRONT
 10
0.0
 20
0.0
 30
0.0
  9
$UCSORGBACK
 10
0.0
 20
0.0
 30
0.0
  9
$PUCSBASE
  2

  9
$PUCSNAME
  2

  9
$PUCSORG
 10
0.0
 20
0.0
 30
0.0
  9
$PUCSXDIR
 10
1.0
 20
0.0
 30
0.0
  9
$PUCSYDIR
 10
0.0
 20
1.0
 30
0.0
  9
$PUCSORTHOREF
  2

  9
$PUCSORTHOVIEW
 70
     0
  9
$PUCSORGTOP
 10
0.0
 20
0.0
 30
0.0
  9
$PUCSORGBOTTOM
 10
0.0
 20
0.0
 30
0.0
  9
$PUCSORGLEFT
 10
0.0
 20
0.0
 30
0.0
  9
$PUCSORGRIGHT
 10
0.0
 20
0.0
 30
0.0
  9
$PUCSORGFRONT
 10
0.0
 20
0.0
 30
0.0
  9
$PUCSORGBACK
 10
0.0
 20
0.0
 30
0.0
  9
$USERI1
 70
     0
  9
$USERI2
 70
     0
  9
$USERI3
 70
     0
  9
$USERI4
 70
     0
  9
$USERI5
 70
     0
  9
$USERR1
 40
0.0
  9
$USERR2
 40
0.0
  9
$USERR3
 40
0.0
  9
$USERR4
 40
0.0
  9
$USERR5
 40
0.0
  9
$WORLDVIEW
 70
     1
  9
$SHADEDGE
 70
     3
  9
$SHADEDIF
 70
    70
  9
$TILEMODE
 70
     1
  9
$MAXACTVP
 70
    64
  9
$PINSBASE
 10
0.0
 20
0.0
 30
0.0
  9
$PLIMCHECK
 70
     0
  9
$PEXTMIN
 10
1.0000000000E+20
 20
1.0000000000E+20
 30
1.0000000000E+20
  9
$PEXTMAX
 10
-1.0000000000E+20
 20
-1.0000000000E+20
 30
-1.0000000000E+20
  9
$PLIMMIN
 10
0.0
 20
0.0
  9
$PLIMMAX
 10
420.0
 20
297.0
  9
$UNITMODE
 70
     0
  9
$VISRETAIN
 70
     1
  9
$PLINEGEN
 70
     0
  9
$PSLTSCALE
 70
     1
  9
$TREEDEPTH
 70
  3020
  9
$CMLSTYLE
  2
Standard
  9
$CMLJUST
 70
     0
  9
$CMLSCALE
 40
20.0
  9
$PROXYGRAPHICS
 70
     1
  9
$MEASUREMENT
 70
     1
  9
$CELWEIGHT
370
    -1
  9
$ENDCAPS
280
     0
  9
$JOINSTYLE
280
     0
  9
$LWDISPLAY
290
     1
  9
$INSUNITS
 70
     4
  9
$HYPERLINKBASE
  1

  9
$STYLESHEET
  1

  9
$XEDIT
290
     1
  9
$CEPSNTYPE
380
     0
  9
$PSTYLEMODE
290
     1
  9
$FINGERPRINTGUID
  2
{20ae93fc-2f77-4859-942d-2de33a7d59ac}
  9
$VERSIONGUID
  2
{FAEB1C32-E019-11D5-929B-00C0DF256EC4}
  9
$EXTNAMES
290
     1
  9
$PSVPSCALE
 40
0.0
  9
$OLESTARTUP
290
     0
  0
ENDSEC
  0
SECTION
  2
CLASSES
  0
CLASS
  1
ACDBDICTIONARYWDFLT
  2
AcDbDictionaryWithDefault
  3
ObjectDBX Classes
 90
        0
280
     0
281
     0
  0
CLASS
  1
VISUALSTYLE
  2
AcDbVisualStyle
  3
ObjectDBX Classes
 90
     4095
280
     0
281
     0
  0
CLASS
  1
MATERIAL
  2
AcDbMaterial
  3
ObjectDBX Classes
 90
     1153
280
     0
281
     0
  0
CLASS
  1
SCALE
  2
AcDbScale
  3
ObjectDBX Classes
 90
     1153
280
     0
281
     0
  0
CLASS
  1
TABLESTYLE
  2
AcDbTableStyle
  3
ObjectDBX Classes
 90
     4095
280
     0
281
     0
  0
CLASS
  1
MLEADERSTYLE
  2
AcDbMLeaderStyle
  3
ACDB_MLEADERSTYLE_CLASS
 90
     4095
280
     0
281
     0
  0
CLASS
  1
SUN
  2
AcDbSun
  3
SCENEOE
 90
     1153
280
     0
281
     0
  0
CLASS
  1
ACDBPLACEHOLDER
  2
AcDbPlaceHolder
  3
ObjectDBX Classes
 90
        0
280
     0
281
     0
  0
CLASS
  1
LAYOUT
  2
AcDbLayout
  3
ObjectDBX Classes
 90
        0
280
     0
281
     0
  0
ENDSEC
  0
SECTION
  2
TABLES
  0
TABLE
  2
VPORT
  5
8
330
0
100
AcDbSymbolTable
 70
     1
  0
VPORT
  5
29
330
8
100
AcDbSymbolTableRecord
100
AcDbViewportTableRecord
  2
*Active
 70
     0
 10
0.0
 20
0.0
 11
1.0
 21
1.0
 12
0.0
 22
0.0
 13
0.0
 23
0.0
 14
10.0
 24
10.0
 15
10.0
 25
10.0
 16
0.0
 26
0.0
 36
1.0
 17
0.0
 27
0.0
 37
0.0
 40
1224.0
 41
2.0
 42
50.0
 43
0.0
 44
0.0
 50
0.0
 51
0.0
 71
     0
 72
   100
 73
     1
 74
     3
 75
     0
 76
     0
 77
     0
 78
     0
281
     0
 65
     1
110
0.0
120
0.0
130
0.0
111
1.0
121
0.0
131
0.0
112
0.0
122
1.0
132
0.0
 79
     0
146
0.0
  0
ENDTAB
  0
TABLE
  2
LTYPE
  5
5
330
0
100
AcDbSymbolTable
 70
     6
  0
LTYPE
  5
14
330
5
100
AcDbSymbolTableRecord
100
AcDbLinetypeTableRecord
  2
ByBlock
 70
     0
  3

 72
    65
 73
     0
 40
0.0
  0
LTYPE
  5
15
330
5
100
AcDbSymbolTableRecord
100
AcDbLinetypeTableRecord
  2
ByLayer
 70
     0
  3

 72
    65
 73
     0
 40
0.0
  0
LTYPE
  5
16
330
5
100
AcDbSymbolTableRecord
100
AcDbLinetypeTableRecord
  2
Continuous
 70
     0
  3
Solid line
 72
    65
 73
     0
 40
0.0
  0
LTYPE
  5
5E
330
5
100
AcDbSymbolTableRecord
100
AcDbLinetypeTableRecord
  2
HIDDEN
 70
     0
  3
Hidden __ __ __ __ __ __ __ __ __ __ __ __ __ __
 72
    65
 73
     2
 40
1.905
 49
1.27
 74
     0
 49
-0.635
 74
     0
  0
LTYPE
  5
5F
330
5
100
AcDbSymbolTableRecord
100
AcDbLinetypeTableRecord
  2
PHANTOM
 70
     0
  3
Phantom ______  __  __  ______  __  __  ______
 72
    65
 73
     6
 40
12.7
 49
6.35
 74
     0
 49
-1.27
 74
     0
 49
1.27
 74
     0
 49
-1.27
 74
     0
 49
1.27
 74
     0
 49
-1.27
 74
     0
  0
LTYPE
  5
60
330
5
100
AcDbSymbolTableRecord
100
AcDbLinetypeTableRecord
  2
CENTER
 70
     0
  3
Center ____ _ ____ _ ____ _ ____ _ ____ _ ____
 72
    65
 73
     4
 40
10.16
 49
6.35
 74
     0
 49
-1.27
 74
     0
 49
1.27
 74
     0
 49
-1.27
 74
     0
  0
LTYPE
  5
61
330
5
100
AcDbSymbolTableRecord
100
AcDbLinetypeTableRecord
  2
CENTERX2
 70
     0
  3
Center (2x) ________  __  ________  __  _____
 72
    65
 73
     4
 40
20.32
 49
12.7
 74
     0
 49
-2.54
 74
     0
 49
2.54
 74
     0
 49
-2.54
 74
     0
  0
LTYPE
  5
62
330
5
100
AcDbSymbolTableRecord
100
AcDbLinetypeTableRecord
  2
DOT2
 70
     0
  3
Dot (.5x) ........................................
 72
    65
 73
     2
 40
0.635
 49
0.0
 74
     0
 49
-0.635
 74
     0
  0
ENDTAB
  0
TABLE
  2
LAYER
  5
2
330
0
100
AcDbSymbolTable
 70
     1
  0
LAYER
  5
10
330
2
100
AcDbSymbolTableRecord
100
AcDbLayerTableRecord
  2
0
 70
     0
 62
     7
  6
Continuous
370
    -3
390
F
  0
ENDTAB
  0
TABLE
  2
STYLE
  5
3
330
0
100
AcDbSymbolTable
 70
     2
  0
STYLE
  5
11
330
3
100
AcDbSymbolTableRecord
100
AcDbTextStyleTableRecord
  2
Standard
 70
     0
 40
0.0
 41
1.0
 50
0.0
 71
     0
 42
3.175
  3
txt
  4

  0
STYLE
  5
69D
330
3
100
AcDbSymbolTableRecord
100
AcDbTextStyleTableRecord
  2
SLDTEXTSTYLE0
 70
     0
 40
0.0
 41
0.7
 50
0.0
 71
     0
 42
3.175
  3
TXT
  4

  0
ENDTAB
  0
TABLE
  2
VIEW
  5
6
330
0
100
AcDbSymbolTable
 70
     0
  0
ENDTAB
  0
TABLE
  2
UCS
  5
7
330
0
100
AcDbSymbolTable
 70
     0
  0
ENDTAB
  0
TABLE
  2
APPID
  5
9
330
0
100
AcDbSymbolTable
 70
     1
  0
APPID
  5
12
330
9
100
AcDbSymbolTableRecord
100
AcDbRegAppTableRecord
  2
ACAD
 70
     0
  0
ENDTAB
  0
TABLE
  2
DIMSTYLE
  5
A
330
0
100
AcDbSymbolTable
 70
     1
100
AcDbDimStyleTable
  0
DIMSTYLE
105
27
330
A
100
AcDbSymbolTableRecord
100
AcDbDimStyleTableRecord
  2
ISO-25
 70
     0
 41
2.5
 42
0.625
 43
3.75
 44
1.25
 73
     0
 74
     0
 77
     1
 78
     8
140
2.5
141
2.5
143
0.0393700787
147
0.625
171
     3
172
     1
178
     0
271
     2
272
     2
274
     3
278
    44
283
     0
284
     8
340
11
  0
ENDTAB
  0
TABLE
  2
BLOCK_RECORD
  5
1
330
0
100
AcDbSymbolTable
 70
     1
  0
BLOCK_RECORD
  5
1F
330
1
100
AcDbSymbolTableRecord
100
AcDbBlockTableRecord
  2
*Model_Space
340
22
  0
BLOCK_RECORD
  5
1B
330
1
100
AcDbSymbolTableRecord
100
AcDbBlockTableRecord
  2
*Paper_Space
340
1E
  0
BLOCK_RECORD
  5
23
330
1
100
AcDbSymbolTableRecord
100
AcDbBlockTableRecord
  2
*Paper_Space0
340
26
  0
ENDTAB
  0
ENDSEC
  0
SECTION
  2
BLOCKS
  0
BLOCK
  5
20
330
1F
100
AcDbEntity
  8
0
100
AcDbBlockBegin
  2
*Model_Space
 70
     0
 10
0.0
 20
0.0
 30
0.0
  3
*Model_Space
  1

  0
ENDBLK
  5
21
330
1F
100
AcDbEntity
  8
0
100
AcDbBlockEnd
  0
BLOCK
  5
1C
330
1B
100
AcDbEntity
 67
     1
  8
0
100
AcDbBlockBegin
  2
*Paper_Space
 70
     0
 10
0.0
 20
0.0
 30
0.0
  3
*Paper_Space
  1

  0
ENDBLK
  5
1D
330
1B
100
AcDbEntity
 67
     1
  8
0
100
AcDbBlockEnd
  0
BLOCK
  5
24
330
23
100
AcDbEntity
  8
0
100
AcDbBlockBegin
  2
*Paper_Space0
 70
     0
 10
0.0
 20
0.0
 30
0.0
  3
*Paper_Space0
  1

  0
ENDBLK
  5
25
330
23
100
AcDbEntity
  8
0
100
AcDbBlockEnd
  0
ENDSEC
  0
SECTION
  2
ENTITIES
  0
LINE
  5
63
330
1F
100
AcDbEntity
  8
0
  6
CENTERX2
 62
     7
100
AcDbLine
 10
-1160.0
 20
-560.0
 30
0.0
 11
-1160.0
 21
560.0
 31
0.0
  0
LINE
  5
64
330
1F
100
AcDbEntity
  8
0
  6
CENTERX2
 62
     7
100
AcDbLine
 10
1200.0
 20
-600.0
 30
0.0
 11
-1200.0
 21
-600.0
 31
0.0
  0
LINE
  5
65
330
1F
100
AcDbEntity
  8
0
  6
CENTERX2
 62
     7
100
AcDbLine
 10
1200.0
 20
-600.0
 30
0.0
 11
1200.0
 21
600.0
 31
0.0
  0
LINE
  5
66
330
1F
100
AcDbEntity
  8
0
  6
CENTERX2
 62
     7
100
AcDbLine
 10
1200.0
 20
600.0
 30
0.0
 11
-1200.0
 21
600.0
 31
0.0
  0
LINE
  5
67
330
1F
100
AcDbEntity
  8
0
  6
CENTERX2
 62
     7
100
AcDbLine
 10
-1200.0
 20
-600.0
 30
0.0
 11
-1200.0
 21
600.0
 31
0.0
  0
LINE
  5
68
330
1F
100
AcDbEntity
  8
0
  6
CENTERX2
 62
     7
100
AcDbLine
 10
1200.0
 20
-600.0
 30
0.0
 11
-1200.0
 21
600.0
 31
0.0
  0
LINE
  5
69
330
1F
100
AcDbEntity
  8
0
  6
CENTERX2
 62
     7
100
AcDbLine
 10
1200.0
 20
600.0
 30
0.0
 11
-1200.0
 21
-600.0
 31
0.0
  0
LINE
  5
6A
330
1F
100
AcDbEntity
  8
0
  6
CENTERX2
 62
     7
100
AcDbLine
 10
1160.0
 20
560.0
 30
0.0
 11
-1160.0
 21
560.0
 31
0.0
  0
LINE
  5
6B
330
1F
100
AcDbEntity
  8
0
  6
CENTERX2
 62
     7
100
AcDbLine
 10
1160.0
 20
-560.0
 30
0.0
 11
1160.0
 21
560.0
 31
0.0
  0
LINE
  5
6C
330
1F
100
AcDbEntity
  8
0
  6
CENTERX2
 62
     7
100
AcDbLine
 10
1160.0
 20
-560.0
 30
0.0
 11
-1160.0
 21
-560.0
 31
0.0
  0
POINT
  5
6D
330
1F
100
AcDbEntity
  8
0
  6
Continuous
 62
     7
100
AcDbPoint
 10
0.0
 20
0.0
 30
0.0
  0
SPLINE
  5
373
330
1F
100
AcDbEntity
  8
0
  6
Continuous
 62
     7
370
    25
100
AcDbSpline
210
0.0
220
0.0
230
1.0
 70
     8
 71
     3
 72
    19
 73
    15
 74
     0
 42
0.00000001
 43
0.00000001
 40
0.0
 40
0.0
 40
0.0
 40
0.0
 40
0.162480724673789
 40
0.3119449194998085
 40
0.4496613609660137
 40
0.5792177700264094
 40
0.6404584605237892
 40
0.6966268762078
 40
0.7500176207350502
 40
0.8004780238437891
 40
0.849825003899178
 40
0.8983333619823773
 40
0.94852766068959
 40
1.0
 40
1.0
 40
1.0
 40
1.0
 10
-812.3437500000003
 20
25.85714285714298
 30
0.0
 10
-811.5429842916003
 20
25.8790853488779
 30
0.0
 10
-810.0056031964172
 20
25.92121249246136
 30
0.0
 10
-807.804081203266
 20
26.22517635466975
 30
0.0
 10
-805.8180333824873
 20
26.76474155641712
 30
0.0
 10
-804.3138469842345
 20
27.38293552417973
 30
0.0
 10
-803.2615773562734
 20
27.99713618974038
 30
0.0
 10
-802.575553550891
 20
28.48912817407817
 30
0.0
 10
-802.0091155038348
 20
29.04044329239887
 30
0.0
 10
-801.5236742631678
 20
29.62255480610564
 30
0.0
 10
-801.1701653380695
 20
30.26657242955683
 30
0.0
 10
-800.9057531204107
 20
30.94853270542678
 30
0.0
 10
-800.7482563277089
 20
31.67594850910848
 30
0.0
 10
-800.7257037541029
 20
32.17708530468919
 30
0.0
 10
-800.714285714286
 20
32.43080357142869
 30
0.0
  0
SPLINE
  5
375
330
1F
100
AcDbEntity
  8
0
  6
Continuous
 62
     7
370
    25
100
AcDbSpline
210
0.0
220
0.0
230
1.0
 70
     8
 71
     3
 72
    15
 73
    11
 74
     0
 42
0.00000001
 43
0.00000001
 40
0.0
 40
0.0
 40
0.0
 40
0.0
 40
0.0845475453929453
 40
0.1758552753045907
 40
0.2765420463247586
 40
0.3896716402435077
 40
0.517716760796172
 40
0.6619850821908821
 40
0.8224464086125606
 40
1.0
 40
1.0
 40
1.0
 40
1.0
 10
-800.714285714286
 20
32.43080357142869
 30
0.0
 10
-800.7320795360952
 20
32.69713208268356
 30
0.0
 10
-800.769089923782
 20
33.25108398572835
 30
0.0
 10
-801.0715553166641
 20
34.07747372671613
 30
0.0
 10
-801.5548956357112
 20
34.90846872100423
 30
0.0
 10
-802.2129044996052
 20
35.76206614473563
 30
0.0
 10
-803.059865890446
 20
36.63173040206166
 30
0.0
 10
-804.0934709812544
 20
37.51807141519435
 30
0.0
 10
-805.299710971114
 20
38.4390022096371
 30
0.0
 10
-806.1934698273815
 20
39.0146081159157
 30
0.0
 10
-806.6629464285718
 20
39.31696428571441
 30
0.0
  0
SPLINE
  5
376
330
1F
100
AcDbEntity
  8
0
  6
Continuous
 62
     7
370
    25
100
AcDbSpline
210
0.0
220
0.0
230
1.0
 70
     8
 71
     3
 72
    15
 73
    11
 74
     0
 42
0.00000001
 43
0.00000001
 40
0.0
 40
0.0
 40
0.0
 40
0.0
 40
0.128881560717232
 40
0.2566914940798111
 40
0.3823696142209638
 40
0.5074050081460171
 40
0.6313896864450584
 40
0.7545560837639141
 40
0.8777555148495833
 40
1.0
 40
1.0
 40
1.0
 40
1.0
 10
-813.5379464285718
 20
17.28571428571441
 30
0.0
 10
-814.2896282407506
 20
17.29428234208254
 30
0.0
 10
-815.7867417639502
 20
17.31134721294736
 30
0.0
 10
-818.0134195119899
 20
17.44867569921144
 30
0.0
 10
-820.2101795646289
 20
17.67181608574516
 30
0.0
 10
-822.3737007384625
 20
17.98372927797428
 30
0.0
 10
-824.5076881674476
 20
18.38482386697584
 30
0.0
 10
-826.6105981373033
 20
18.87968701028672
 30
0.0
 10
-828.6840652973968
 20
19.4513304128221
 30
0.0
 10
-830.0393031783436
 20
19.91294690157109
 30
0.0
 10
-830.7142857142862
 20
20.14285714285727
 30
0.0
  0
SPLINE
  5
377
330
1F
100
AcDbEntity
  8
0
  6
Continuous
 62
     7
370
    25
100
AcDbSpline
210
0.0
220
0.0
230
1.0
 70
     8
 71
     3
 72
     9
 73
     5
 74
     0
 42
0.00000001
 43
0.00000001
 40
0.0
 40
0.0
 40
0.0
 40
0.0
 40
0.4813715383633009
 40
1.0
 40
1.0
 40
1.0
 40
1.0
 10
-660.7142857142859
 20
31.14732142857154
 30
0.0
 10
-660.6901083088986
 20
31.83370780528409
 30
0.0
 10
-660.6398822289158
 20
33.25960510500046
 30
0.0
 10
-660.3728602158563
 20
34.66138823097205
 30
0.0
 10
-660.2343750000001
 20
35.38839285714297
 30
0.0
  0
SPLINE
  5
379
330
1F
100
AcDbEntity
  8
0
  6
Continuous
 62
     7
370
    25
100
AcDbSpline
210
0.0
220
0.0
230
1.0
 70
     8
 71
     3
 72
    15
 73
    11
 74
     0
 42
0.00000001
 43
0.00000001
 40
0.0
 40
0.0
 40
0.0
 40
0.0
 40
0.122770784182812
 40
0.244362955240817
 40
0.3661612949519756
 40
0.4882489702904159
 40
0.6120457946845936
 40
0.738276060834812
 40
0.8676231889682215
 40
1.0
 40
1.0
 40
1.0
 40
1.0
 10
-826.9308035714289
 20
30.14285714285726
 30
0.0
 10
-826.40026304908
 20
29.79936974359192
 30
0.0
 10
-825.3442752521528
 20
29.11569246213479
 30
0.0
 10
-823.6698098070578
 20
28.24558056302092
 30
0.0
 10
-821.9380712031574
 20
27.50817438362773
 30
0.0
 10
-820.1436683401798
 20
26.90227727749651
 30
0.0
 10
-818.2851563870462
 20
26.43319533415844
 30
0.0
 10
-816.3600639461138
 20
26.10077118963989
 30
0.0
 10
-814.372066786552
 20
25.8946015953523
 30
0.0
 10
-813.0250532145508
 20
25.86972509228703
 30
0.0
 10
-812.3437500000003
 20
25.85714285714298
 30
0.0
  0
SPLINE
  5
37A
330
1F
100
AcDbEntity
  8
0
  6
Continuous
 62
     7
370
    25
100
AcDbSpline
210
0.0
220
0.0
230
1.0
 70
     8
 71
     3
 72
    23
 73
    19
 74
     0
 42
0.00000001
 43
0.00000001
 40
0.0
 40
0.0
 40
0.0
 40
0.0
 40
0.0550077015642218
 40
0.1077839495119377
 40
0.1593348390010763
 40
0.2102614303599098
 40
0.2621543084783018
 40
0.3156385588290935
 40
0.3721388067739433
 40
0.4317327856377254
 40
0.4939158255492673
 40
0.5579552114537474
 40
0.6242991204684287
 40
0.6926957204860648
 40
0.7645451513515661
 40
0.8394592943264307
 40
0.917958905052392
 40
1.0
 40
1.0
 40
1.0
 40
1.0
 10
-788.5714285714289
 20
33.07812500000012
 30
0.0
 10
-788.5928652206651
 20
32.4739738191312
 30
0.0
 10
-788.6348689156622
 20
31.29017957714988
 30
0.0
 10
-788.9654058384192
 20
29.56527459791022
 30
0.0
 10
-789.5128062708557
 20
27.94555562595699
 30
0.0
 10
-790.2866550708028
 20
26.43217014594627
 30
0.0
 10
-791.2603631687136
 20
25.01247426977549
 30
0.0
 10
-792.4780399267239
 20
23.71092410457805
 30
0.0
 10
-793.8992100984528
 20
22.50233672383589
 30
0.0
 10
-795.5346627953976
 20
21.42097660577515
 30
0.0
 10
-797.326196886263
 20
20.44132830657385
 30
0.0
 10
-799.2653416490866
 20
19.59307028637646
 30
0.0
 10
-801.3308679595525
 20
18.88328776338884
 30
0.0
 10
-803.52451135826
 20
18.30094822161442
 30
0.0
 10
-805.8443467786301
 20
17.85016420950304
 30
0.0
 10
-808.2950703044651
 20
17.5104400529849
 30
0.0
 10
-810.8751191245127
 20
17.32631842914773
 30
0.0
 10
-812.6373790029776
 20
17.29944659530296
 30
0.0
 10
-813.5379464285718
 20
17.28571428571441
 30
0.0
  0
SPLINE
  5
37B
330
1F
100
AcDbEntity
  8
0
  6
Continuous
 62
     7
370
    25
100
AcDbSpline
210
0.0
220
0.0
230
1.0
 70
     8
 71
     3
 72
    19
 73
    15
 74
     0
 42
0.00000001
 43
0.00000001
 40
0.0
 40
0.0
 40
0.0
 40
0.0
 40
0.1114840869207973
 40
0.2372793721466996
 40
0.3782209491781186
 40
0.5344821808341437
 40
0.6134898602078239
 40
0.6862113668053829
 40
0.7527744800241764
 40
0.813783843171473
 40
0.8694052568929699
 40
0.9183408205515645
 40
0.9618513126129131
 40
1.0
 40
1.0
 40
1.0
 40
1.0
 10
-801.339285714286
 20
73.71428571428584
 30
0.0
 10
-800.7513132993774
 20
73.70394109635055
 30
0.0
 10
-799.499890524141
 20
73.68192392316841
 30
0.0
 10
-797.5089215698193
 20
73.54856212536508
 30
0.0
 10
-795.2867610324707
 20
73.34930354050711
 30
0.0
 10
-793.3163752872962
 20
73.11277043806858
 30
0.0
 10
-791.7068003352049
 20
72.8942146159727
 30
0.0
 10
-790.5668347441791
 20
72.73208892980372
 30
0.0
 10
-789.5263456346627
 20
72.54886747589309
 30
0.0
 10
-788.5761277105515
 20
72.37402840966541
 30
0.0
 10
-787.7221494693262
 20
72.18983011298475
 30
0.0
 10
-786.9687764055409
 20
71.98364204705933
 30
0.0
 10
-786.3082924039084
 20
71.78729983767647
 30
0.0
 10
-785.9034266789553
 20
71.64016533863318
 30
0.0
 10
-785.714285714286
 20
71.57142857142868
 30
0.0
  0
SPLINE
  5
37C
330
1F
100
AcDbEntity
  8
0
  6
Continuous
 62
     7
370
    25
100
AcDbSpline
210
0.0
220
0.0
230
1.0
 70
     8
 71
     3
 72
     9
 73
     5
 74
     0
 42
0.00000001
 43
0.00000001
 40
0.0
 40
0.0
 40
0.0
 40
0.0
 40
0.4868555785402475
 40
1.0
 40
1.0
 40
1.0
 40
1.0
 10
-648.3928571428573
 20
35.56696428571441
 30
0.0
 10
-648.4533229360455
 20
35.22182267725225
 30
0.0
 10
-648.5775195065553
 20
34.51290277641224
 30
0.0
 10
-648.5956216832823
 20
33.79334447245036
 30
0.0
 10
-648.6049107142858
 20
33.42410714285726
 30
0.0
  0
SPLINE
  5
37D
330
1F
100
AcDbEntity
  8
0
  6
Continuous
 62
     7
370
    25
100
AcDbSpline
210
0.0
220
0.0
230
1.0
 70
     8
 71
     3
 72
    23
 73
    19
 74
     0
 42
0.00000001
 43
0.00000001
 40
0.0
 40
0.0
 40
0.0
 40
0.0
 40
0.0593634347722504
 40
0.1169010371925396
 40
0.1735695338959455
 40
0.2295409957615443
 40
0.2860407581008325
 40
0.3430630766663393
 40
0.4016217831225272
 40
0.4618162304781112
 40
0.5234484096448331
 40
0.5859868954491732
 40
0.6498284782386097
 40
0.715047484992496
 40
0.7825868441194839
 40
0.8524631411245939
 40
0.924624891692467
 40
1.0
 40
1.0
 40
1.0
 40
1.0
 10
-612.1428571428575
 20
35.0870535714287
 30
0.0
 10
-612.3154856958535
 20
34.39854963252656
 30
0.0
 10
-612.6554332910644
 20
33.04271796817628
 30
0.0
 10
-613.3913470948628
 20
31.09838849682878
 30
0.0
 10
-614.2966742701801
 20
29.27439698083775
 30
0.0
 10
-615.3743122069923
 20
27.55975209432717
 30
0.0
 10
-616.641862872198
 20
25.97506112561534
 30
0.0
 10
-618.081698705228
 20
24.5025568182657
 30
0.0
 10
-619.6941231590185
 20
23.15136040515448
 30
0.0
 10
-621.4709147976495
 20
21.92588296176261
 30
0.0
 10
-623.3889464502864
 20
20.8370362075546
 30
0.0
 10
-625.4269043557082
 20
19.885921101053
 30
0.0
 10
-627.5738741186469
 20
19.08462705510601
 30
0.0
 10
-629.829952778531
 20
18.42231147084821
 30
0.0
 10
-632.1991889478952
 20
17.91334272228693
 30
0.0
 10
-634.6778482856352
 20
17.54467005768408
 30
0.0
 10
-637.2694159604738
 20
17.33425673960511
 30
0.0
 10
-639.0323634445513
 20
17.30212835610176
 30
0.0
 10
-639.9330357142859
 20
17.28571428571441
 30
0.0
  0
SPLINE
  5
37E
330
1F
100
AcDbEntity
  8
0
  6
Continuous
 62
     7
370
    25
100
AcDbSpline
210
0.0
220
0.0
230
1.0
 70
     8
 71
     3
 72
    15
 73
    11
 74
     0
 42
0.00000001
 43
0.00000001
 40
0.0
 40
0.0
 40
0.0
 40
0.0
 40
0.0800386387557072
 40
0.1670916990805353
 40
0.2669917819775819
 40
0.3803946312772598
 40
0.5096066883851305
 40
0.6549077771532558
 40
0.8186694691474238
 40
1.0
 40
1.0
 40
1.0
 40
1.0
 10
-811.4285714285719
 20
58.30133928571441
 30
0.0
 10
-811.4109182013003
 20
58.04963823228569
 30
0.0
 10
-811.3740646542516
 20
57.52417756314399
 30
0.0
 10
-811.0622059075989
 20
56.73563909538417
 30
0.0
 10
-810.5858264047628
 20
55.92192130491664
 30
0.0
 10
-809.927467620426
 20
55.06900334006775
 30
0.0
 10
-809.0818853484667
 20
54.19205511653836
 30
0.0
 10
-808.0558129791095
 20
53.27629472133221
 30
0.0
 10
-806.8537783600461
 20
52.31475933179618
 30
0.0
 10
-805.9604667378441
 20
51.70309741356242
 30
0.0
 10
-805.4910714285718
 20
51.38169642857155
 30
0.0
  0
SPLINE
  5
37F
330
1F
100
AcDbEntity
  8
0
  6
Continuous
 62
     7
370
    25
100
AcDbSpline
210
0.0
220
0.0
230
1.0
 70
     8
 71
     3
 72
    23
 73
    19
 74
     0
 42
0.00000001
 43
0.00000001
 40
0.0
 40
0.0
 40
0.0
 40
0.0
 40
0.0804174359288447
 40
0.1574765159194901
 40
0.2309533254559568
 40
0.3017117458185892
 40
0.3694520687992507
 40
0.4347551416679146
 40
0.4982787886132232
 40
0.5604392696815541
 40
0.6203710286290276
 40
0.6767374407426697
 40
0.7308803798663523
 40
0.7840167875991796
 40
0.8360704031430468
 40
0.8890666348783672
 40
0.9435145157634783
 40
1.0
 40
1.0
 40
1.0
 40
1.0
 10
-639.9330357142858
 20
17.28571428571441
 30
0.0
 10
-640.6812723614474
 20
17.29445418513783
 30
0.0
 10
-642.1464981413706
 20
17.31156899232846
 30
0.0
 10
-644.2874728269081
 20
17.50304688472142
 30
0.0
 10
-646.3305781338302
 20
17.76546299130509
 30
0.0
 10
-648.2580335631994
 20
18.18910462630246
 30
0.0
 10
-650.0873387413405
 20
18.69178362236634
 30
0.0
 10
-651.8017304821938
 20
19.33420671867394
 30
0.0
 10
-653.41429408985
 20
20.08292904113529
 30
0.0
 10
-654.9200789926325
 20
20.93259096192119
 30
0.0
 10
-656.2759761665476
 20
21.89586022527459
 30
0.0
 10
-657.462886244082
 20
22.95176198925119
 30
0.0
 10
-658.4714867522491
 20
24.09820379713477
 30
0.0
 10
-659.2842364106486
 20
25.34257792753186
 30
0.0
 10
-659.9357490388586
 20
26.66661404569619
 30
0.0
 10
-660.3928483482009
 20
28.08294760118339
 30
0.0
 10
-660.6648224774333
 20
29.5892318571134
 30
0.0
 10
-660.697597301385
 20
30.62163722834502
 30
0.0
 10
-660.714285714286
 20
31.14732142857155
 30
0.0
  0
SPLINE
  5
380
330
1F
100
AcDbEntity
  8
0
  6
Continuous
 62
     7
370
    25
100
AcDbSpline
210
0.0
220
0.0
230
1.0
 70
     8
 71
     3
 72
    23
 73
    19
 74
     0
 42
0.00000001
 43
0.00000001
 40
0.0
 40
0.0
 40
0.0
 40
0.0
 40
0.0605336259611844
 40
0.119454875808392
 40
0.1774120267506586
 40
0.2349116453546736
 40
0.2925304528073318
 40
0.3508416339248639
 40
0.410732941122932
 40
0.4720547618772277
 40
0.5344468425909027
 40
0.5971843302570324
 40
0.6603617805104178
 40
0.7245211236189955
 40
0.7901224891803351
 40
0.8578856661997193
 40
0.9278590835407581
 40
1.0
 40
1.0
 40
1.0
 40
1.0
 10
-551.4285714285714
 20
60.33258928571441
 30
0.0
 10
-551.4452338115398
 20
59.7888266345713
 30
0.0
 10
-551.4781147575685
 20
58.71578501629464
 30
0.0
 10
-551.6896852091817
 20
57.13267200830618
 30
0.0
 10
-552.0615155388193
 20
55.60830611635228
 30
0.0
 10
-552.5766895565641
 20
54.13875711902244
 30
0.0
 10
-553.238518604964
 20
52.72528672860101
 30
0.0
 10
-554.0510051850684
 20
51.36829450551141
 30
0.0
 10
-554.9979119387672
 20
50.05990458769314
 30
0.0
 10
-556.095360391494
 20
48.8255322731761
 30
0.0
 10
-557.3076453682512
 20
47.66702275709697
 30
0.0
 10
-558.629018251915
 20
46.60794049808469
 30
0.0
 10
-560.0385678943854
 20
45.64117735576108
 30
0.0
 10
-561.5515682365949
 20
44.79058118707106
 30
0.0
 10
-563.1695140538001
 20
44.05835650911802
 30
0.0
 10
-564.8771502035067
 20
43.40677980512353
 30
0.0
 10
-566.6868137428684
 20
42.8690056231117
 30
0.0
 10
-567.9368684346742
 20
42.60795996530261
 30
0.0
 10
-568.5714285714287
 20
42.47544642857155
 30
0.0
  0
SPLINE
  5
381
330
1F
100
AcDbEntity
  8
0
  6
Continuous
 62
     7
370
    25
100
AcDbSpline
210
0.0
220
0.0
230
1.0
 70
     8
 71
     3
 72
    23
 73
    19
 74
     0
 42
0.00000001
 43
0.00000001
 40
0.0
 40
0.0
 40
0.0
 40
0.0
 40
0.0594683982479353
 40
0.1166813281517228
 40
0.1721459980470735
 40
0.2267742475573979
 40
0.2811494193726949
 40
0.3362909095010251
 40
0.3932929258940831
 40
0.4529255251976008
 40
0.5143142720347634
 40
0.5769343521085919
 40
0.6408269140417667
 40
0.7069517867733689
 40
0.7756548617600961
 40
0.8470680645442802
 40
0.9218762862965039
 40
1.0
 40
1.0
 40
1.0
 40
1.0
 10
-823.571428571429
 20
57.2745535714287
 30
0.0
 10
-823.5508726366456
 20
57.88940061395134
 30
0.0
 10
-823.5105403956135
 20
59.09577528764943
 30
0.0
 10
-823.23078499175
 20
60.85843095061128
 30
0.0
 10
-822.7516825040009
 20
62.5252901702608
 30
0.0
 10
-822.061554664153
 20
64.0842174847968
 30
0.0
 10
-821.1974551398388
 20
65.54902184924816
 30
0.0
 10
-820.138200000286
 20
66.91250178160163
 30
0.0
 10
-818.8727499457626
 20
68.16381310778237
 30
0.0
 10
-817.4375524633267
 20
69.32079533135905
 30
0.0
 10
-815.8403510842529
 20
70.35242076148215
 30
0.0
 10
-814.119493321437
 20
71.2591190055022
 30
0.0
 10
-812.2754370040075
 20
72.0175548344292
 30
0.0
 10
-810.3170756166215
 20
72.64556658971793
 30
0.0
 10
-808.2358726930014
 20
73.11900031405234
 30
0.0
 10
-806.0396599493052
 20
73.46247851635295
 30
0.0
 10
-803.7283771870497
 20
73.68088333894596
 30
0.0
 10
-802.1470768196273
 20
73.70299182202413
 30
0.0
 10
-801.339285714286
 20
73.71428571428584
 30
0.0
  0
SPLINE
  5
382
330
1F
100
AcDbEntity
  8
0
  6
Continuous
 62
     7
370
    25
100
AcDbSpline
210
0.0
220
0.0
230
1.0
 70
     8
 71
     3
 72
    23
 73
    19
 74
     0
 42
0.00000001
 43
0.00000001
 40
0.0
 40
0.0
 40
0.0
 40
0.0
 40
0.0620393731066301
 40
0.1207155726296629
 40
0.1768467446373913
 40
0.2320496994253897
 40
0.286821964466585
 40
0.3410978279887441
 40
0.3965675726745423
 40
0.4545105875963828
 40
0.5134639455241405
 40
0.5745037466627466
 40
0.6381532745125298
 40
0.7038899122906305
 40
0.7722009279295178
 40
0.8444122697074085
 40
0.9199664174985223
 40
1.0
 40
1.0
 40
1.0
 40
1.0
 10
-648.6049107142859
 20
33.42410714285727
 30
0.0
 10
-648.5958035861602
 20
33.12979578513608
 30
0.0
 10
-648.5780830301377
 20
32.55712777932528
 30
0.0
 10
-648.4560476482712
 20
31.72504129457996
 30
0.0
 10
-648.2435360558055
 20
30.9446867788578
 30
0.0
 10
-647.9365362375364
 20
30.2174827021295
 30
0.0
 10
-647.5640091982466
 20
29.53032100339074
 30
0.0
 10
-647.0817967770794
 20
28.9134118035592
 30
0.0
 10
-646.5315477278248
 20
28.33740493484281
 30
0.0
 10
-645.8983150837021
 20
27.81675697078536
 30
0.0
 10
-645.1878101939374
 20
27.35846317461601
 30
0.0
 10
-644.4138819147473
 20
26.95624871793438
 30
0.0
 10
-643.577990757699
 20
26.61086968764738
 30
0.0
 10
-642.6813715077329
 20
26.33171285396523
 30
0.0
 10
-641.7247118335725
 20
26.12278741187395
 30
0.0
 10
-640.7112557172615
 20
25.96522878685939
 30
0.0
 10
-639.6332126342976
 20
25.87816329500892
 30
0.0
 10
-638.895236424245
 20
25.86428287740775
 30
0.0
 10
-638.5156250000001
 20
25.85714285714298
 30
0.0
  0
SPLINE
  5
383
330
1F
100
AcDbEntity
  8
0
  6
Continuous
 62
     7
370
    25
100
AcDbSpline
210
0.0
220
0.0
230
1.0
 70
     8
 71
     3
 72
    23
 73
    19
 74
     0
 42
0.00000001
 43
0.00000001
 40
0.0
 40
0.0
 40
0.0
 40
0.0
 40
0.0871811619382154
 40
0.169982751470311
 40
0.2482362531538035
 40
0.3221802372459764
 40
0.3923758163924516
 40
0.4592050100721139
 40
0.5226855397000096
 40
0.5834327670497585
 40
0.6409068000629174
 40
0.6951201054544337
 40
0.7468912765440309
 40
0.7966316289997825
 40
0.8457498425453807
 40
0.8956273942571311
 40
0.9466897170616903
 40
1.0
 40
1.0
 40
1.0
 40
1.0
 10
-574.3080357142858
 20
73.71428571428584
 30
0.0
 10
-573.4484289557972
 20
73.70308707723198
 30
0.0
 10
-571.7723980479515
 20
73.68125237009103
 30
0.0
 10
-569.3286471129518
 20
73.52607588873771
 30
0.0
 10
-567.0253698099938
 20
73.26324406541502
 30
0.0
 10
-564.8648592324579
 20
72.88158199049064
 30
0.0
 10
-562.8383873903804
 20
72.40696895607209
 30
0.0
 10
-560.9483788302593
 20
71.8198706584164
 30
0.0
 10
-559.2005338898356
 20
71.11224889280332
 30
0.0
 10
-557.5928248518034
 20
70.31734270126086
 30
0.0
 10
-556.1458961936123
 20
69.41803840688578
 30
0.0
 10
-554.8840369730547
 20
68.40933562475148
 30
0.0
 10
-553.8122074736715
 20
67.30256985192345
 30
0.0
 10
-552.9459973715735
 20
66.0908555253662
 30
0.0
 10
-552.2471602763397
 20
64.795395262002
 30
0.0
 10
-551.7712770603744
 20
63.38808972034943
 30
0.0
 10
-551.4886421608013
 20
61.88779548806422
 30
0.0
 10
-551.4488804662752
 20
60.85838180111103
 30
0.0
 10
-551.4285714285714
 20
60.33258928571441
 30
0.0
  0
SPLINE
  5
384
330
1F
100
AcDbEntity
  8
0
  6
Continuous
 62
     7
370
    25
100
AcDbSpline
210
0.0
220
0.0
230
1.0
 70
     8
 71
     3
 72
    23
 73
    19
 74
     0
 42
0.00000001
 43
0.00000001
 40
0.0
 40
0.0
 40
0.0
 40
0.0
 40
0.0740017806421568
 40
0.1448540288945277
 40
0.212896758630419
 40
0.2790459727040224
 40
0.342977123888262
 40
0.4055728171252398
 40
0.4669339629642745
 40
0.5275633483535541
 40
0.5871906137661619
 40
0.6459480298423692
 40
0.703529822549222
 40
0.7612360567829856
 40
0.8189505775784378
 40
0.8775531505681737
 40
0.9380957101391378
 40
1.0
 40
1.0
 40
1.0
 40
1.0
 10
-638.5156250000001
 20
25.85714285714298
 30
0.0
 10
-638.0280343352174
 20
25.86637932068675
 30
0.0
 10
-637.0736049737577
 20
25.88445914181326
 30
0.0
 10
-635.6748942814874
 20
26.00639053748148
 30
0.0
 10
-634.3393821926412
 20
26.21773815198034
 30
0.0
 10
-633.0679450712249
 20
26.51909864631903
 30
0.0
 10
-631.8562358901316
 20
26.90080586371784
 30
0.0
 10
-630.7027964151029
 20
27.35422024555628
 30
0.0
 10
-629.6158024393693
 20
27.90361416124294
 30
0.0
 10
-628.5994979690456
 20
28.53880997236591
 30
0.0
 10
-627.6623036041855
 20
29.25696710204932
 30
0.0
 10
-626.7976699664629
 20
30.03241544104384
 30
0.0
 10
-626.0371492724353
 20
30.89309206060967
 30
0.0
 10
-625.349846364522
 20
31.80460922302253
 30
0.0
 10
-624.769619458135
 20
32.79629112207414
 30
0.0
 10
-624.2748352091676
 20
33.85278151560569
 30
0.0
 10
-623.8726752324396
 20
34.97840308281481
 30
0.0
 10
-623.6799988520427
 20
35.76221686089652
 30
0.0
 10
-623.5825892857144
 20
36.15848214285726
 30
0.0
  0
SPLINE
  5
385
330
1F
100
AcDbEntity
  8
0
  6
Continuous
 62
     7
370
    25
100
AcDbSpline
210
0.0
220
0.0
230
1.0
 70
     8
 71
     3
 72
    23
 73
    19
 74
     0
 42
0.00000001
 43
0.00000001
 40
0.0
 40
0.0
 40
0.0
 40
0.0
 40
0.1040478904859058
 40
0.1914772400867567
 40
0.2626708390256996
 40
0.3167720116103519
 40
0.3651388614257863
 40
0.4179150926916435
 40
0.4757637387446934
 40
0.5384273334464189
 40
0.6023510116315101
 40
0.6636158504220445
 40
0.7226791982208277
 40
0.780139664993787
 40
0.8360168150063512
 40
0.8909539222320725
 40
0.9450814131898749
 40
1.0
 40
1.0
 40
1.0
 40
1.0
 10
-798.493303571429
 20
46.5714285714287
 30
0.0
 10
-797.9944448831202
 20
46.22595665247478
 30
0.0
 10
-797.0764052728545
 20
45.59019162869726
 30
0.0
 10
-795.82186049802
 20
44.71093010297987
 30
0.0
 10
-794.8211010932743
 20
43.97768391535741
 30
0.0
 10
-794.0153314522258
 20
43.36367683989396
 30
0.0
 10
-793.3320324474622
 20
42.76815126638103
 30
0.0
 10
-792.6867843735081
 20
42.10133146081149
 30
0.0
 10
-792.0157484557528
 20
41.34494276816758
 30
0.0
 10
-791.3547936198274
 20
40.49616249437394
 30
0.0
 10
-790.6955115772829
 20
39.61978258513447
 30
0.0
 10
-790.1445160316035
 20
38.69586858260199
 30
0.0
 10
-789.653639111714
 20
37.78141786066146
 30
0.0
 10
-789.2695742190209
 20
36.85120969297055
 30
0.0
 10
-788.943838605943
 20
35.92373509362911
 30
0.0
 10
-788.7418389025399
 20
34.9818043022703
 30
0.0
 10
-788.5952502465776
 20
34.03506970228806
 30
0.0
 10
-788.579407441376
 20
33.39864558802029
 30
0.0
 10
-788.5714285714289
 20
33.07812500000012
 30
0.0
  0
SPLINE
  5
386
330
1F
100
AcDbEntity
  8
0
  6
Continuous
 62
     7
370
    25
100
AcDbSpline
210
0.0
220
0.0
230
1.0
 70
     8
 71
     3
 72
    23
 73
    19
 74
     0
 42
0.00000001
 43
0.00000001
 40
0.0
 40
0.0
 40
0.0
 40
0.0
 40
0.0913824677436296
 40
0.1776782921982602
 40
0.2574824170269555
 40
0.3324643533296791
 40
0.4024264873826724
 40
0.4673846980954754
 40
0.5279689777304712
 40
0.5854030850624538
 40
0.6390381460871318
 40
0.6903976722135099
 40
0.740770716630771
 40
0.7899987695548978
 40
0.8399968656070445
 40
0.890409513704359
 40
0.9440392588004843
 40
1.0
 40
1.0
 40
1.0
 40
1.0
 10
-800.2566964285718
 20
65.14285714285727
 30
0.0
 10
-800.7070246793712
 20
65.14083854341854
 30
0.0
 10
-801.582614456123
 20
65.13691370630521
 30
0.0
 10
-802.8485258164502
 20
65.04211589966158
 30
0.0
 10
-804.0285454213861
 20
64.90778020922852
 30
0.0
 10
-805.1241965341682
 20
64.74009411707692
 30
0.0
 10
-806.1281071348718
 20
64.48825162656041
 30
0.0
 10
-807.0497597720115
 20
64.20500151252554
 30
0.0
 10
-807.8816084619513
 20
63.85481910895376
 30
0.0
 10
-808.632701241068
 20
63.46152890575396
 30
0.0
 10
-809.2836436406158
 20
62.99335472752665
 30
0.0
 10
-809.8663180229695
 20
62.49383225173774
 30
0.0
 10
-810.3445105018012
 20
61.9198998241497
 30
0.0
 10
-810.7401967840192
 20
61.29655167762657
 30
0.0
 10
-811.058092041392
 20
60.62800799188295
 30
0.0
 10
-811.26613850834
 20
59.8959163007847
 30
0.0
 10
-811.4049873181675
 20
59.11764553007859
 30
0.0
 10
-811.4205993686921
 20
58.57727262170705
 30
0.0
 10
-811.4285714285719
 20
58.30133928571441
 30
0.0
  0
SPLINE
  5
387
330
1F
100
AcDbEntity
  8
0
  6
Continuous
 62
     7
370
    25
100
AcDbSpline
210
0.0
220
0.0
230
1.0
 70
     8
 71
     3
 72
    15
 73
    11
 74
     0
 42
0.00000001
 43
0.00000001
 40
0.0
 40
0.0
 40
0.0
 40
0.0
 40
0.1361015931257301
 40
0.2674180344162699
 40
0.3953605418727951
 40
0.5196797261233651
 40
0.6419416390058057
 40
0.7619398054782741
 40
0.8813538500190979
 40
0.9999999999999999
 40
0.9999999999999999
 40
0.9999999999999999
 40
0.9999999999999999
 10
-789.3191964285719
 20
61.57142857142869
 30
0.0
 10
-789.7658496027207
 20
61.85627600734783
 30
0.0
 10
-790.64345221672
 20
62.41595602043654
 30
0.0
 10
-792.000787445462
 20
63.14358764774758
 30
0.0
 10
-793.3621848652909
 20
63.75802081895252
 30
0.0
 10
-794.7298369537359
 20
64.26527465754707
 30
0.0
 10
-796.103301453344
 20
64.65613714776077
 30
0.0
 10
-797.4835246763859
 20
64.93669522042985
 30
0.0
 10
-798.8683178939243
 20
65.11023475387519
 30
0.0
 10
-799.7948998544692
 20
65.13200642232609
 30
0.0
 10
-800.2566964285719
 20
65.14285714285728
 30
0.0
  0
SPLINE
  5
388
330
1F
100
AcDbEntity
  8
0
  6
Continuous
 62
     7
370
    25
100
AcDbSpline
210
0.0
220
0.0
230
1.0
 70
     8
 71
     3
 72
    19
 73
    15
 74
     0
 42
0.00000001
 43
0.00000001
 40
0.0
 40
0.0
 40
0.0
 40
0.0
 40
0.1073858874453418
 40
0.1962169184966948
 40
0.2679593072672579
 40
0.3212330574161267
 40
0.36816865770713
 40
0.4196250557684185
 40
0.4753610219593893
 40
0.5364402103686408
 40
0.6591586927230567
 40
0.7751829647172062
 40
0.8878392696140093
 40
1.0
 40
1.0
 40
1.0
 40
1.0
 10
-813.9508928571432
 20
44.01562500000012
 30
0.0
 10
-814.4654063327887
 20
44.35247533891998
 30
0.0
 10
-815.4055321828218
 20
44.96797274802843
 30
0.0
 10
-816.6740661595722
 20
45.83164769891133
 30
0.0
 10
-817.6745392586956
 20
46.5378728786693
 30
0.0
 10
-818.4612670382547
 20
47.13098932729265
 30
0.0
 10
-819.1116810008123
 20
47.7081917777585
 30
0.0
 10
-819.7212155285496
 20
48.3475919485907
 30
0.0
 10
-820.3483288204816
 20
49.07961455894151
 30
0.0
 10
-821.1981912638714
 20
50.15675185541659
 30
0.0
 10
-822.1361986972701
 20
51.60232284119076
 30
0.0
 10
-822.9694721399086
 20
53.44205282926243
 30
0.0
 10
-823.4688012512057
 20
55.34361294274782
 30
0.0
 10
-823.537269774124
 20
56.63185327096525
 30
0.0
 10
-823.571428571429
 20
57.2745535714287
 30
0.0
  0
SPLINE
  5
389
330
1F
100
AcDbEntity
  8
0
  6
Continuous
 62
     7
370
    25
100
AcDbSpline
210
0.0
220
0.0
230
1.0
 70
     8
 71
     3
 72
    15
 73
    11
 74
     0
 42
0.00000001
 43
0.00000001
 40
0.0
 40
0.0
 40
0.0
 40
0.0
 40
0.1826180999293407
 40
0.3482581228086227
 40
0.4982222719587667
 40
0.6312113255493417
 40
0.7478784111509572
 40
0.8482273985767396
 40
0.9322644119621158
 40
1.0
 40
1.0
 40
1.0
 40
1.0
 10
-591.4285714285716
 20
73.00000000000011
 30
0.0
 10
-590.3869305979732
 20
73.05628852994106
 30
0.0
 10
-588.4004906971892
 20
73.16363242290939
 30
0.0
 10
-585.5582625509084
 20
73.30963047136622
 30
0.0
 10
-582.9987125383105
 20
73.43218866894242
 30
0.0
 10
-580.7182287844903
 20
73.53353117277145
 30
0.0
 10
-578.7204582571164
 20
73.61262705199012
 30
0.0
 10
-577.0016890515897
 20
73.66877861968396
 30
0.0
 10
-575.5619154887626
 20
73.70574786411329
 30
0.0
 10
-574.6949565123731
 20
73.71165111416711
 30
0.0
 10
-574.3080357142858
 20
73.71428571428584
 30
0.0
  0
SPLINE
  5
38B
330
1F
100
AcDbEntity
  8
0
  6
Continuous
 62
     7
370
    25
100
AcDbSpline
210
0.0
220
0.0
230
1.0
 70
     8
 71
     3
 72
    11
 73
     7
 74
     0
 42
0.00000001
 43
0.00000001
 40
0.0
 40
0.0
 40
0.0
 40
0.0
 40
0.2768466404559802
 40
0.5358827526100021
 40
0.7757549405201553
 40
1.0
 40
1.0
 40
1.0
 40
1.0
 10
-585.0223214285714
 20
48.71428571428584
 30
0.0
 10
-584.5994096377883
 20
48.82378634342084
 30
0.0
 10
-583.7807934747644
 20
49.03574303704998
 30
0.0
 10
-582.5762972141273
 20
49.25578245985103
 30
0.0
 10
-581.443263547816
 20
49.40058262611621
 30
0.0
 10
-580.7109640882759
 20
49.4194536273661
 30
0.0
 10
-580.357142857143
 20
49.42857142857156
 30
0.0
  0
SPLINE
  5
38C
330
1F
100
AcDbEntity
  8
0
  6
Continuous
 62
     7
370
    25
100
AcDbSpline
210
0.0
220
0.0
230
1.0
 70
     8
 71
     3
 72
    23
 73
    19
 74
     0
 42
0.00000001
 43
0.00000001
 40
0.0
 40
0.0
 40
0.0
 40
0.0
 40
0.0513424961680359
 40
0.1002464081767643
 40
0.1460574581769571
 40
0.1913498843142744
 40
0.2354612647137123
 40
0.2807854288781447
 40
0.327449511946786
 40
0.377380204258262
 40
0.4316671261008729
 40
0.4916664596118808
 40
0.5588319162575445
 40
0.6323884406989919
 40
0.7130858207514964
 40
0.8011827520290316
 40
0.8967941810768197
 40
1.0
 40
1.0
 40
1.0
 40
1.0
 10
-563.5714285714287
 20
58.27901785714298
 30
0.0
 10
-563.5774725262459
 20
58.57748434847213
 30
0.0
 10
-563.5892733697345
 20
59.16024124480499
 30
0.0
 10
-563.7537201640764
 20
59.99518781148808
 30
0.0
 10
-563.9951862817679
 20
60.77370366967544
 30
0.0
 10
-564.3562087304564
 20
61.4743255926797
 30
0.0
 10
-564.8077519215707
 20
62.1168604172743
 30
0.0
 10
-565.3748740116065
 20
62.67151329508395
 30
0.0
 10
-566.0308982415021
 20
63.17340111087359
 30
0.0
 10
-566.8018928273519
 20
63.59481178638653
 30
0.0
 10
-567.6827773227592
 20
63.96114747650823
 30
0.0
 10
-568.6850668297808
 20
64.28920165364973
 30
0.0
 10
-569.8226571796988
 20
64.54513623427172
 30
0.0
 10
-571.0879882493788
 20
64.77241895733285
 30
0.0
 10
-572.4862444870848
 20
64.93235464516334
 30
0.0
 10
-574.0161616719656
 20
65.05319235304572
 30
0.0
 10
-575.6799405372182
 20
65.13441770053535
 30
0.0
 10
-576.8339767574315
 20
65.13997325863927
 30
0.0
 10
-577.4330357142858
 20
65.14285714285727
 30
0.0
  0
SPLINE
  5
38D
330
1F
100
AcDbEntity
  8
0
  6
Continuous
 62
     7
370
    25
100
AcDbSpline
210
0.0
220
0.0
230
1.0
 70
     8
 71
     3
 72
    23
 73
    19
 74
     0
 42
0.00000001
 43
0.00000001
 40
0.0
 40
0.0
 40
0.0
 40
0.0
 40
0.0958533877066347
 40
0.1860258400626304
 40
0.2696534389365196
 40
0.3479250787672895
 40
0.420423328933856
 40
0.4882724476621759
 40
0.5504040141059255
 40
0.6083677966723928
 40
0.6624637844624225
 40
0.7135462555706258
 40
0.7615820355937469
 40
0.8082385096175122
 40
0.8546416973828754
 40
0.9011165411236455
 40
0.9493481982511355
 40
1.0
 40
1.0
 40
1.0
 40
1.0
 10
-580.3571428571429
 20
49.42857142857155
 30
0.0
 10
-579.6799521147522
 20
49.43493329996429
 30
0.0
 10
-578.3657056415715
 20
49.44727999420765
 30
0.0
 10
-576.462401155214
 20
49.54377704147048
 30
0.0
 10
-574.6896888544962
 20
49.7222420705247
 30
0.0
 10
-573.0520979106145
 20
49.96979020302333
 30
0.0
 10
-571.5335114764406
 20
50.25834779447935
 30
0.0
 10
-570.1566618001224
 20
50.65245404589766
 30
0.0
 10
-568.9051007426327
 20
51.09781003220133
 30
0.0
 10
-567.7807930225131
 20
51.60440249982108
 30
0.0
 10
-566.7932521228249
 20
52.20260654550693
 30
0.0
 10
-565.9247507678325
 20
52.85391549743476
 30
0.0
 10
-565.2028460826286
 20
53.59279342373661
 30
0.0
 10
-564.5969786959282
 20
54.38933394759808
 30
0.0
 10
-564.1448222445787
 20
55.26943911451579
 30
0.0
 10
-563.7964626885617
 20
56.20694633717314
 30
0.0
 10
-563.611774249977
 20
57.22271712761518
 30
0.0
 10
-563.5850947883644
 20
57.92121906831204
 30
0.0
 10
-563.5714285714287
 20
58.27901785714297
 30
0.0
  0
SPLINE
  5
38E
330
1F
100
AcDbEntity
  8
0
  6
Continuous
 62
     7
370
    25
100
AcDbSpline
210
0.0
220
0.0
230
1.0
 70
     8
 71
     3
 72
    15
 73
    11
 74
     0
 42
0.00000001
 43
0.00000001
 40
0.0
 40
0.0
 40
0.0
 40
0.0
 40
0.047071402514448
 40
0.1180036366492846
 40
0.2077342025735562
 40
0.3214873866982691
 40
0.4597499049501086
 40
0.6164565137028631
 40
0.7977319575415185
 40
1.0
 40
1.0
 40
1.0
 40
1.0
 10
-577.4330357142858
 20
65.14285714285727
 30
0.0
 10
-577.5000513192687
 20
65.1398151940978
 30
0.0
 10
-577.6680532201642
 20
65.13218931093009
 30
0.0
 10
-577.9621013228153
 20
65.09625208238594
 30
0.0
 10
-578.3485712803714
 20
65.03747671914488
 30
0.0
 10
-578.8298025958105
 20
64.9624557808659
 30
0.0
 10
-579.4001975602786
 20
64.84446979424207
 30
0.0
 10
-580.0688080183675
 20
64.72818895564778
 30
0.0
 10
-580.8210824377104
 20
64.56447836215087
 30
0.0
 10
-581.3576546901842
 20
64.46088282899487
 30
0.0
 10
-581.640625
 20
64.40625000000013
 30
0.0
  0
LINE
  5
392
330
1F
100
AcDbEntity
  8
0
  6
Continuous
 62
     7
370
    25
100
AcDbLine
 10
257.5559371356
 20
-256.9596004751
 30
0.0
 11
257.6606555616
 21
-244.9600573983
 31
0.0
  0
LINE
  5
393
330
1F
100
AcDbEntity
  8
0
  6
Continuous
 62
     7
370
    25
100
AcDbLine
 10
257.5559371356
 20
-256.9596004751
 30
0.0
 11
227.5570794437
 21
-256.6978044102
 31
0.0
  0
LINE
  5
394
330
1F
100
AcDbEntity
  8
0
  6
Continuous
 62
     7
370
    25
100
AcDbLine
 10
227.5570794437
 20
-256.6978044102
 30
0.0
 11
227.6617978696
 21
-244.6982613334
 31
0.0
  0
LINE
  5
395
330
1F
100
AcDbEntity
  8
0
  6
Continuous
 62
     7
370
    25
100
AcDbLine
 10
227.6617978696
 20
-244.6982613334
 30
0.0
 11
157.6644632552
 21
-244.0874038485
 31
0.0
  0
LINE
  5
396
330
1F
100
AcDbEntity
  8
0
  6
Continuous
 62
     7
370
    25
100
AcDbLine
 10
157.5597448292
 20
-256.0869469253
 30
0.0
 11
157.6644632552
 21
-244.0874038485
 31
0.0
  0
LINE
  5
397
330
1F
100
AcDbEntity
  8
0
  6
Continuous
 62
     7
370
    25
100
AcDbLine
 10
157.5597448292
 20
-256.0869469253
 30
0.0
 11
127.5608871373
 21
-255.8251508604
 31
0.0
  0
LINE
  5
398
330
1F
100
AcDbEntity
  8
0
  6
Continuous
 62
     7
370
    25
100
AcDbLine
 10
127.5608871373
 20
-255.8251508604
 30
0.0
 11
127.6656055632
 21
-243.8256077836
 31
0.0
  0
LINE
  5
399
330
1F
100
AcDbEntity
  8
0
  6
Continuous
 62
     7
370
    25
100
AcDbLine
 10
127.6656055632
 20
-243.8256077836
 30
0.0
 11
57.6682709487
 21
-243.2147502987
 31
0.0
  0
LINE
  5
39A
330
1F
100
AcDbEntity
  8
0
  6
Continuous
 62
     7
370
    25
100
AcDbLine
 10
57.5635525228
 20
-255.2142933755
 30
0.0
 11
57.6682709487
 21
-243.2147502987
 31
0.0
  0
LINE
  5
39B
330
1F
100
AcDbEntity
  8
0
  6
Continuous
 62
     7
370
    25
100
AcDbLine
 10
57.5635525228
 20
-255.2142933755
 30
0.0
 11
27.5646948308
 21
-254.9524973105
 31
0.0
  0
LINE
  5
39C
330
1F
100
AcDbEntity
  8
0
  6
Continuous
 62
     7
370
    25
100
AcDbLine
 10
27.5646948308
 20
-254.9524973105
 30
0.0
 11
27.6694132568
 21
-242.9529542338
 31
0.0
  0
LINE
  5
39D
330
1F
100
AcDbEntity
  8
0
  6
Continuous
 62
     7
370
    25
100
AcDbLine
 10
27.6694132568
 20
-242.9529542338
 30
0.0
 11
-30.8759013502
 21
-242.4420370134
 31
0.0
  0
LINE
  5
39E
330
1F
100
AcDbEntity
  8
0
  6
Continuous
 62
     7
370
    25
100
AcDbLine
 10
316.2059701686
 20
-245.4709746187
 30
0.0
 11
257.6606555616
 21
-244.9600573983
 31
0.0
  0
LINE
  5
39F
330
1F
100
AcDbEntity
  8
0
  6
Continuous
 62
     7
370
    25
100
AcDbLine
 10
15.701069891
 20
-309.7046314987
 30
0.0
 11
15.805788317
 21
-321.7041745755
 31
0.0
  0
LINE
  5
3A0
330
1F
100
AcDbEntity
  8
0
  6
Continuous
 62
     7
370
    25
100
AcDbLine
 10
215.6934545038
 20
-307.959324399
 30
0.0
 11
215.7981729298
 21
-319.9588674757
 31
0.0
  0
LINE
  5
3A1
330
1F
100
AcDbEntity
  8
0
  6
Continuous
 62
     7
370
    25
100
AcDbLine
 10
215.7981729298
 20
-319.9588674757
 30
0.0
 11
265.796269083
 21
-319.5225407008
 31
0.0
  0
LINE
  5
3A2
330
1F
100
AcDbEntity
  8
0
  6
Continuous
 62
     7
370
    25
100
AcDbLine
 10
265.691550657
 20
-307.522997624
 30
0.0
 11
265.796269083
 21
-319.5225407008
 31
0.0
  0
LINE
  5
3A3
330
1F
100
AcDbEntity
  8
0
  6
Continuous
 62
     7
370
    25
100
AcDbLine
 10
265.691550657
 20
-307.522997624
 30
0.0
 11
311.288759286
 21
-307.1250768127
 31
0.0
  0
LINE
  5
3A4
330
1F
100
AcDbEntity
  8
0
  6
Continuous
 62
     7
370
    25
100
AcDbLine
 10
311.288759286
 20
-307.1250768127
 30
0.0
 11
311.393477712
 21
-319.1246198894
 31
0.0
  0
LINE
  5
3A5
330
1F
100
AcDbEntity
  8
0
  6
Continuous
 62
     7
370
    25
100
AcDbLine
 10
165.6953583506
 20
-308.3956511739
 30
0.0
 11
165.8000767766
 21
-320.3951942507
 31
0.0
  0
LINE
  5
3A6
330
1F
100
AcDbEntity
  8
0
  6
Continuous
 62
     7
370
    25
100
AcDbLine
 10
115.8019806234
 20
-320.8315210256
 30
0.0
 11
165.8000767766
 21
-320.3951942507
 31
0.0
  0
LINE
  5
3A7
330
1F
100
AcDbEntity
  8
0
  6
Continuous
 62
     7
370
    25
100
AcDbLine
 10
15.805788317
 20
-321.7041745755
 30
0.0
 11
65.8038844702
 21
-321.2678478006
 31
0.0
  0
LINE
  5
3A8
330
1F
100
AcDbEntity
  8
0
  6
Continuous
 62
     7
370
    25
100
AcDbLine
 10
-29.896138738
 20
-310.1025523101
 30
0.0
 11
-29.791420312
 21
-322.1020953869
 31
0.0
  0
LINE
  5
3A9
330
1F
100
AcDbEntity
  8
0
  6
Continuous
 62
     7
370
    25
100
AcDbLine
 10
65.6991660442
 20
-309.2683047238
 30
0.0
 11
115.6972621974
 21
-308.8319779488
 31
0.0
  0
LINE
  5
3AA
330
1F
100
AcDbEntity
  8
0
  6
Continuous
 62
     7
370
    25
100
AcDbLine
 10
-29.896138738
 20
-310.1025523101
 30
0.0
 11
15.701069891
 21
-309.7046314987
 31
0.0
  0
LINE
  5
3AB
330
1F
100
AcDbEntity
  8
0
  6
Continuous
 62
     7
370
    25
100
AcDbLine
 10
115.6972621974
 20
-308.8319779488
 30
0.0
 11
115.8019806234
 21
-320.8315210256
 31
0.0
  0
LINE
  5
3AC
330
1F
100
AcDbEntity
  8
0
  6
Continuous
 62
     7
370
    25
100
AcDbLine
 10
65.6991660442
 20
-309.2683047238
 30
0.0
 11
65.8038844702
 21
-321.2678478006
 31
0.0
  0
LINE
  5
3AD
330
1F
100
AcDbEntity
  8
0
  6
Continuous
 62
     7
370
    25
100
AcDbLine
 10
165.6953583506
 20
-308.3956511739
 30
0.0
 11
215.6934545038
 21
-307.959324399
 31
0.0
  0
LINE
  5
3AE
330
1F
100
AcDbEntity
  8
0
  6
Continuous
 62
     7
370
    25
100
AcDbLine
 10
-367.0285485724
 20
-304.8549182095
 30
0.0
 11
-366.8191196952
 21
-316.8530905513
 31
0.0
  0
LINE
  5
3AF
330
1F
100
AcDbEntity
  8
0
  6
Continuous
 62
     7
370
    25
100
AcDbLine
 10
-367.0285485724
 20
-304.8549182095
 30
0.0
 11
-337.0331177177
 21
-304.3313460163
 31
0.0
  0
LINE
  5
3B0
330
1F
100
AcDbEntity
  8
0
  6
Continuous
 62
     7
370
    25
100
AcDbLine
 10
-337.0331177177
 20
-304.3313460163
 30
0.0
 11
-336.8236888405
 21
-316.3295183582
 31
0.0
  0
LINE
  5
3B1
330
1F
100
AcDbEntity
  8
0
  6
Continuous
 62
     7
370
    25
100
AcDbLine
 10
-267.0437790568
 20
-303.1096775656
 30
0.0
 11
-266.8343501795
 21
-315.1078499074
 31
0.0
  0
LINE
  5
3B2
330
1F
100
AcDbEntity
  8
0
  6
Continuous
 62
     7
370
    25
100
AcDbLine
 10
-267.0437790568
 20
-303.1096775656
 30
0.0
 11
-237.0483482021
 21
-302.5861053724
 31
0.0
  0
LINE
  5
3B3
330
1F
100
AcDbEntity
  8
0
  6
Continuous
 62
     7
370
    25
100
AcDbLine
 10
-237.0483482021
 20
-302.5861053724
 30
0.0
 11
-236.8389193248
 21
-314.5842777143
 31
0.0
  0
LINE
  5
3B4
330
1F
100
AcDbEntity
  8
0
  6
Continuous
 62
     7
370
    25
100
AcDbLine
 10
-236.8389193248
 20
-314.5842777143
 30
0.0
 11
-166.8495806639
 21
-313.3626092635
 31
0.0
  0
LINE
  5
3B5
330
1F
100
AcDbEntity
  8
0
  6
Continuous
 62
     7
370
    25
100
AcDbLine
 10
-167.0590095412
 20
-301.3644369217
 30
0.0
 11
-166.8495806639
 21
-313.3626092635
 31
0.0
  0
LINE
  5
3B6
330
1F
100
AcDbEntity
  8
0
  6
Continuous
 62
     7
370
    25
100
AcDbLine
 10
-167.0590095412
 20
-301.3644369217
 30
0.0
 11
-137.0635786865
 21
-300.8408647285
 31
0.0
  0
LINE
  5
3B7
330
1F
100
AcDbEntity
  8
0
  6
Continuous
 62
     7
370
    25
100
AcDbLine
 10
-137.0635786865
 20
-300.8408647285
 30
0.0
 11
-136.8541498092
 21
-312.8390370704
 31
0.0
  0
LINE
  5
3B8
330
1F
100
AcDbEntity
  8
0
  6
Continuous
 62
     7
370
    25
100
AcDbLine
 10
-136.8541498092
 20
-312.8390370704
 30
0.0
 11
-85.8958011962
 21
-311.9495557866
 31
0.0
  0
LINE
  5
3B9
330
1F
100
AcDbEntity
  8
0
  6
Continuous
 62
     7
370
    25
100
AcDbLine
 10
-336.8236888405
 20
-316.3295183582
 30
0.0
 11
-266.8343501795
 21
-315.1078499074
 31
0.0
  0
LINE
  5
3BA
330
1F
100
AcDbEntity
  8
0
  6
Continuous
 62
     7
370
    25
100
AcDbLine
 10
-417.7774683082
 20
-317.7425718351
 30
0.0
 11
-366.8191196952
 21
-316.8530905513
 31
0.0
  0
LINE
  5
3BB
330
1F
100
AcDbEntity
  8
0
  6
Continuous
 62
     7
370
    25
100
AcDbLine
 10
-212.6967327925
 20
-248.8645001427
 30
0.0
 11
-212.8014512185
 21
-236.8649570659
 31
0.0
  0
LINE
  5
3BC
330
1F
100
AcDbEntity
  8
0
  6
Continuous
 62
     7
370
    25
100
AcDbLine
 10
-212.8014512185
 20
-236.8649570659
 30
0.0
 11
-262.7995473717
 21
-237.3012838408
 31
0.0
  0
LINE
  5
3BD
330
1F
100
AcDbEntity
  8
0
  6
Continuous
 62
     7
370
    25
100
AcDbLine
 10
-262.6948289457
 20
-249.3008269176
 30
0.0
 11
-262.7995473717
 21
-237.3012838408
 31
0.0
  0
LINE
  5
3BE
330
1F
100
AcDbEntity
  8
0
  6
Continuous
 62
     7
370
    25
100
AcDbLine
 10
-262.6948289457
 20
-249.3008269176
 30
0.0
 11
-312.6929250989
 21
-249.7371536926
 31
0.0
  0
LINE
  5
3BF
330
1F
100
AcDbEntity
  8
0
  6
Continuous
 62
     7
370
    25
100
AcDbLine
 10
-312.6929250989
 20
-249.7371536926
 30
0.0
 11
-312.7976435249
 21
-237.7376106158
 31
0.0
  0
LINE
  5
3C0
330
1F
100
AcDbEntity
  8
0
  6
Continuous
 62
     7
370
    25
100
AcDbLine
 10
-312.7976435249
 20
-237.7376106158
 30
0.0
 11
-362.7957396781
 21
-238.1739373907
 31
0.0
  0
LINE
  5
3C1
330
1F
100
AcDbEntity
  8
0
  6
Continuous
 62
     7
370
    25
100
AcDbLine
 10
-362.6910212521
 20
-250.1734804675
 30
0.0
 11
-362.7957396781
 21
-238.1739373907
 31
0.0
  0
LINE
  5
3C2
330
1F
100
AcDbEntity
  8
0
  6
Continuous
 62
     7
370
    25
100
AcDbLine
 10
-362.6910212521
 20
-250.1734804675
 30
0.0
 11
-408.2882298811
 21
-250.5714012788
 31
0.0
  0
LINE
  5
3C3
330
1F
100
AcDbEntity
  8
0
  6
Continuous
 62
     7
370
    25
100
AcDbLine
 10
-408.2882298811
 20
-250.5714012788
 30
0.0
 11
-408.3929483071
 21
-238.5718582021
 31
0.0
  0
LINE
  5
3C4
330
1F
100
AcDbEntity
  8
0
  6
Continuous
 62
     7
370
    25
100
AcDbLine
 10
-67.1033318571
 20
-247.5939257815
 30
0.0
 11
-67.2080502831
 21
-235.5943827047
 31
0.0
  0
LINE
  5
3C5
330
1F
100
AcDbEntity
  8
0
  6
Continuous
 62
     7
370
    25
100
AcDbLine
 10
-67.1033318571
 20
-247.5939257815
 30
0.0
 11
-112.7005404861
 21
-247.9918465928
 31
0.0
  0
LINE
  5
3C6
330
1F
100
AcDbEntity
  8
0
  6
Continuous
 62
     7
370
    25
100
AcDbLine
 10
-112.7005404861
 20
-247.9918465928
 30
0.0
 11
-112.8052589121
 21
-235.992303516
 31
0.0
  0
LINE
  5
3C7
330
1F
100
AcDbEntity
  8
0
  6
Continuous
 62
     7
370
    25
100
AcDbLine
 10
-112.8052589121
 20
-235.992303516
 30
0.0
 11
-162.8033550653
 21
-236.428630291
 31
0.0
  0
LINE
  5
3C8
330
1F
100
AcDbEntity
  8
0
  6
Continuous
 62
     7
370
    25
100
AcDbLine
 10
-162.6986366393
 20
-248.4281733677
 30
0.0
 11
-162.8033550653
 21
-236.428630291
 31
0.0
  0
LINE
  5
3C9
330
1F
100
AcDbEntity
  8
0
  6
Continuous
 62
     7
370
    25
100
AcDbLine
 10
-162.6986366393
 20
-248.4281733677
 30
0.0
 11
-212.6967327925
 21
-248.8645001427
 31
0.0
  0
LINE
  5
3CA
330
1F
100
AcDbEntity
  8
0
  6
Continuous
 62
     7
370
    25
100
AcDbLine
 10
-738.3431512918
 20
-282.6408805558
 30
0.0
 11
-738.1337224145
 21
-294.6390528977
 31
0.0
  0
LINE
  5
3CB
330
1F
100
AcDbEntity
  8
0
  6
Continuous
 62
     7
370
    25
100
AcDbLine
 10
-738.1337224145
 20
-294.6390528977
 30
0.0
 11
-688.1413376567
 21
-293.7664325758
 31
0.0
  0
LINE
  5
3CC
330
1F
100
AcDbEntity
  8
0
  6
Continuous
 62
     7
370
    25
100
AcDbLine
 10
-688.350766534
 20
-281.7682602339
 30
0.0
 11
-688.1413376567
 21
-293.7664325758
 31
0.0
  0
LINE
  5
3CD
330
1F
100
AcDbEntity
  8
0
  6
Continuous
 62
     7
370
    25
100
AcDbLine
 10
-688.350766534
 20
-281.7682602339
 30
0.0
 11
-638.3583817762
 21
-280.8956399121
 31
0.0
  0
LINE
  5
3CE
330
1F
100
AcDbEntity
  8
0
  6
Continuous
 62
     7
370
    25
100
AcDbLine
 10
-638.3583817762
 20
-280.8956399121
 30
0.0
 11
-638.1489528989
 21
-292.8938122539
 31
0.0
  0
LINE
  5
3CF
330
1F
100
AcDbEntity
  8
0
  6
Continuous
 62
     7
370
    25
100
AcDbLine
 10
-638.1489528989
 20
-292.8938122539
 30
0.0
 11
-588.1565681411
 21
-292.021191932
 31
0.0
  0
LINE
  5
3D0
330
1F
100
AcDbEntity
  8
0
  6
Continuous
 62
     7
370
    25
100
AcDbLine
 10
-588.3659970183
 20
-280.0230195902
 30
0.0
 11
-588.1565681411
 21
-292.021191932
 31
0.0
  0
LINE
  5
3D1
330
1F
100
AcDbEntity
  8
0
  6
Continuous
 62
     7
370
    25
100
AcDbLine
 10
-588.3659970183
 20
-280.0230195902
 30
0.0
 11
-538.3736122605
 21
-279.1503992683
 31
0.0
  0
LINE
  5
3D2
330
1F
100
AcDbEntity
  8
0
  6
Continuous
 62
     7
370
    25
100
AcDbLine
 10
-538.3736122605
 20
-279.1503992683
 30
0.0
 11
-538.1641833833
 21
-291.1485716102
 31
0.0
  0
LINE
  5
3D3
330
1F
100
AcDbEntity
  8
0
  6
Continuous
 62
     7
370
    25
100
AcDbLine
 10
-538.1641833833
 20
-291.1485716102
 30
0.0
 11
-488.1717986254
 21
-290.2759512883
 31
0.0
  0
LINE
  5
3D4
330
1F
100
AcDbEntity
  8
0
  6
Continuous
 62
     7
370
    25
100
AcDbLine
 10
-488.3812275027
 20
-278.2777789464
 30
0.0
 11
-488.1717986254
 21
-290.2759512883
 31
0.0
  0
LINE
  5
3D5
330
1F
100
AcDbEntity
  8
0
  6
Continuous
 62
     7
370
    25
100
AcDbLine
 10
-488.3812275027
 20
-278.2777789464
 30
0.0
 11
-438.3888427449
 21
-277.4051586245
 31
0.0
  0
LINE
  5
3D6
330
1F
100
AcDbEntity
  8
0
  6
Continuous
 62
     7
370
    25
100
AcDbLine
 10
-438.3888427449
 20
-277.4051586245
 30
0.0
 11
-438.1794138676
 21
-289.4033309664
 31
0.0
  0
LINE
  5
3D7
330
1F
100
AcDbEntity
  8
0
  6
Continuous
 62
     7
370
    25
100
AcDbLine
 10
-788.3355360496
 20
-283.5135008777
 30
0.0
 11
-738.3431512918
 21
-282.6408805558
 31
0.0
  0
LINE
  5
3D8
330
1F
100
AcDbEntity
  8
0
  6
Continuous
 62
     7
370
    25
100
AcDbLine
 10
-788.3355360496
 20
-283.5135008777
 30
0.0
 11
-788.1261071724
 21
-295.5116732196
 31
0.0
  0
LINE
  5
3D9
330
1F
100
AcDbEntity
  8
0
  6
Continuous
 62
     7
370
    25
100
AcDbLine
 10
-443.0947234721
 20
-245.0669649526
 30
0.0
 11
-501.6400380791
 21
-245.577882173
 31
0.0
  0
LINE
  5
3DA
330
1F
100
AcDbEntity
  8
0
  6
Continuous
 62
     7
370
    25
100
AcDbLine
 10
-501.5353196531
 20
-257.5774252498
 30
0.0
 11
-501.6400380791
 21
-245.577882173
 31
0.0
  0
LINE
  5
3DB
330
1F
100
AcDbEntity
  8
0
  6
Continuous
 62
     7
370
    25
100
AcDbLine
 10
-501.5353196531
 20
-257.5774252498
 30
0.0
 11
-531.534177345
 21
-257.8392213148
 31
0.0
  0
LINE
  5
3DC
330
1F
100
AcDbEntity
  8
0
  6
Continuous
 62
     7
370
    25
100
AcDbLine
 10
-531.534177345
 20
-257.8392213148
 30
0.0
 11
-531.638895771
 21
-245.839678238
 31
0.0
  0
LINE
  5
3DD
330
1F
100
AcDbEntity
  8
0
  6
Continuous
 62
     7
370
    25
100
AcDbLine
 10
-531.638895771
 20
-245.839678238
 30
0.0
 11
-601.6362303855
 21
-246.450535723
 31
0.0
  0
LINE
  5
3DE
330
1F
100
AcDbEntity
  8
0
  6
Continuous
 62
     7
370
    25
100
AcDbLine
 10
-601.5315119595
 20
-258.4500787998
 30
0.0
 11
-601.6362303855
 21
-246.450535723
 31
0.0
  0
LINE
  5
3DF
330
1F
100
AcDbEntity
  8
0
  6
Continuous
 62
     7
370
    25
100
AcDbLine
 10
-601.5315119595
 20
-258.4500787998
 30
0.0
 11
-631.5303696514
 21
-258.7118748648
 31
0.0
  0
LINE
  5
3E0
330
1F
100
AcDbEntity
  8
0
  6
Continuous
 62
     7
370
    25
100
AcDbLine
 10
-631.5303696514
 20
-258.7118748648
 30
0.0
 11
-631.6350880774
 21
-246.712331788
 31
0.0
  0
LINE
  5
3E1
330
1F
100
AcDbEntity
  8
0
  6
Continuous
 62
     7
370
    25
100
AcDbLine
 10
-631.6350880774
 20
-246.712331788
 30
0.0
 11
-701.6324226919
 21
-247.323189273
 31
0.0
  0
LINE
  5
3E2
330
1F
100
AcDbEntity
  8
0
  6
Continuous
 62
     7
370
    25
100
AcDbLine
 10
-701.5277042659
 20
-259.3227323497
 30
0.0
 11
-701.6324226919
 21
-247.323189273
 31
0.0
  0
LINE
  5
3E3
330
1F
100
AcDbEntity
  8
0
  6
Continuous
 62
     7
370
    25
100
AcDbLine
 10
-701.5277042659
 20
-259.3227323497
 30
0.0
 11
-731.5265619578
 21
-259.5845284147
 31
0.0
  0
LINE
  5
3E4
330
1F
100
AcDbEntity
  8
0
  6
Continuous
 62
     7
370
    25
100
AcDbLine
 10
-731.5265619578
 20
-259.5845284147
 30
0.0
 11
-731.6312803838
 21
-247.584985338
 31
0.0
  0
LINE
  5
3E5
330
1F
100
AcDbEntity
  8
0
  6
Continuous
 62
     7
370
    25
100
AcDbLine
 10
-731.6312803838
 20
-247.584985338
 30
0.0
 11
-790.1765949908
 21
-248.0959025584
 31
0.0
  0
LINE
  5
3E6
330
1F
100
AcDbEntity
  8
0
  6
Continuous
 62
     7
370
    25
100
AcDbLine
 10
-1098.2390327431
 20
-272.6423920484
 30
0.0
 11
-1098.1343143171
 21
-284.6419351251
 31
0.0
  0
LINE
  5
3E7
330
1F
100
AcDbEntity
  8
0
  6
Continuous
 62
     7
370
    25
100
AcDbLine
 10
-1098.2390327431
 20
-272.6423920484
 30
0.0
 11
-1068.2401750511
 21
-272.3805959834
 31
0.0
  0
LINE
  5
3E8
330
1F
100
AcDbEntity
  8
0
  6
Continuous
 62
     7
370
    25
100
AcDbLine
 10
-1068.2401750511
 20
-272.3805959834
 30
0.0
 11
-1068.1354566252
 21
-284.3801390602
 31
0.0
  0
LINE
  5
3E9
330
1F
100
AcDbEntity
  8
0
  6
Continuous
 62
     7
370
    25
100
AcDbLine
 10
-1068.1354566252
 20
-284.3801390602
 30
0.0
 11
-998.1381220107
 21
-283.7692815752
 31
0.0
  0
LINE
  5
3EA
330
1F
100
AcDbEntity
  8
0
  6
Continuous
 62
     7
370
    25
100
AcDbLine
 10
-998.2428404367
 20
-271.7697384985
 30
0.0
 11
-998.1381220107
 21
-283.7692815752
 31
0.0
  0
LINE
  5
3EB
330
1F
100
AcDbEntity
  8
0
  6
Continuous
 62
     7
370
    25
100
AcDbLine
 10
-998.2428404367
 20
-271.7697384985
 30
0.0
 11
-968.2439827447
 21
-271.5079424335
 31
0.0
  0
LINE
  5
3EC
330
1F
100
AcDbEntity
  8
0
  6
Continuous
 62
     7
370
    25
100
AcDbLine
 10
-968.2439827447
 20
-271.5079424335
 30
0.0
 11
-968.1392643187
 21
-283.5074855103
 31
0.0
  0
LINE
  5
3ED
330
1F
100
AcDbEntity
  8
0
  6
Continuous
 62
     7
370
    25
100
AcDbLine
 10
-968.1392643187
 20
-283.5074855103
 30
0.0
 11
-898.1419297043
 21
-282.8966280253
 31
0.0
  0
LINE
  5
3EE
330
1F
100
AcDbEntity
  8
0
  6
Continuous
 62
     7
370
    25
100
AcDbLine
 10
-898.2466481302
 20
-270.8970849485
 30
0.0
 11
-898.1419297043
 21
-282.8966280253
 31
0.0
  0
LINE
  5
3EF
330
1F
100
AcDbEntity
  8
0
  6
Continuous
 62
     7
370
    25
100
AcDbLine
 10
-898.2466481302
 20
-270.8970849485
 30
0.0
 11
-868.2477904383
 21
-270.6352888836
 31
0.0
  0
LINE
  5
3F0
330
1F
100
AcDbEntity
  8
0
  6
Continuous
 62
     7
370
    25
100
AcDbLine
 10
-868.2477904383
 20
-270.6352888836
 30
0.0
 11
-868.1430720123
 21
-282.6348319603
 31
0.0
  0
LINE
  5
3F1
330
1F
100
AcDbEntity
  8
0
  6
Continuous
 62
     7
370
    25
100
AcDbLine
 10
-868.1430720123
 20
-282.6348319603
 30
0.0
 11
-832.1717620941
 21
-282.3209150944
 31
0.0
  0
LINE
  5
3F2
330
1F
100
AcDbEntity
  8
0
  6
Continuous
 62
     7
370
    25
100
AcDbLine
 10
-1134.1056242353
 20
-284.9558519911
 30
0.0
 11
-1098.1343143171
 21
-284.6419351251
 31
0.0
  0
LINE
  5
3F3
330
1F
100
AcDbEntity
  8
0
  6
Continuous
 62
     7
370
    25
100
AcDbLine
 10
-907.5833723992
 20
-233.1206696731
 30
0.0
 11
-907.373943522
 21
-221.1224973313
 31
0.0
  0
LINE
  5
3F4
330
1F
100
AcDbEntity
  8
0
  6
Continuous
 62
     7
370
    25
100
AcDbLine
 10
-907.5833723992
 20
-233.1206696731
 30
0.0
 11
-957.575757157
 21
-232.2480493513
 31
0.0
  0
LINE
  5
3F5
330
1F
100
AcDbEntity
  8
0
  6
Continuous
 62
     7
370
    25
100
AcDbLine
 10
-957.575757157
 20
-232.2480493513
 30
0.0
 11
-957.3663282798
 21
-220.2498770094
 31
0.0
  0
LINE
  5
3F6
330
1F
100
AcDbEntity
  8
0
  6
Continuous
 62
     7
370
    25
100
AcDbLine
 10
-957.3663282798
 20
-220.2498770094
 30
0.0
 11
-1007.3587130376
 21
-219.3772566876
 31
0.0
  0
LINE
  5
3F7
330
1F
100
AcDbEntity
  8
0
  6
Continuous
 62
     7
370
    25
100
AcDbLine
 10
-1007.5681419149
 20
-231.3754290295
 30
0.0
 11
-1007.3587130376
 21
-219.3772566876
 31
0.0
  0
LINE
  5
3F8
330
1F
100
AcDbEntity
  8
0
  6
Continuous
 62
     7
370
    25
100
AcDbLine
 10
-1007.5681419149
 20
-231.3754290295
 30
0.0
 11
-1057.5605266727
 21
-230.5028087076
 31
0.0
  0
LINE
  5
3F9
330
1F
100
AcDbEntity
  8
0
  6
Continuous
 62
     7
370
    25
100
AcDbLine
 10
-1057.5605266727
 20
-230.5028087076
 30
0.0
 11
-1057.3510977954
 21
-218.5046363658
 31
0.0
  0
LINE
  5
3FA
330
1F
100
AcDbEntity
  8
0
  6
Continuous
 62
     7
370
    25
100
AcDbLine
 10
-1057.3510977954
 20
-218.5046363658
 30
0.0
 11
-1107.3434825533
 21
-217.6320160439
 31
0.0
  0
LINE
  5
3FB
330
1F
100
AcDbEntity
  8
0
  6
Continuous
 62
     7
370
    25
100
AcDbLine
 10
-1107.5529114305
 20
-229.6301883858
 30
0.0
 11
-1107.3434825533
 21
-217.6320160439
 31
0.0
  0
LINE
  5
3FC
330
1F
100
AcDbEntity
  8
0
  6
Continuous
 62
     7
370
    25
100
AcDbLine
 10
-1107.5529114305
 20
-229.6301883858
 30
0.0
 11
-1142.0500076352
 21
-229.0280393317
 31
0.0
  0
LINE
  5
3FD
330
1F
100
AcDbEntity
  8
0
  6
Continuous
 62
     7
370
    25
100
AcDbLine
 10
-1142.0500076352
 20
-229.0280393317
 30
0.0
 11
-1141.8405787579
 21
-217.0298669898
 31
0.0
  0
LINE
  5
3FE
330
1F
100
AcDbEntity
  8
0
  6
Continuous
 62
     7
370
    25
100
AcDbLine
 10
-823.0938914367
 20
-234.595439049
 30
0.0
 11
-822.8844625595
 21
-222.5972667072
 31
0.0
  0
LINE
  5
3FF
330
1F
100
AcDbEntity
  8
0
  6
Continuous
 62
     7
370
    25
100
AcDbLine
 10
-857.5909876414
 20
-233.993289995
 30
0.0
 11
-857.3815587642
 21
-221.9951176531
 31
0.0
  0
LINE
  5
400
330
1F
100
AcDbEntity
  8
0
  6
Continuous
 62
     7
370
    25
100
AcDbLine
 10
-857.3815587642
 20
-221.9951176531
 30
0.0
 11
-907.373943522
 21
-221.1224973313
 31
0.0
  0
LINE
  5
401
330
1F
100
AcDbEntity
  8
0
  6
Continuous
 62
     7
370
    25
100
AcDbLine
 10
-823.0938914367
 20
-234.595439049
 30
0.0
 11
-857.5909876414
 21
-233.993289995
 31
0.0
  0
LINE
  5
402
330
1F
100
AcDbEntity
  8
0
  6
Continuous
 62
     7
370
    25
100
AcDbLine
 10
1157.8793003519
 20
-255.7759264919
 30
0.0
 11
1107.8812041986
 21
-256.2122532669
 31
0.0
  0
LINE
  5
403
330
1F
100
AcDbEntity
  8
0
  6
Continuous
 62
     7
370
    25
100
AcDbLine
 10
1157.8793003519
 20
-255.7759264919
 30
0.0
 11
1158.0887372038
 21
-279.7750126455
 31
0.0
  0
LINE
  5
404
330
1F
100
AcDbEntity
  8
0
  6
Continuous
 62
     7
370
    25
100
AcDbLine
 10
1108.0906410506
 20
-280.2113394204
 30
0.0
 11
1158.0887372038
 21
-279.7750126455
 31
0.0
  0
LINE
  5
405
330
1F
100
AcDbEntity
  8
0
  6
Continuous
 62
     7
370
    25
100
AcDbLine
 10
1107.8812041986
 20
-256.2122532669
 30
0.0
 11
1108.0906410506
 21
-280.2113394204
 31
0.0
  0
LINE
  5
406
330
1F
100
AcDbEntity
  8
0
  6
Continuous
 62
     7
370
    25
100
AcDbLine
 10
1153.8765210368
 20
-290.7507665861
 30
0.0
 11
1153.8765210368
 21
-314.7507665861
 31
0.0
  0
LINE
  5
407
330
1F
100
AcDbEntity
  8
0
  6
Continuous
 62
     7
370
    25
100
AcDbLine
 10
1103.8765210368
 20
-290.7507665861
 30
0.0
 11
1103.8765210368
 21
-314.7507665861
 31
0.0
  0
LINE
  5
408
330
1F
100
AcDbEntity
  8
0
  6
Continuous
 62
     7
370
    25
100
AcDbLine
 10
1153.8765210368
 20
-314.7507665861
 30
0.0
 11
1103.8765210368
 21
-314.7507665861
 31
0.0
  0
LINE
  5
409
330
1F
100
AcDbEntity
  8
0
  6
Continuous
 62
     7
370
    25
100
AcDbLine
 10
1103.8765210368
 20
-290.7507665861
 30
0.0
 11
1153.8765210368
 21
-290.7507665861
 31
0.0
  0
LINE
  5
40A
330
1F
100
AcDbEntity
  8
0
  6
Continuous
 62
     7
370
    25
100
AcDbLine
 10
1153.7963150512
 20
-331.3019418738
 30
0.0
 11
1153.7963150512
 21
-355.3019418738
 31
0.0
  0
LINE
  5
40B
330
1F
100
AcDbEntity
  8
0
  6
Continuous
 62
     7
370
    25
100
AcDbLine
 10
1153.7963150512
 20
-355.3019418738
 30
0.0
 11
1103.7963150512
 21
-355.3019418738
 31
0.0
  0
LINE
  5
40C
330
1F
100
AcDbEntity
  8
0
  6
Continuous
 62
     7
370
    25
100
AcDbLine
 10
1103.7963150512
 20
-331.3019418738
 30
0.0
 11
1103.7963150512
 21
-355.3019418738
 31
0.0
  0
LINE
  5
40D
330
1F
100
AcDbEntity
  8
0
  6
Continuous
 62
     7
370
    25
100
AcDbLine
 10
1103.7963150512
 20
-331.3019418738
 30
0.0
 11
1153.7963150512
 21
-331.3019418738
 31
0.0
  0
LINE
  5
40E
330
1F
100
AcDbEntity
  8
0
  6
Continuous
 62
     7
370
    25
100
AcDbLine
 10
1154.8767808106
 20
-372.7997352624
 30
0.0
 11
1104.8843960527
 21
-373.6723555843
 31
0.0
  0
LINE
  5
40F
330
1F
100
AcDbEntity
  8
0
  6
Continuous
 62
     7
370
    25
100
AcDbLine
 10
1155.2956385651
 20
-396.7960799462
 30
0.0
 11
1154.8767808106
 21
-372.7997352624
 31
0.0
  0
LINE
  5
410
330
1F
100
AcDbEntity
  8
0
  6
Continuous
 62
     7
370
    25
100
AcDbLine
 10
1105.3032538072
 20
-397.668700268
 30
0.0
 11
1155.2956385651
 21
-396.7960799462
 31
0.0
  0
LINE
  5
411
330
1F
100
AcDbEntity
  8
0
  6
Continuous
 62
     7
370
    25
100
AcDbLine
 10
1105.3032538072
 20
-397.668700268
 30
0.0
 11
1104.8843960527
 21
-373.6723555843
 31
0.0
  0
LINE
  5
412
330
1F
100
AcDbEntity
  8
0
  6
Continuous
 62
     7
370
    25
100
AcDbLine
 10
1153.8369707778
 20
-213.0927075139
 30
0.0
 11
1053.8522012622
 21
-214.8379481577
 31
0.0
  0
LINE
  5
413
330
1F
100
AcDbEntity
  8
0
  6
Continuous
 62
     7
370
    25
100
AcDbLine
 10
1154.2558285323
 20
-237.0890521977
 30
0.0
 11
1153.8369707778
 21
-213.0927075139
 31
0.0
  0
LINE
  5
414
330
1F
100
AcDbEntity
  8
0
  6
Continuous
 62
     7
370
    25
100
AcDbLine
 10
1054.2710590167
 20
-238.8342928414
 30
0.0
 11
1154.2558285323
 21
-237.0890521977
 31
0.0
  0
LINE
  5
415
330
1F
100
AcDbEntity
  8
0
  6
Continuous
 62
     7
370
    25
100
AcDbLine
 10
1054.2710590167
 20
-238.8342928414
 30
0.0
 11
1053.8522012622
 21
-214.8379481577
 31
0.0
  0
LINE
  5
416
330
1F
100
AcDbEntity
  8
0
  6
Continuous
 62
     7
370
    25
100
AcDbLine
 10
1049.7806055839
 20
-200.1865300156
 30
0.0
 11
1149.7806055839
 21
-200.1865300156
 31
0.0
  0
LINE
  5
417
330
1F
100
AcDbEntity
  8
0
  6
Continuous
 62
     7
370
    25
100
AcDbLine
 10
1149.7806055839
 20
-200.1865300156
 30
0.0
 11
1149.7806055839
 21
-176.1865300156
 31
0.0
  0
LINE
  5
418
330
1F
100
AcDbEntity
  8
0
  6
Continuous
 62
     7
370
    25
100
AcDbLine
 10
1049.7806055839
 20
-200.1865300156
 30
0.0
 11
1049.7806055839
 21
-176.1865300156
 31
0.0
  0
LINE
  5
419
330
1F
100
AcDbEntity
  8
0
  6
Continuous
 62
     7
370
    25
100
AcDbLine
 10
1149.7806055839
 20
-176.1865300156
 30
0.0
 11
1049.7806055839
 21
-176.1865300156
 31
0.0
  0
LINE
  5
41A
330
1F
100
AcDbEntity
  8
0
  6
Continuous
 62
     7
370
    25
100
AcDbLine
 10
998.3292385937
 20
-131.9455244617
 30
0.0
 11
998.3292385937
 21
-155.9455244617
 31
0.0
  0
LINE
  5
41B
330
1F
100
AcDbEntity
  8
0
  6
Continuous
 62
     7
370
    25
100
AcDbLine
 10
1148.3292385937
 20
-131.9455244617
 30
0.0
 11
1148.3292385937
 21
-155.9455244617
 31
0.0
  0
LINE
  5
41C
330
1F
100
AcDbEntity
  8
0
  6
Continuous
 62
     7
370
    25
100
AcDbLine
 10
1148.3292385937
 20
-155.9455244617
 30
0.0
 11
998.3292385937
 21
-155.9455244617
 31
0.0
  0
LINE
  5
41D
330
1F
100
AcDbEntity
  8
0
  6
Continuous
 62
     7
370
    25
100
AcDbLine
 10
998.3292385937
 20
-131.9455244617
 30
0.0
 11
1148.3292385937
 21
-131.9455244617
 31
0.0
  0
LINE
  5
41E
330
1F
100
AcDbEntity
  8
0
  6
Continuous
 62
     7
370
    25
100
AcDbLine
 10
1148.5417078744
 20
-81.6134112121
 30
0.0
 11
1148.5417078744
 21
-105.6134112121
 31
0.0
  0
LINE
  5
41F
330
1F
100
AcDbEntity
  8
0
  6
Continuous
 62
     7
370
    25
100
AcDbLine
 10
998.5417078744
 20
-81.6134112121
 30
0.0
 11
998.5417078744
 21
-105.6134112121
 31
0.0
  0
LINE
  5
420
330
1F
100
AcDbEntity
  8
0
  6
Continuous
 62
     7
370
    25
100
AcDbLine
 10
1148.5417078744
 20
-105.6134112121
 30
0.0
 11
998.5417078744
 21
-105.6134112121
 31
0.0
  0
LINE
  5
421
330
1F
100
AcDbEntity
  8
0
  6
Continuous
 62
     7
370
    25
100
AcDbLine
 10
998.5417078744
 20
-81.6134112121
 30
0.0
 11
1148.5417078744
 21
-81.6134112121
 31
0.0
  0
LINE
  5
422
330
1F
100
AcDbEntity
  8
0
  6
Continuous
 62
     7
370
    25
100
AcDbLine
 10
998.8948455905
 20
-25.7351534391
 30
0.0
 11
998.8948455905
 21
-49.7351534391
 31
0.0
  0
LINE
  5
423
330
1F
100
AcDbEntity
  8
0
  6
Continuous
 62
     7
370
    25
100
AcDbLine
 10
1148.8948455905
 20
-25.7351534391
 30
0.0
 11
998.8948455905
 21
-25.7351534391
 31
0.0
  0
LINE
  5
424
330
1F
100
AcDbEntity
  8
0
  6
Continuous
 62
     7
370
    25
100
AcDbLine
 10
1148.8948455905
 20
-25.7351534391
 30
0.0
 11
1148.8948455905
 21
-49.7351534391
 31
0.0
  0
LINE
  5
425
330
1F
100
AcDbEntity
  8
0
  6
Continuous
 62
     7
370
    25
100
AcDbLine
 10
998.8948455905
 20
-49.7351534391
 30
0.0
 11
1148.8948455905
 21
-49.7351534391
 31
0.0
  0
LINE
  5
426
330
1F
100
AcDbEntity
  8
0
  6
Continuous
 62
     7
370
    25
100
AcDbLine
 10
1000.5000060891
 20
25.7342519823
 30
0.0
 11
1000.5000060891
 21
1.7342519823
 31
0.0
  0
LINE
  5
427
330
1F
100
AcDbEntity
  8
0
  6
Continuous
 62
     7
370
    25
100
AcDbLine
 10
1150.5000060891
 20
25.7342519823
 30
0.0
 11
1000.5000060891
 21
25.7342519823
 31
0.0
  0
LINE
  5
428
330
1F
100
AcDbEntity
  8
0
  6
Continuous
 62
     7
370
    25
100
AcDbLine
 10
1150.5000060891
 20
25.7342519823
 30
0.0
 11
1150.5000060891
 21
1.7342519823
 31
0.0
  0
LINE
  5
429
330
1F
100
AcDbEntity
  8
0
  6
Continuous
 62
     7
370
    25
100
AcDbLine
 10
1000.5000060891
 20
1.7342519823
 30
0.0
 11
1150.5000060891
 21
1.7342519823
 31
0.0
  0
LINE
  5
42A
330
1F
100
AcDbEntity
  8
0
  6
Continuous
 62
     7
370
    25
100
AcDbLine
 10
777.7936360938
 20
181.7502425497
 30
0.0
 11
745.2232791838
 21
183.4571826258
 31
0.0
  0
LINE
  5
42B
330
1F
100
AcDbEntity
  8
0
  6
Continuous
 62
     7
370
    25
100
AcDbLine
 10
744.5952477089
 20
171.4736282087
 30
0.0
 11
745.2232791838
 21
183.4571826258
 31
0.0
  0
LINE
  5
42C
330
1F
100
AcDbEntity
  8
0
  6
Continuous
 62
     7
370
    25
100
AcDbLine
 10
744.5952477089
 20
171.4736282087
 30
0.0
 11
694.6637709712
 21
174.0904260209
 31
0.0
  0
LINE
  5
42D
330
1F
100
AcDbEntity
  8
0
  6
Continuous
 62
     7
370
    25
100
AcDbLine
 10
694.6637709712
 20
174.0904260209
 30
0.0
 11
695.2918024461
 21
186.0739804379
 31
0.0
  0
LINE
  5
42E
330
1F
100
AcDbEntity
  8
0
  6
Continuous
 62
     7
370
    25
100
AcDbLine
 10
695.2918024461
 20
186.0739804379
 30
0.0
 11
645.3603257084
 21
188.6907782501
 31
0.0
  0
LINE
  5
42F
330
1F
100
AcDbEntity
  8
0
  6
Continuous
 62
     7
370
    25
100
AcDbLine
 10
644.7322942334
 20
176.707223833
 30
0.0
 11
645.3603257084
 21
188.6907782501
 31
0.0
  0
LINE
  5
430
330
1F
100
AcDbEntity
  8
0
  6
Continuous
 62
     7
370
    25
100
AcDbLine
 10
644.7322942334
 20
176.707223833
 30
0.0
 11
594.8008174957
 21
179.3240216451
 31
0.0
  0
LINE
  5
431
330
1F
100
AcDbEntity
  8
0
  6
Continuous
 62
     7
370
    25
100
AcDbLine
 10
594.8008174957
 20
179.3240216451
 30
0.0
 11
595.4288489706
 21
191.3075760622
 31
0.0
  0
LINE
  5
432
330
1F
100
AcDbEntity
  8
0
  6
Continuous
 62
     7
370
    25
100
AcDbLine
 10
595.4288489706
 20
191.3075760622
 30
0.0
 11
562.8584920607
 21
193.0145161383
 31
0.0
  0
LINE
  5
433
330
1F
100
AcDbEntity
  8
0
  6
Continuous
 62
     7
370
    25
100
AcDbLine
 10
691.5506438891
 20
399.2676703166
 30
0.0
 11
691.4459254632
 21
387.2681272398
 31
0.0
  0
LINE
  5
434
330
1F
100
AcDbEntity
  8
0
  6
Continuous
 62
     7
370
    25
100
AcDbLine
 10
691.5506438891
 20
399.2676703166
 30
0.0
 11
721.5495015811
 21
399.0058742517
 31
0.0
  0
LINE
  5
435
330
1F
100
AcDbEntity
  8
0
  6
Continuous
 62
     7
370
    25
100
AcDbLine
 10
721.5495015811
 20
399.0058742517
 30
0.0
 11
721.4447831551
 21
387.0063311749
 31
0.0
  0
LINE
  5
436
330
1F
100
AcDbEntity
  8
0
  6
Continuous
 62
     7
370
    25
100
AcDbLine
 10
721.4447831551
 20
387.0063311749
 30
0.0
 11
781.4424985389
 21
386.482739045
 31
0.0
  0
LINE
  5
437
330
1F
100
AcDbEntity
  8
0
  6
Continuous
 62
     7
370
    25
100
AcDbLine
 10
781.5472169649
 20
398.4822821218
 30
0.0
 11
781.4424985389
 21
386.482739045
 31
0.0
  0
LINE
  5
438
330
1F
100
AcDbEntity
  8
0
  6
Continuous
 62
     7
370
    25
100
AcDbLine
 10
781.5472169649
 20
398.4822821218
 30
0.0
 11
788.7342294165
 21
398.4195620143
 31
0.0
  0
LINE
  5
439
330
1F
100
AcDbEntity
  8
0
  6
Continuous
 62
     7
370
    25
100
AcDbLine
 10
788.7342294165
 20
398.4195620143
 30
0.0
 11
788.6295109905
 21
386.4200189375
 31
0.0
  0
LINE
  5
43A
330
1F
100
AcDbEntity
  8
0
  6
Continuous
 62
     7
370
    25
100
AcDbLine
 10
631.4482100793
 20
387.7917193697
 30
0.0
 11
691.4459254632
 21
387.2681272398
 31
0.0
  0
LINE
  5
43B
330
1F
100
AcDbEntity
  8
0
  6
Continuous
 62
     7
370
    25
100
AcDbLine
 10
631.5529285053
 20
399.7912624465
 30
0.0
 11
631.4482100793
 21
387.7917193697
 31
0.0
  0
LINE
  5
43C
330
1F
100
AcDbEntity
  8
0
  6
Continuous
 62
     7
370
    25
100
AcDbLine
 10
624.3659160537
 20
399.853982554
 30
0.0
 11
624.2611976277
 21
387.8544394772
 31
0.0
  0
LINE
  5
43D
330
1F
100
AcDbEntity
  8
0
  6
Continuous
 62
     7
370
    25
100
AcDbLine
 10
624.3659160537
 20
399.853982554
 30
0.0
 11
631.5529285053
 21
399.7912624465
 31
0.0
  0
LINE
  5
43E
330
1F
100
AcDbEntity
  8
0
  6
Continuous
 62
     7
370
    25
100
AcDbLine
 10
471.8095260301
 20
83.0991480345
 30
0.0
 11
471.8095260301
 21
71.0991480345
 31
0.0
  0
LINE
  5
43F
330
1F
100
AcDbEntity
  8
0
  6
Continuous
 62
     7
370
    25
100
AcDbLine
 10
471.8095260301
 20
83.0991480345
 30
0.0
 11
484.0116765056
 21
83.0991480345
 31
0.0
  0
LINE
  5
440
330
1F
100
AcDbEntity
  8
0
  6
Continuous
 62
     7
370
    25
100
AcDbLine
 10
484.0116765056
 20
83.0991480345
 30
0.0
 11
484.0116765056
 21
71.0991480345
 31
0.0
  0
LINE
  5
441
330
1F
100
AcDbEntity
  8
0
  6
Continuous
 62
     7
370
    25
100
AcDbLine
 10
484.0116765056
 20
71.0991480345
 30
0.0
 11
534.0116765056
 21
71.0991480345
 31
0.0
  0
LINE
  5
442
330
1F
100
AcDbEntity
  8
0
  6
Continuous
 62
     7
370
    25
100
AcDbLine
 10
534.0116765056
 20
83.0991480345
 30
0.0
 11
546.2138269811
 21
83.0991480345
 31
0.0
  0
LINE
  5
443
330
1F
100
AcDbEntity
  8
0
  6
Continuous
 62
     7
370
    25
100
AcDbLine
 10
546.2138269811
 20
83.0991480345
 30
0.0
 11
546.2138269811
 21
71.0991480345
 31
0.0
  0
LINE
  5
444
330
1F
100
AcDbEntity
  8
0
  6
Continuous
 62
     7
370
    25
100
AcDbLine
 10
534.0116765056
 20
83.0991480345
 30
0.0
 11
534.0116765056
 21
71.0991480345
 31
0.0
  0
LINE
  5
445
330
1F
100
AcDbEntity
  8
0
  6
Continuous
 62
     7
370
    25
100
AcDbLine
 10
480.2264123855
 20
100.1256195255
 30
0.0
 11
480.3311308114
 21
112.1251626023
 31
0.0
  0
LINE
  5
446
330
1F
100
AcDbEntity
  8
0
  6
Continuous
 62
     7
370
    25
100
AcDbLine
 10
480.2264123855
 20
100.1256195255
 30
0.0
 11
468.0247265305
 21
100.2321020248
 31
0.0
  0
LINE
  5
447
330
1F
100
AcDbEntity
  8
0
  6
Continuous
 62
     7
370
    25
100
AcDbLine
 10
468.0247265305
 20
100.2321020248
 30
0.0
 11
468.1294449565
 21
112.2316451016
 31
0.0
  0
LINE
  5
448
330
1F
100
AcDbEntity
  8
0
  6
Continuous
 62
     7
370
    25
100
AcDbLine
 10
530.2245085387
 20
99.6892927506
 30
0.0
 11
530.3292269647
 21
111.6888358274
 31
0.0
  0
LINE
  5
449
330
1F
100
AcDbEntity
  8
0
  6
Continuous
 62
     7
370
    25
100
AcDbLine
 10
530.3292269647
 20
111.6888358274
 30
0.0
 11
480.3311308114
 21
112.1251626023
 31
0.0
  0
LINE
  5
44A
330
1F
100
AcDbEntity
  8
0
  6
Continuous
 62
     7
370
    25
100
AcDbLine
 10
542.4261943937
 20
99.5828102513
 30
0.0
 11
542.5309128196
 21
111.5823533281
 31
0.0
  0
LINE
  5
44B
330
1F
100
AcDbEntity
  8
0
  6
Continuous
 62
     7
370
    25
100
AcDbLine
 10
542.4261943937
 20
99.5828102513
 30
0.0
 11
530.2245085387
 21
99.6892927506
 31
0.0
  0
LINE
  5
44C
330
1F
100
AcDbEntity
  8
0
  6
Continuous
 62
     7
370
    25
100
AcDbLine
 10
748.5925584328
 20
398.915933134
 30
0.0
 11
749.1159910811
 21
410.904511793
 31
0.0
  0
LINE
  5
44D
330
1F
100
AcDbEntity
  8
0
  6
Continuous
 62
     7
370
    25
100
AcDbLine
 10
748.5925584328
 20
398.915933134
 30
0.0
 11
741.4121130152
 21
399.2294381515
 31
0.0
  0
LINE
  5
44E
330
1F
100
AcDbEntity
  8
0
  6
Continuous
 62
     7
370
    25
100
AcDbLine
 10
741.9355456636
 20
411.2180168104
 30
0.0
 11
681.9926523687
 21
413.8351800524
 31
0.0
  0
LINE
  5
44F
330
1F
100
AcDbEntity
  8
0
  6
Continuous
 62
     7
370
    25
100
AcDbLine
 10
681.4692197203
 20
401.8466013934
 30
0.0
 11
681.9926523687
 21
413.8351800524
 31
0.0
  0
LINE
  5
450
330
1F
100
AcDbEntity
  8
0
  6
Continuous
 62
     7
370
    25
100
AcDbLine
 10
681.4692197203
 20
401.8466013934
 30
0.0
 11
651.4977730728
 21
403.1551830143
 31
0.0
  0
LINE
  5
451
330
1F
100
AcDbEntity
  8
0
  6
Continuous
 62
     7
370
    25
100
AcDbLine
 10
651.4977730728
 20
403.1551830143
 30
0.0
 11
652.0212057212
 21
415.1437616733
 31
0.0
  0
LINE
  5
452
330
1F
100
AcDbEntity
  8
0
  6
Continuous
 62
     7
370
    25
100
AcDbLine
 10
652.0212057212
 20
415.1437616733
 30
0.0
 11
592.0783124263
 21
417.7609249152
 31
0.0
  0
LINE
  5
453
330
1F
100
AcDbEntity
  8
0
  6
Continuous
 62
     7
370
    25
100
AcDbLine
 10
591.5548797779
 20
405.7723462562
 30
0.0
 11
592.0783124263
 21
417.7609249152
 31
0.0
  0
LINE
  5
454
330
1F
100
AcDbEntity
  8
0
  6
Continuous
 62
     7
370
    25
100
AcDbLine
 10
591.5548797779
 20
405.7723462562
 30
0.0
 11
584.3744343603
 21
406.0858512737
 31
0.0
  0
LINE
  5
455
330
1F
100
AcDbEntity
  8
0
  6
Continuous
 62
     7
370
    25
100
AcDbLine
 10
584.3744343603
 20
406.0858512737
 30
0.0
 11
584.8978670087
 21
418.0744299326
 31
0.0
  0
LINE
  5
456
330
1F
100
AcDbEntity
  8
0
  6
Continuous
 62
     7
370
    25
100
AcDbLine
 10
741.4121130152
 20
399.2294381515
 30
0.0
 11
741.9355456636
 21
411.2180168104
 31
0.0
  0
LINE
  5
457
330
1F
100
AcDbEntity
  8
0
  6
Continuous
 62
     7
370
    25
100
AcDbLine
 10
405.4693825981
 20
317.677739833
 30
0.0
 11
435.46824029
 21
317.939535898
 31
0.0
  0
LINE
  5
458
330
1F
100
AcDbEntity
  8
0
  6
Continuous
 62
     7
370
    25
100
AcDbLine
 10
435.46824029
 20
317.939535898
 30
0.0
 11
435.572958716
 21
305.9399928212
 31
0.0
  0
LINE
  5
459
330
1F
100
AcDbEntity
  8
0
  6
Continuous
 62
     7
370
    25
100
AcDbLine
 10
505.4655749045
 20
318.5503933829
 30
0.0
 11
505.5702933305
 21
306.5508503061
 31
0.0
  0
LINE
  5
45A
330
1F
100
AcDbEntity
  8
0
  6
Continuous
 62
     7
370
    25
100
AcDbLine
 10
505.4655749045
 20
318.5503933829
 30
0.0
 11
535.4644325964
 21
318.8121894479
 31
0.0
  0
LINE
  5
45B
330
1F
100
AcDbEntity
  8
0
  6
Continuous
 62
     7
370
    25
100
AcDbLine
 10
535.4644325964
 20
318.8121894479
 30
0.0
 11
535.5691510224
 21
306.8126463711
 31
0.0
  0
LINE
  5
45C
330
1F
100
AcDbEntity
  8
0
  6
Continuous
 62
     7
370
    25
100
AcDbLine
 10
535.5691510224
 20
306.8126463711
 30
0.0
 11
571.5404609407
 21
307.126563237
 31
0.0
  0
LINE
  5
45D
330
1F
100
AcDbEntity
  8
0
  6
Continuous
 62
     7
370
    25
100
AcDbLine
 10
405.4693825981
 20
317.677739833
 30
0.0
 11
405.5741010241
 21
305.6781967562
 31
0.0
  0
LINE
  5
45E
330
1F
100
AcDbEntity
  8
0
  6
Continuous
 62
     7
370
    25
100
AcDbLine
 10
435.572958716
 20
305.9399928212
 30
0.0
 11
505.5702933305
 21
306.5508503061
 31
0.0
  0
LINE
  5
45F
330
1F
100
AcDbEntity
  8
0
  6
Continuous
 62
     7
370
    25
100
AcDbLine
 10
305.4731902917
 20
316.8050862831
 30
0.0
 11
335.4720479836
 21
317.0668823481
 31
0.0
  0
LINE
  5
460
330
1F
100
AcDbEntity
  8
0
  6
Continuous
 62
     7
370
    25
100
AcDbLine
 10
335.4720479836
 20
317.0668823481
 30
0.0
 11
335.5767664096
 21
305.0673392713
 31
0.0
  0
LINE
  5
461
330
1F
100
AcDbEntity
  8
0
  6
Continuous
 62
     7
370
    25
100
AcDbLine
 10
305.4731902917
 20
316.8050862831
 30
0.0
 11
305.5779087177
 21
304.8055432064
 31
0.0
  0
LINE
  5
462
330
1F
100
AcDbEntity
  8
0
  6
Continuous
 62
     7
370
    25
100
AcDbLine
 10
269.6065987994
 20
304.4916263404
 30
0.0
 11
305.5779087177
 21
304.8055432064
 31
0.0
  0
LINE
  5
463
330
1F
100
AcDbEntity
  8
0
  6
Continuous
 62
     7
370
    25
100
AcDbLine
 10
335.5767664096
 20
305.0673392713
 30
0.0
 11
405.5741010241
 21
305.6781967562
 31
0.0
  0
LINE
  5
464
330
1F
100
AcDbEntity
  8
0
  6
Continuous
 62
     7
370
    25
100
AcDbLine
 10
651.1976627826
 20
143.2823866141
 30
0.0
 11
651.3023812086
 21
131.2828435373
 31
0.0
  0
LINE
  5
465
330
1F
100
AcDbEntity
  8
0
  6
Continuous
 62
     7
370
    25
100
AcDbLine
 10
651.3023812086
 20
131.2828435373
 30
0.0
 11
701.3004773618
 21
131.7191703122
 31
0.0
  0
LINE
  5
466
330
1F
100
AcDbEntity
  8
0
  6
Continuous
 62
     7
370
    25
100
AcDbLine
 10
701.1957589358
 20
143.718713389
 30
0.0
 11
701.3004773618
 21
131.7191703122
 31
0.0
  0
LINE
  5
467
330
1F
100
AcDbEntity
  8
0
  6
Continuous
 62
     7
370
    25
100
AcDbLine
 10
701.1957589358
 20
143.718713389
 30
0.0
 11
751.1938550891
 21
144.1550401639
 31
0.0
  0
LINE
  5
468
330
1F
100
AcDbEntity
  8
0
  6
Continuous
 62
     7
370
    25
100
AcDbLine
 10
751.1938550891
 20
144.1550401639
 30
0.0
 11
751.298573515
 21
132.1554970871
 31
0.0
  0
LINE
  5
469
330
1F
100
AcDbEntity
  8
0
  6
Continuous
 62
     7
370
    25
100
AcDbLine
 10
751.298573515
 20
132.1554970871
 30
0.0
 11
783.9123863426
 21
132.4401135199
 31
0.0
  0
LINE
  5
46A
330
1F
100
AcDbEntity
  8
0
  6
Continuous
 62
     7
370
    25
100
AcDbLine
 10
601.1995666294
 20
142.8460598391
 30
0.0
 11
651.1976627826
 21
143.2823866141
 31
0.0
  0
LINE
  5
46B
330
1F
100
AcDbEntity
  8
0
  6
Continuous
 62
     7
370
    25
100
AcDbLine
 10
601.1995666294
 20
142.8460598391
 30
0.0
 11
601.3042850554
 21
130.8465167623
 31
0.0
  0
LINE
  5
46C
330
1F
100
AcDbEntity
  8
0
  6
Continuous
 62
     7
370
    25
100
AcDbLine
 10
568.6904722279
 20
130.5619003296
 30
0.0
 11
601.3042850554
 21
130.8465167623
 31
0.0
  0
LINE
  5
46D
330
1F
100
AcDbEntity
  8
0
  6
Continuous
 62
     7
370
    25
100
AcDbLine
 10
553.3645544355
 20
331.1094665262
 30
0.0
 11
553.1551255583
 21
343.1076388681
 31
0.0
  0
LINE
  5
46E
330
1F
100
AcDbEntity
  8
0
  6
Continuous
 62
     7
370
    25
100
AcDbLine
 10
553.3645544355
 20
331.1094665262
 30
0.0
 11
538.3668390082
 21
330.8476804296
 31
0.0
  0
LINE
  5
46F
330
1F
100
AcDbEntity
  8
0
  6
Continuous
 62
     7
370
    25
100
AcDbLine
 10
538.3668390082
 20
330.8476804296
 30
0.0
 11
538.1574101309
 21
342.8458527715
 31
0.0
  0
LINE
  5
470
330
1F
100
AcDbEntity
  8
0
  6
Continuous
 62
     7
370
    25
100
AcDbLine
 10
538.1574101309
 20
342.8458527715
 30
0.0
 11
488.1650253731
 21
341.9732324496
 31
0.0
  0
LINE
  5
471
330
1F
100
AcDbEntity
  8
0
  6
Continuous
 62
     7
370
    25
100
AcDbLine
 10
488.3744542504
 20
329.9750601077
 30
0.0
 11
488.1650253731
 21
341.9732324496
 31
0.0
  0
LINE
  5
472
330
1F
100
AcDbEntity
  8
0
  6
Continuous
 62
     7
370
    25
100
AcDbLine
 10
488.3744542504
 20
329.9750601077
 30
0.0
 11
438.3820694926
 21
329.1024397859
 31
0.0
  0
LINE
  5
473
330
1F
100
AcDbEntity
  8
0
  6
Continuous
 62
     7
370
    25
100
AcDbLine
 10
438.3820694926
 20
329.1024397859
 30
0.0
 11
438.1726406153
 21
341.1006121277
 31
0.0
  0
LINE
  5
474
330
1F
100
AcDbEntity
  8
0
  6
Continuous
 62
     7
370
    25
100
AcDbLine
 10
438.1726406153
 20
341.1006121277
 30
0.0
 11
388.1802558575
 21
340.2279918058
 31
0.0
  0
LINE
  5
475
330
1F
100
AcDbEntity
  8
0
  6
Continuous
 62
     7
370
    25
100
AcDbLine
 10
388.3896847347
 20
328.229819464
 30
0.0
 11
388.1802558575
 21
340.2279918058
 31
0.0
  0
LINE
  5
476
330
1F
100
AcDbEntity
  8
0
  6
Continuous
 62
     7
370
    25
100
AcDbLine
 10
388.3896847347
 20
328.229819464
 30
0.0
 11
338.3972999769
 21
327.3571991421
 31
0.0
  0
LINE
  5
477
330
1F
100
AcDbEntity
  8
0
  6
Continuous
 62
     7
370
    25
100
AcDbLine
 10
338.3972999769
 20
327.3571991421
 30
0.0
 11
338.1878710997
 21
339.3553714839
 31
0.0
  0
LINE
  5
478
330
1F
100
AcDbEntity
  8
0
  6
Continuous
 62
     7
370
    25
100
AcDbLine
 10
338.1878710997
 20
339.3553714839
 30
0.0
 11
288.1954863419
 21
338.4827511621
 31
0.0
  0
LINE
  5
479
330
1F
100
AcDbEntity
  8
0
  6
Continuous
 62
     7
370
    25
100
AcDbLine
 10
288.4049152191
 20
326.4845788202
 30
0.0
 11
288.1954863419
 21
338.4827511621
 31
0.0
  0
LINE
  5
47A
330
1F
100
AcDbEntity
  8
0
  6
Continuous
 62
     7
370
    25
100
AcDbLine
 10
288.4049152191
 20
326.4845788202
 30
0.0
 11
273.4071997918
 21
326.2227927236
 31
0.0
  0
LINE
  5
47B
330
1F
100
AcDbEntity
  8
0
  6
Continuous
 62
     7
370
    25
100
AcDbLine
 10
273.4071997918
 20
326.2227927236
 30
0.0
 11
273.1977709145
 21
338.2209650655
 31
0.0
  0
LINE
  5
47C
330
1F
100
AcDbEntity
  8
0
  6
Continuous
 62
     7
370
    25
100
AcDbLine
 10
-78.3660165926
 20
306.8700158723
 30
0.0
 11
-78.2612981666
 21
294.8704727956
 31
0.0
  0
LINE
  5
47D
330
1F
100
AcDbEntity
  8
0
  6
Continuous
 62
     7
370
    25
100
AcDbLine
 10
-78.3660165926
 20
306.8700158723
 30
0.0
 11
-43.8649792565
 21
307.1711018638
 31
0.0
  0
LINE
  5
47E
330
1F
100
AcDbEntity
  8
0
  6
Continuous
 62
     7
370
    25
100
AcDbLine
 10
-43.8649792565
 20
307.1711018638
 30
0.0
 11
-43.7602608305
 21
295.1715587871
 31
0.0
  0
LINE
  5
47F
330
1F
100
AcDbEntity
  8
0
  6
Continuous
 62
     7
370
    25
100
AcDbLine
 10
-43.7602608305
 20
295.1715587871
 30
0.0
 11
6.2378353227
 21
295.607885562
 31
0.0
  0
LINE
  5
480
330
1F
100
AcDbEntity
  8
0
  6
Continuous
 62
     7
370
    25
100
AcDbLine
 10
6.1331168967
 20
307.6074286388
 30
0.0
 11
56.1312130499
 21
308.0437554137
 31
0.0
  0
LINE
  5
481
330
1F
100
AcDbEntity
  8
0
  6
Continuous
 62
     7
370
    25
100
AcDbLine
 10
56.1312130499
 20
308.0437554137
 30
0.0
 11
56.2359314759
 21
296.0442123369
 31
0.0
  0
LINE
  5
482
330
1F
100
AcDbEntity
  8
0
  6
Continuous
 62
     7
370
    25
100
AcDbLine
 10
56.2359314759
 20
296.0442123369
 30
0.0
 11
106.2340276291
 21
296.4805391119
 31
0.0
  0
LINE
  5
483
330
1F
100
AcDbEntity
  8
0
  6
Continuous
 62
     7
370
    25
100
AcDbLine
 10
106.1293092031
 20
308.4800821887
 30
0.0
 11
106.2340276291
 21
296.4805391119
 31
0.0
  0
LINE
  5
484
330
1F
100
AcDbEntity
  8
0
  6
Continuous
 62
     7
370
    25
100
AcDbLine
 10
106.1293092031
 20
308.4800821887
 30
0.0
 11
156.1274053563
 21
308.9164089636
 31
0.0
  0
LINE
  5
485
330
1F
100
AcDbEntity
  8
0
  6
Continuous
 62
     7
370
    25
100
AcDbLine
 10
156.1274053563
 20
308.9164089636
 30
0.0
 11
156.2321237823
 21
296.9168658868
 31
0.0
  0
LINE
  5
486
330
1F
100
AcDbEntity
  8
0
  6
Continuous
 62
     7
370
    25
100
AcDbLine
 10
156.2321237823
 20
296.9168658868
 30
0.0
 11
206.2302199355
 21
297.3531926618
 31
0.0
  0
LINE
  5
487
330
1F
100
AcDbEntity
  8
0
  6
Continuous
 62
     7
370
    25
100
AcDbLine
 10
206.1255015095
 20
309.3527357386
 30
0.0
 11
206.2302199355
 21
297.3531926618
 31
0.0
  0
LINE
  5
488
330
1F
100
AcDbEntity
  8
0
  6
Continuous
 62
     7
370
    25
100
AcDbLine
 10
206.1255015095
 20
309.3527357386
 30
0.0
 11
240.6265388455
 21
309.6538217301
 31
0.0
  0
LINE
  5
489
330
1F
100
AcDbEntity
  8
0
  6
Continuous
 62
     7
370
    25
100
AcDbLine
 10
240.6265388455
 20
309.6538217301
 30
0.0
 11
240.7312572715
 21
297.6542786533
 31
0.0
  0
LINE
  5
48A
330
1F
100
AcDbEntity
  8
0
  6
Continuous
 62
     7
370
    25
100
AcDbLine
 10
6.1331168967
 20
307.6074286388
 30
0.0
 11
6.2378353227
 21
295.607885562
 31
0.0
  0
LINE
  5
48B
330
1F
100
AcDbEntity
  8
0
  6
Continuous
 62
     7
370
    25
100
AcDbLine
 10
1090.3944303422
 20
72.6057624147
 30
0.0
 11
1040.396334189
 21
72.1694356397
 31
0.0
  0
LINE
  5
48C
330
1F
100
AcDbEntity
  8
0
  6
Continuous
 62
     7
370
    25
100
AcDbLine
 10
1040.396334189
 20
72.1694356397
 30
0.0
 11
1040.291615763
 21
84.1689787165
 31
0.0
  0
LINE
  5
48D
330
1F
100
AcDbEntity
  8
0
  6
Continuous
 62
     7
370
    25
100
AcDbLine
 10
1040.291615763
 20
84.1689787165
 30
0.0
 11
990.2935196098
 21
83.7326519415
 31
0.0
  0
LINE
  5
48E
330
1F
100
AcDbEntity
  8
0
  6
Continuous
 62
     7
370
    25
100
AcDbLine
 10
990.3982380357
 20
71.7331088648
 30
0.0
 11
990.2935196098
 21
83.7326519415
 31
0.0
  0
LINE
  5
48F
330
1F
100
AcDbEntity
  8
0
  6
Continuous
 62
     7
370
    25
100
AcDbLine
 10
990.3982380357
 20
71.7331088648
 30
0.0
 11
940.4001418825
 21
71.2967820898
 31
0.0
  0
LINE
  5
490
330
1F
100
AcDbEntity
  8
0
  6
Continuous
 62
     7
370
    25
100
AcDbLine
 10
940.4001418825
 20
71.2967820898
 30
0.0
 11
940.2954234566
 21
83.2963251666
 31
0.0
  0
LINE
  5
491
330
1F
100
AcDbEntity
  8
0
  6
Continuous
 62
     7
370
    25
100
AcDbLine
 10
940.2954234566
 20
83.2963251666
 30
0.0
 11
890.2973273033
 21
82.8599983917
 31
0.0
  0
LINE
  5
492
330
1F
100
AcDbEntity
  8
0
  6
Continuous
 62
     7
370
    25
100
AcDbLine
 10
890.4020457293
 20
70.8604553149
 30
0.0
 11
890.2973273033
 21
82.8599983917
 31
0.0
  0
LINE
  5
493
330
1F
100
AcDbEntity
  8
0
  6
Continuous
 62
     7
370
    25
100
AcDbLine
 10
890.4020457293
 20
70.8604553149
 30
0.0
 11
875.4026168834
 21
70.7295572824
 31
0.0
  0
LINE
  5
494
330
1F
100
AcDbEntity
  8
0
  6
Continuous
 62
     7
370
    25
100
AcDbLine
 10
875.4026168834
 20
70.7295572824
 30
0.0
 11
875.2978984574
 21
82.7291003592
 31
0.0
  0
LINE
  5
495
330
1F
100
AcDbEntity
  8
0
  6
Continuous
 62
     7
370
    25
100
AcDbLine
 10
1155.3919553413
 20
73.1729872221
 30
0.0
 11
1155.2872369153
 21
85.1725302989
 31
0.0
  0
LINE
  5
496
330
1F
100
AcDbEntity
  8
0
  6
Continuous
 62
     7
370
    25
100
AcDbLine
 10
1155.3919553413
 20
73.1729872221
 30
0.0
 11
1140.3925264954
 21
73.0420891896
 31
0.0
  0
LINE
  5
497
330
1F
100
AcDbEntity
  8
0
  6
Continuous
 62
     7
370
    25
100
AcDbLine
 10
1140.3925264954
 20
73.0420891896
 30
0.0
 11
1140.2878080694
 21
85.0416322664
 31
0.0
  0
LINE
  5
498
330
1F
100
AcDbEntity
  8
0
  6
Continuous
 62
     7
370
    25
100
AcDbLine
 10
1140.2878080694
 20
85.0416322664
 30
0.0
 11
1090.2897119162
 21
84.6053054914
 31
0.0
  0
LINE
  5
499
330
1F
100
AcDbEntity
  8
0
  6
Continuous
 62
     7
370
    25
100
AcDbLine
 10
1090.3944303422
 20
72.6057624147
 30
0.0
 11
1090.2897119162
 21
84.6053054914
 31
0.0
  0
LINE
  5
49A
330
1F
100
AcDbEntity
  8
0
  6
Continuous
 62
     7
370
    25
100
AcDbLine
 10
992.7578845207
 20
379.311717638
 30
0.0
 11
992.6531660947
 21
367.3121745613
 31
0.0
  0
LINE
  5
49B
330
1F
100
AcDbEntity
  8
0
  6
Continuous
 62
     7
370
    25
100
AcDbLine
 10
1092.7540768271
 20
378.4390640882
 30
0.0
 11
1092.6493584011
 21
366.4395210115
 31
0.0
  0
LINE
  5
49C
330
1F
100
AcDbEntity
  8
0
  6
Continuous
 62
     7
370
    25
100
AcDbLine
 10
1122.6482160931
 20
366.1777249465
 30
0.0
 11
1133.595208909
 21
366.0821919875
 31
0.0
  0
LINE
  5
49D
330
1F
100
AcDbEntity
  8
0
  6
Continuous
 62
     7
370
    25
100
AcDbLine
 10
1122.752934519
 20
378.1772680233
 30
0.0
 11
1122.6482160931
 21
366.1777249465
 31
0.0
  0
LINE
  5
49E
330
1F
100
AcDbEntity
  8
0
  6
Continuous
 62
     7
370
    25
100
AcDbLine
 10
1022.6520237866
 20
367.0503784963
 30
0.0
 11
1092.6493584011
 21
366.4395210115
 31
0.0
  0
LINE
  5
49F
330
1F
100
AcDbEntity
  8
0
  6
Continuous
 62
     7
370
    25
100
AcDbLine
 10
892.7616922143
 20
380.1843711878
 30
0.0
 11
892.6569737883
 21
368.1848281111
 31
0.0
  0
LINE
  5
4A0
330
1F
100
AcDbEntity
  8
0
  6
Continuous
 62
     7
370
    25
100
AcDbLine
 10
922.6558314802
 20
367.9230320461
 30
0.0
 11
992.6531660947
 21
367.3121745613
 31
0.0
  0
LINE
  5
4A1
330
1F
100
AcDbEntity
  8
0
  6
Continuous
 62
     7
370
    25
100
AcDbLine
 10
1022.7567422126
 20
379.0499215731
 30
0.0
 11
1022.6520237866
 21
367.0503784963
 31
0.0
  0
LINE
  5
4A2
330
1F
100
AcDbEntity
  8
0
  6
Continuous
 62
     7
370
    25
100
AcDbLine
 10
1092.7540768271
 20
378.4390640882
 30
0.0
 11
1122.752934519
 21
378.1772680233
 31
0.0
  0
LINE
  5
4A3
330
1F
100
AcDbEntity
  8
0
  6
Continuous
 62
     7
370
    25
100
AcDbLine
 10
922.7605499062
 20
379.9225751229
 30
0.0
 11
922.6558314802
 21
367.9230320461
 31
0.0
  0
LINE
  5
4A4
330
1F
100
AcDbEntity
  8
0
  6
Continuous
 62
     7
370
    25
100
AcDbLine
 10
992.7578845207
 20
379.311717638
 30
0.0
 11
1022.7567422126
 21
379.0499215731
 31
0.0
  0
LINE
  5
4A5
330
1F
100
AcDbEntity
  8
0
  6
Continuous
 62
     7
370
    25
100
AcDbLine
 10
881.7099809724
 20
368.2803610701
 30
0.0
 11
892.6569737883
 21
368.1848281111
 31
0.0
  0
LINE
  5
4A6
330
1F
100
AcDbEntity
  8
0
  6
Continuous
 62
     7
370
    25
100
AcDbLine
 10
892.7616922143
 20
380.1843711878
 30
0.0
 11
922.7605499062
 21
379.9225751229
 31
0.0
  0
LINE
  5
4A7
330
1F
100
AcDbEntity
  8
0
  6
Continuous
 62
     7
370
    25
100
AcDbLine
 10
1120.6393801347
 20
411.0556681793
 30
0.0
 11
1120.325256755
 21
423.051556079
 31
0.0
  0
LINE
  5
4A8
330
1F
100
AcDbEntity
  8
0
  6
Continuous
 62
     7
370
    25
100
AcDbLine
 10
1120.6393801347
 20
411.0556681793
 30
0.0
 11
1090.6496603854
 21
410.2703597301
 31
0.0
  0
LINE
  5
4A9
330
1F
100
AcDbEntity
  8
0
  6
Continuous
 62
     7
370
    25
100
AcDbLine
 10
1090.6496603854
 20
410.2703597301
 30
0.0
 11
1090.3355370057
 21
422.2662476298
 31
0.0
  0
LINE
  5
4AA
330
1F
100
AcDbEntity
  8
0
  6
Continuous
 62
     7
370
    25
100
AcDbLine
 10
1020.6736476371
 20
408.4379733485
 30
0.0
 11
1020.3595242574
 21
420.4338612482
 31
0.0
  0
LINE
  5
4AB
330
1F
100
AcDbEntity
  8
0
  6
Continuous
 62
     7
370
    25
100
AcDbLine
 10
1020.6736476371
 20
408.4379733485
 30
0.0
 11
990.6839278878
 21
407.6526648993
 31
0.0
  0
LINE
  5
4AC
330
1F
100
AcDbEntity
  8
0
  6
Continuous
 62
     7
370
    25
100
AcDbLine
 10
990.6839278878
 20
407.6526648993
 30
0.0
 11
990.3698045082
 21
419.648552799
 31
0.0
  0
LINE
  5
4AD
330
1F
100
AcDbEntity
  8
0
  6
Continuous
 62
     7
370
    25
100
AcDbLine
 10
990.3698045082
 20
419.648552799
 30
0.0
 11
920.3937917599
 21
417.8161664175
 31
0.0
  0
LINE
  5
4AE
330
1F
100
AcDbEntity
  8
0
  6
Continuous
 62
     7
370
    25
100
AcDbLine
 10
920.7079151396
 20
405.8202785177
 30
0.0
 11
920.3937917599
 21
417.8161664175
 31
0.0
  0
LINE
  5
4AF
330
1F
100
AcDbEntity
  8
0
  6
Continuous
 62
     7
370
    25
100
AcDbLine
 10
920.7079151396
 20
405.8202785177
 30
0.0
 11
890.7181953903
 21
405.0349700685
 31
0.0
  0
LINE
  5
4B0
330
1F
100
AcDbEntity
  8
0
  6
Continuous
 62
     7
370
    25
100
AcDbLine
 10
890.7181953903
 20
405.0349700685
 30
0.0
 11
890.4040720106
 21
417.0308579682
 31
0.0
  0
LINE
  5
4B1
330
1F
100
AcDbEntity
  8
0
  6
Continuous
 62
     7
370
    25
100
AcDbLine
 10
890.4040720106
 20
417.0308579682
 30
0.0
 11
879.4604137547
 21
416.7442881914
 31
0.0
  0
LINE
  5
4B2
330
1F
100
AcDbEntity
  8
0
  6
Continuous
 62
     7
370
    25
100
AcDbLine
 10
1090.3355370057
 20
422.2662476298
 30
0.0
 11
1020.3595242574
 21
420.4338612482
 31
0.0
  0
LINE
  5
4B3
330
1F
100
AcDbEntity
  8
0
  6
Continuous
 62
     7
370
    25
100
AcDbLine
 10
1131.2689150108
 20
423.3381258558
 30
0.0
 11
1120.325256755
 21
423.051556079
 31
0.0
  0
LINE
  5
4B4
330
1F
100
AcDbEntity
  8
0
  6
Continuous
 62
     7
370
    25
100
AcDbLine
 10
162.8803870961
 20
321.346601144
 30
0.0
 11
162.8803870961
 21
333.346601144
 31
0.0
  0
LINE
  5
4B5
330
1F
100
AcDbEntity
  8
0
  6
Continuous
 62
     7
370
    25
100
AcDbLine
 10
162.8803870961
 20
333.346601144
 30
0.0
 11
92.8803870961
 21
333.346601144
 31
0.0
  0
LINE
  5
4B6
330
1F
100
AcDbEntity
  8
0
  6
Continuous
 62
     7
370
    25
100
AcDbLine
 10
92.8803870961
 20
321.346601144
 30
0.0
 11
92.8803870961
 21
333.346601144
 31
0.0
  0
LINE
  5
4B7
330
1F
100
AcDbEntity
  8
0
  6
Continuous
 62
     7
370
    25
100
AcDbLine
 10
92.8803870961
 20
321.346601144
 30
0.0
 11
62.8803870961
 21
321.346601144
 31
0.0
  0
LINE
  5
4B8
330
1F
100
AcDbEntity
  8
0
  6
Continuous
 62
     7
370
    25
100
AcDbLine
 10
62.8803870961
 20
321.346601144
 30
0.0
 11
62.8803870961
 21
333.346601144
 31
0.0
  0
LINE
  5
4B9
330
1F
100
AcDbEntity
  8
0
  6
Continuous
 62
     7
370
    25
100
AcDbLine
 10
62.8803870961
 20
333.346601144
 30
0.0
 11
-7.1196129039
 21
333.3466011439
 31
0.0
  0
LINE
  5
4BA
330
1F
100
AcDbEntity
  8
0
  6
Continuous
 62
     7
370
    25
100
AcDbLine
 10
-7.1196129039
 20
321.3466011439
 30
0.0
 11
-7.1196129039
 21
333.3466011439
 31
0.0
  0
LINE
  5
4BB
330
1F
100
AcDbEntity
  8
0
  6
Continuous
 62
     7
370
    25
100
AcDbLine
 10
-7.1196129039
 20
321.3466011439
 30
0.0
 11
-37.1196129039
 21
321.3466011439
 31
0.0
  0
LINE
  5
4BC
330
1F
100
AcDbEntity
  8
0
  6
Continuous
 62
     7
370
    25
100
AcDbLine
 10
-37.1196129039
 20
321.3466011439
 30
0.0
 11
-37.1196129039
 21
333.3466011439
 31
0.0
  0
LINE
  5
4BD
330
1F
100
AcDbEntity
  8
0
  6
Continuous
 62
     7
370
    25
100
AcDbLine
 10
-37.1196129039
 20
333.3466011439
 30
0.0
 11
-88.0857239025
 21
333.3466011439
 31
0.0
  0
LINE
  5
4BE
330
1F
100
AcDbEntity
  8
0
  6
Continuous
 62
     7
370
    25
100
AcDbLine
 10
243.8464980947
 20
333.3466011441
 30
0.0
 11
192.8803870961
 21
333.346601144
 31
0.0
  0
LINE
  5
4BF
330
1F
100
AcDbEntity
  8
0
  6
Continuous
 62
     7
370
    25
100
AcDbLine
 10
192.8803870961
 20
321.346601144
 30
0.0
 11
192.8803870961
 21
333.346601144
 31
0.0
  0
LINE
  5
4C0
330
1F
100
AcDbEntity
  8
0
  6
Continuous
 62
     7
370
    25
100
AcDbLine
 10
192.8803870961
 20
321.346601144
 30
0.0
 11
162.8803870961
 21
321.346601144
 31
0.0
  0
LINE
  5
4C1
330
1F
100
AcDbEntity
  8
0
  6
Continuous
 62
     7
370
    25
100
AcDbLine
 10
-131.0
 20
210.0
 30
0.0
 11
-131.0
 21
310.0
 31
0.0
  0
LINE
  5
4C2
330
1F
100
AcDbEntity
  8
0
  6
Continuous
 62
     7
370
    25
100
AcDbLine
 10
-119.0
 20
210.0
 30
0.0
 11
-131.0
 21
210.0
 31
0.0
  0
LINE
  5
4C3
330
1F
100
AcDbEntity
  8
0
  6
Continuous
 62
     7
370
    25
100
AcDbLine
 10
-119.0
 20
210.0
 30
0.0
 11
-119.0
 21
310.0
 31
0.0
  0
LINE
  5
4C4
330
1F
100
AcDbEntity
  8
0
  6
Continuous
 62
     7
370
    25
100
AcDbLine
 10
-129.2426406871
 20
503.8873016278
 30
0.0
 11
-93.8873016278
 21
539.2426406871
 31
0.0
  0
LINE
  5
4C5
330
1F
100
AcDbEntity
  8
0
  6
Continuous
 62
     7
370
    25
100
AcDbLine
 10
-120.7573593129
 20
495.4020202536
 30
0.0
 11
-129.2426406871
 21
503.8873016278
 31
0.0
  0
LINE
  5
4C6
330
1F
100
AcDbEntity
  8
0
  6
Continuous
 62
     7
370
    25
100
AcDbLine
 10
-85.4020202536
 20
530.7573593129
 30
0.0
 11
-120.7573593129
 21
495.4020202536
 31
0.0
  0
LINE
  5
4C7
330
1F
100
AcDbEntity
  8
0
  6
Continuous
 62
     7
370
    25
100
AcDbLine
 10
-93.8873016278
 20
539.2426406871
 30
0.0
 11
-85.4020202536
 21
530.7573593129
 31
0.0
  0
LINE
  5
4C8
330
1F
100
AcDbEntity
  8
0
  6
Continuous
 62
     7
370
    25
100
AcDbLine
 10
675.0
 20
529.0
 30
0.0
 11
525.0
 21
529.0
 31
0.0
  0
LINE
  5
4C9
330
1F
100
AcDbEntity
  8
0
  6
Continuous
 62
     7
370
    25
100
AcDbLine
 10
675.0
 20
541.0
 30
0.0
 11
675.0
 21
529.0
 31
0.0
  0
LINE
  5
4CA
330
1F
100
AcDbEntity
  8
0
  6
Continuous
 62
     7
370
    25
100
AcDbLine
 10
675.0
 20
541.0
 30
0.0
 11
525.0
 21
541.0
 31
0.0
  0
LINE
  5
4CB
330
1F
100
AcDbEntity
  8
0
  6
Continuous
 62
     7
370
    25
100
AcDbLine
 10
525.0
 20
541.0
 30
0.0
 11
525.0
 21
529.0
 31
0.0
  0
LINE
  5
4CC
330
1F
100
AcDbEntity
  8
0
  6
Continuous
 62
     7
370
    25
100
AcDbLine
 10
819.0
 20
310.0
 30
0.0
 11
831.0
 21
310.0
 31
0.0
  0
LINE
  5
4CD
330
1F
100
AcDbEntity
  8
0
  6
Continuous
 62
     7
370
    25
100
AcDbLine
 10
819.0
 20
210.0
 30
0.0
 11
819.0
 21
310.0
 31
0.0
  0
LINE
  5
4CE
330
1F
100
AcDbEntity
  8
0
  6
Continuous
 62
     7
370
    25
100
AcDbLine
 10
819.0
 20
210.0
 30
0.0
 11
831.0
 21
210.0
 31
0.0
  0
LINE
  5
4CF
330
1F
100
AcDbEntity
  8
0
  6
Continuous
 62
     7
370
    25
100
AcDbLine
 10
831.0
 20
210.0
 30
0.0
 11
831.0
 21
310.0
 31
0.0
  0
LINE
  5
4D0
330
1F
100
AcDbEntity
  8
0
  6
Continuous
 62
     7
370
    25
100
AcDbLine
 10
829.2426406871
 20
16.1126983722
 30
0.0
 11
793.8873016278
 21
-19.2426406871
 31
0.0
  0
LINE
  5
4D1
330
1F
100
AcDbEntity
  8
0
  6
Continuous
 62
     7
370
    25
100
AcDbLine
 10
820.7573593129
 20
24.5979797464
 30
0.0
 11
829.2426406871
 21
16.1126983722
 31
0.0
  0
LINE
  5
4D2
330
1F
100
AcDbEntity
  8
0
  6
Continuous
 62
     7
370
    25
100
AcDbLine
 10
785.4020202536
 20
-10.7573593129
 30
0.0
 11
820.7573593129
 21
24.5979797464
 31
0.0
  0
LINE
  5
4D3
330
1F
100
AcDbEntity
  8
0
  6
Continuous
 62
     7
370
    25
100
AcDbLine
 10
793.8873016278
 20
-19.2426406871
 30
0.0
 11
785.4020202536
 21
-10.7573593129
 31
0.0
  0
LINE
  5
4D4
330
1F
100
AcDbEntity
  8
0
  6
Continuous
 62
     7
370
    25
100
AcDbLine
 10
675.0
 20
-21.0
 30
0.0
 11
675.0
 21
-9.0
 31
0.0
  0
LINE
  5
4D5
330
1F
100
AcDbEntity
  8
0
  6
Continuous
 62
     7
370
    25
100
AcDbLine
 10
675.0
 20
-9.0
 30
0.0
 11
525.0
 21
-9.0
 31
0.0
  0
LINE
  5
4D6
330
1F
100
AcDbEntity
  8
0
  6
Continuous
 62
     7
370
    25
100
AcDbLine
 10
525.0
 20
-21.0
 30
0.0
 11
525.0
 21
-9.0
 31
0.0
  0
LINE
  5
4D7
330
1F
100
AcDbEntity
  8
0
  6
Continuous
 62
     7
370
    25
100
AcDbLine
 10
675.0
 20
-21.0
 30
0.0
 11
525.0
 21
-21.0
 31
0.0
  0
LINE
  5
4D8
330
1F
100
AcDbEntity
  8
0
  6
Continuous
 62
     7
370
    25
100
AcDbLine
 10
-93.8873016278
 20
-19.2426406871
 30
0.0
 11
-85.4020202536
 21
-10.7573593129
 31
0.0
  0
LINE
  5
4D9
330
1F
100
AcDbEntity
  8
0
  6
Continuous
 62
     7
370
    25
100
AcDbLine
 10
-85.4020202536
 20
-10.7573593129
 30
0.0
 11
-120.7573593129
 21
24.5979797464
 31
0.0
  0
LINE
  5
4DA
330
1F
100
AcDbEntity
  8
0
  6
Continuous
 62
     7
370
    25
100
AcDbLine
 10
-120.7573593129
 20
24.5979797464
 30
0.0
 11
-129.2426406871
 21
16.1126983722
 31
0.0
  0
LINE
  5
4DB
330
1F
100
AcDbEntity
  8
0
  6
Continuous
 62
     7
370
    25
100
AcDbLine
 10
-129.2426406871
 20
16.1126983722
 30
0.0
 11
-93.8873016278
 21
-19.2426406871
 31
0.0
  0
LINE
  5
4DC
330
1F
100
AcDbEntity
  8
0
  6
Continuous
 62
     7
370
    25
100
AcDbLine
 10
-79.2893218813
 20
510.0
 30
0.0
 11
779.2893218813
 21
510.0
 31
0.0
  0
LINE
  5
4DD
330
1F
100
AcDbEntity
  8
0
  6
Continuous
 62
     7
370
    25
100
AcDbLine
 10
-100.0
 20
489.2893218813
 30
0.0
 11
-79.2893218813
 21
510.0
 31
0.0
  0
LINE
  5
4DE
330
1F
100
AcDbEntity
  8
0
  6
Continuous
 62
     7
370
    25
100
AcDbLine
 10
-100.0
 20
489.2893218813
 30
0.0
 11
-100.0
 21
30.7106781187
 31
0.0
  0
LINE
  5
4DF
330
1F
100
AcDbEntity
  8
0
  6
Continuous
 62
     7
370
    25
100
AcDbLine
 10
-100.0
 20
30.7106781187
 30
0.0
 11
-79.2893218813
 21
10.0
 31
0.0
  0
LINE
  5
4E0
330
1F
100
AcDbEntity
  8
0
  6
Continuous
 62
     7
370
    25
100
AcDbLine
 10
-79.2893218813
 20
10.0
 30
0.0
 11
779.2893218813
 21
10.0
 31
0.0
  0
LINE
  5
4E1
330
1F
100
AcDbEntity
  8
0
  6
Continuous
 62
     7
370
    25
100
AcDbLine
 10
779.2893218813
 20
10.0
 30
0.0
 11
800.0
 21
30.7106781187
 31
0.0
  0
LINE
  5
4E2
330
1F
100
AcDbEntity
  8
0
  6
Continuous
 62
     7
370
    25
100
AcDbLine
 10
800.0
 20
489.2893218813
 30
0.0
 11
800.0
 21
30.7106781187
 31
0.0
  0
LINE
  5
4E3
330
1F
100
AcDbEntity
  8
0
  6
Continuous
 62
     7
370
    25
100
AcDbLine
 10
779.2893218813
 20
510.0
 30
0.0
 11
800.0
 21
489.2893218813
 31
0.0
  0
LINE
  5
4E4
330
1F
100
AcDbEntity
  8
0
  6
Continuous
 62
     7
370
    25
100
AcDbLine
 10
-100.0
 20
-40.0
 30
0.0
 11
800.0
 21
-40.0
 31
0.0
  0
LINE
  5
4E5
330
1F
100
AcDbEntity
  8
0
  6
Continuous
 62
     7
370
    25
100
AcDbLine
 10
-150.0
 20
10.0
 30
0.0
 11
-100.0
 21
-40.0
 31
0.0
  0
LINE
  5
4E6
330
1F
100
AcDbEntity
  8
0
  6
Continuous
 62
     7
370
    25
100
AcDbLine
 10
-150.0
 20
510.0
 30
0.0
 11
-150.0
 21
10.0
 31
0.0
  0
LINE
  5
4E7
330
1F
100
AcDbEntity
  8
0
  6
Continuous
 62
     7
370
    25
100
AcDbLine
 10
-150.0
 20
510.0
 30
0.0
 11
-100.0
 21
560.0
 31
0.0
  0
LINE
  5
4E8
330
1F
100
AcDbEntity
  8
0
  6
Continuous
 62
     7
370
    25
100
AcDbLine
 10
-100.0
 20
560.0
 30
0.0
 11
800.0
 21
560.0
 31
0.0
  0
LINE
  5
4E9
330
1F
100
AcDbEntity
  8
0
  6
Continuous
 62
     7
370
    25
100
AcDbLine
 10
800.0
 20
560.0
 30
0.0
 11
850.0
 21
510.0
 31
0.0
  0
LINE
  5
4EA
330
1F
100
AcDbEntity
  8
0
  6
Continuous
 62
     7
370
    25
100
AcDbLine
 10
850.0
 20
510.0
 30
0.0
 11
850.0
 21
10.0
 31
0.0
  0
LINE
  5
4EB
330
1F
100
AcDbEntity
  8
0
  6
Continuous
 62
     7
370
    25
100
AcDbLine
 10
800.0
 20
-40.0
 30
0.0
 11
850.0
 21
10.0
 31
0.0
  0
LINE
  5
4EC
330
1F
100
AcDbEntity
  8
0
  6
Continuous
 62
     7
370
    25
100
AcDbLine
 10
25.0
 20
-9.0
 30
0.0
 11
175.0
 21
-9.0
 31
0.0
  0
LINE
  5
4ED
330
1F
100
AcDbEntity
  8
0
  6
Continuous
 62
     7
370
    25
100
AcDbLine
 10
25.0
 20
-21.0
 30
0.0
 11
25.0
 21
-9.0
 31
0.0
  0
LINE
  5
4EE
330
1F
100
AcDbEntity
  8
0
  6
Continuous
 62
     7
370
    25
100
AcDbLine
 10
25.0
 20
-21.0
 30
0.0
 11
175.0
 21
-21.0
 31
0.0
  0
LINE
  5
4EF
330
1F
100
AcDbEntity
  8
0
  6
Continuous
 62
     7
370
    25
100
AcDbLine
 10
175.0
 20
-21.0
 30
0.0
 11
175.0
 21
-9.0
 31
0.0
  0
LINE
  5
4F0
330
1F
100
AcDbEntity
  8
0
  6
Continuous
 62
     7
370
    25
100
AcDbLine
 10
793.8873016278
 20
539.2426406871
 30
0.0
 11
785.4020202536
 21
530.7573593129
 31
0.0
  0
LINE
  5
4F1
330
1F
100
AcDbEntity
  8
0
  6
Continuous
 62
     7
370
    25
100
AcDbLine
 10
785.4020202536
 20
530.7573593129
 30
0.0
 11
820.7573593129
 21
495.4020202536
 31
0.0
  0
LINE
  5
4F2
330
1F
100
AcDbEntity
  8
0
  6
Continuous
 62
     7
370
    25
100
AcDbLine
 10
820.7573593129
 20
495.4020202536
 30
0.0
 11
829.2426406871
 21
503.8873016278
 31
0.0
  0
LINE
  5
4F3
330
1F
100
AcDbEntity
  8
0
  6
Continuous
 62
     7
370
    25
100
AcDbLine
 10
829.2426406871
 20
503.8873016278
 30
0.0
 11
793.8873016278
 21
539.2426406871
 31
0.0
  0
LINE
  5
4F4
330
1F
100
AcDbEntity
  8
0
  6
Continuous
 62
     7
370
    25
100
AcDbLine
 10
25.0
 20
529.0
 30
0.0
 11
175.0
 21
529.0
 31
0.0
  0
LINE
  5
4F5
330
1F
100
AcDbEntity
  8
0
  6
Continuous
 62
     7
370
    25
100
AcDbLine
 10
175.0
 20
541.0
 30
0.0
 11
175.0
 21
529.0
 31
0.0
  0
LINE
  5
4F6
330
1F
100
AcDbEntity
  8
0
  6
Continuous
 62
     7
370
    25
100
AcDbLine
 10
25.0
 20
541.0
 30
0.0
 11
175.0
 21
541.0
 31
0.0
  0
LINE
  5
4F7
330
1F
100
AcDbEntity
  8
0
  6
Continuous
 62
     7
370
    25
100
AcDbLine
 10
25.0
 20
541.0
 30
0.0
 11
25.0
 21
529.0
 31
0.0
  0
LINE
  5
4F8
330
1F
100
AcDbEntity
  8
0
  6
Continuous
 62
     7
370
    25
100
AcDbLine
 10
-119.0
 20
310.0
 30
0.0
 11
-131.0
 21
310.0
 31
0.0
  0
LINE
  5
4F9
330
1F
100
AcDbEntity
  8
0
  6
Continuous
 62
     7
370
    25
100
AcDbLine
 10
-505.4241071429
 20
39.4285714286
 30
0.0
 11
-498.0691964286
 21
73.0
 31
0.0
  0
LINE
  5
4FA
330
1F
100
AcDbEntity
  8
0
  6
Continuous
 62
     7
370
    25
100
AcDbLine
 10
-528.5714285714
 20
73.0
 30
0.0
 11
-505.4241071429
 21
39.4285714286
 31
0.0
  0
LINE
  5
4FB
330
1F
100
AcDbEntity
  8
0
  6
Continuous
 62
     7
370
    25
100
AcDbLine
 10
-534.2857142857
 20
73.0
 30
0.0
 11
-528.5714285714
 21
73.0
 31
0.0
  0
LINE
  5
4FC
330
1F
100
AcDbEntity
  8
0
  6
Continuous
 62
     7
370
    25
100
AcDbLine
 10
-546.4285714286
 20
18.0
 30
0.0
 11
-534.2857142857
 21
73.0
 31
0.0
  0
LINE
  5
4FD
330
1F
100
AcDbEntity
  8
0
  6
Continuous
 62
     7
370
    25
100
AcDbLine
 10
-534.7433035714
 20
18.0
 30
0.0
 11
-546.4285714286
 21
18.0
 31
0.0
  0
LINE
  5
4FE
330
1F
100
AcDbEntity
  8
0
  6
Continuous
 62
     7
370
    25
100
AcDbLine
 10
-527.1316964286
 20
52.4196428571
 30
0.0
 11
-534.7433035714
 21
18.0
 31
0.0
  0
LINE
  5
4FF
330
1F
100
AcDbEntity
  8
0
  6
Continuous
 62
     7
370
    25
100
AcDbLine
 10
-502.8571428571
 20
17.2857142857
 30
0.0
 11
-527.1316964286
 21
52.4196428571
 31
0.0
  0
LINE
  5
500
330
1F
100
AcDbEntity
  8
0
  6
Continuous
 62
     7
370
    25
100
AcDbLine
 10
-498.5714285714
 20
17.2857142857
 30
0.0
 11
-502.8571428571
 21
17.2857142857
 31
0.0
  0
LINE
  5
501
330
1F
100
AcDbEntity
  8
0
  6
Continuous
 62
     7
370
    25
100
AcDbLine
 10
-486.4285714286
 20
73.0
 30
0.0
 11
-498.5714285714
 21
17.2857142857
 31
0.0
  0
LINE
  5
502
330
1F
100
AcDbEntity
  8
0
  6
Continuous
 62
     7
370
    25
100
AcDbLine
 10
-498.0691964286
 20
73.0
 30
0.0
 11
-486.4285714286
 21
73.0
 31
0.0
  0
LINE
  5
503
330
1F
100
AcDbEntity
  8
0
  6
Continuous
 62
     7
370
    25
100
AcDbLine
 10
-623.5825892857
 20
36.1584821429
 30
0.0
 11
-615.3013392857
 21
73.0
 31
0.0
  0
LINE
  5
504
330
1F
100
AcDbEntity
  8
0
  6
Continuous
 62
     7
370
    25
100
AcDbLine
 10
-640.4575892857
 20
73.0
 30
0.0
 11
-648.3928571429
 21
35.5669642857
 31
0.0
  0
LINE
  5
505
330
1F
100
AcDbEntity
  8
0
  6
Continuous
 62
     7
370
    25
100
AcDbLine
 10
-652.1428571429
 20
73.0
 30
0.0
 11
-640.4575892857
 21
73.0
 31
0.0
  0
LINE
  5
506
330
1F
100
AcDbEntity
  8
0
  6
Continuous
 62
     7
370
    25
100
AcDbLine
 10
-660.234375
 20
35.3883928571
 30
0.0
 11
-652.1428571429
 21
73.0
 31
0.0
  0
LINE
  5
507
330
1F
100
AcDbEntity
  8
0
  6
Continuous
 62
     7
370
    25
100
AcDbLine
 10
-615.3013392857
 20
73.0
 30
0.0
 11
-603.5714285714
 21
73.0
 31
0.0
  0
LINE
  5
508
330
1F
100
AcDbEntity
  8
0
  6
Continuous
 62
     7
370
    25
100
AcDbLine
 10
-603.5714285714
 20
18.0
 30
0.0
 11
-591.4285714286
 21
73.0
 31
0.0
  0
LINE
  5
509
330
1F
100
AcDbEntity
  8
0
  6
Continuous
 62
     7
370
    25
100
AcDbLine
 10
-591.8861607143
 20
18.0
 30
0.0
 11
-603.5714285714
 21
18.0
 31
0.0
  0
LINE
  5
50A
330
1F
100
AcDbEntity
  8
0
  6
Continuous
 62
     7
370
    25
100
AcDbLine
 10
-586.7857142857
 20
40.8571428571
 30
0.0
 11
-591.8861607143
 21
18.0
 31
0.0
  0
LINE
  5
50B
330
1F
100
AcDbEntity
  8
0
  6
Continuous
 62
     7
370
    25
100
AcDbLine
 10
-580.0
 20
40.8571428571
 30
0.0
 11
-586.7857142857
 21
40.8571428571
 31
0.0
  0
LINE
  5
50C
330
1F
100
AcDbEntity
  8
0
  6
Continuous
 62
     7
370
    25
100
AcDbLine
 10
-566.8415178571
 20
18.0
 30
0.0
 11
-580.0
 21
40.8571428571
 31
0.0
  0
LINE
  5
50D
330
1F
100
AcDbEntity
  8
0
  6
Continuous
 62
     7
370
    25
100
AcDbLine
 10
-553.5714285714
 20
18.0
 30
0.0
 11
-566.8415178571
 21
18.0
 31
0.0
  0
LINE
  5
50E
330
1F
100
AcDbEntity
  8
0
  6
Continuous
 62
     7
370
    25
100
AcDbLine
 10
-568.5714285714
 20
42.4754464286
 30
0.0
 11
-553.5714285714
 21
18.0
 31
0.0
  0
LINE
  5
50F
330
1F
100
AcDbEntity
  8
0
  6
Continuous
 62
     7
370
    25
100
AcDbLine
 10
-806.6629464286
 20
39.3169642857
 30
0.0
 11
-813.9508928571
 21
44.015625
 31
0.0
  0
LINE
  5
510
330
1F
100
AcDbEntity
  8
0
  6
Continuous
 62
     7
370
    25
100
AcDbLine
 10
-785.7142857143
 20
71.5714285714
 30
0.0
 11
-789.3191964286
 21
61.5714285714
 31
0.0
  0
LINE
  5
511
330
1F
100
AcDbEntity
  8
0
  6
Continuous
 62
     7
370
    25
100
AcDbLine
 10
-1141.0
 20
310.0
 30
0.0
 11
-1141.0
 21
210.0
 31
0.0
  0
LINE
  5
512
330
1F
100
AcDbEntity
  8
0
  6
Continuous
 62
     7
370
    25
100
AcDbLine
 10
-1129.0
 20
310.0
 30
0.0
 11
-1129.0
 21
210.0
 31
0.0
  0
LINE
  5
513
330
1F
100
AcDbEntity
  8
0
  6
Continuous
 62
     7
370
    25
100
AcDbLine
 10
-835.0
 20
529.0
 30
0.0
 11
-835.0
 21
541.0
 31
0.0
  0
LINE
  5
514
330
1F
100
AcDbEntity
  8
0
  6
Continuous
 62
     7
370
    25
100
AcDbLine
 10
-835.0
 20
541.0
 30
0.0
 11
-985.0
 21
541.0
 31
0.0
  0
LINE
  5
515
330
1F
100
AcDbEntity
  8
0
  6
Continuous
 62
     7
370
    25
100
AcDbLine
 10
-985.0
 20
529.0
 30
0.0
 11
-985.0
 21
541.0
 31
0.0
  0
LINE
  5
516
330
1F
100
AcDbEntity
  8
0
  6
Continuous
 62
     7
370
    25
100
AcDbLine
 10
-835.0
 20
529.0
 30
0.0
 11
-985.0
 21
529.0
 31
0.0
  0
LINE
  5
517
330
1F
100
AcDbEntity
  8
0
  6
Continuous
 62
     7
370
    25
100
AcDbLine
 10
-335.0
 20
529.0
 30
0.0
 11
-335.0
 21
541.0
 31
0.0
  0
LINE
  5
518
330
1F
100
AcDbEntity
  8
0
  6
Continuous
 62
     7
370
    25
100
AcDbLine
 10
-485.0
 20
541.0
 30
0.0
 11
-335.0
 21
541.0
 31
0.0
  0
LINE
  5
519
330
1F
100
AcDbEntity
  8
0
  6
Continuous
 62
     7
370
    25
100
AcDbLine
 10
-485.0
 20
529.0
 30
0.0
 11
-485.0
 21
541.0
 31
0.0
  0
LINE
  5
51A
330
1F
100
AcDbEntity
  8
0
  6
Continuous
 62
     7
370
    25
100
AcDbLine
 10
-485.0
 20
529.0
 30
0.0
 11
-335.0
 21
529.0
 31
0.0
  0
LINE
  5
51B
330
1F
100
AcDbEntity
  8
0
  6
Continuous
 62
     7
370
    25
100
AcDbLine
 10
-180.7573593129
 20
503.8873016278
 30
0.0
 11
-189.2426406871
 21
495.4020202536
 31
0.0
  0
LINE
  5
51C
330
1F
100
AcDbEntity
  8
0
  6
Continuous
 62
     7
370
    25
100
AcDbLine
 10
-216.1126983722
 20
539.2426406871
 30
0.0
 11
-180.7573593129
 21
503.8873016278
 31
0.0
  0
LINE
  5
51D
330
1F
100
AcDbEntity
  8
0
  6
Continuous
 62
     7
370
    25
100
AcDbLine
 10
-224.5979797464
 20
530.7573593129
 30
0.0
 11
-216.1126983722
 21
539.2426406871
 31
0.0
  0
LINE
  5
51E
330
1F
100
AcDbEntity
  8
0
  6
Continuous
 62
     7
370
    25
100
AcDbLine
 10
-179.0
 20
310.0
 30
0.0
 11
-191.0
 21
310.0
 31
0.0
  0
LINE
  5
51F
330
1F
100
AcDbEntity
  8
0
  6
Continuous
 62
     7
370
    25
100
AcDbLine
 10
-1103.8873016278
 20
-19.2426406871
 30
0.0
 11
-1139.2426406871
 21
16.1126983722
 31
0.0
  0
LINE
  5
520
330
1F
100
AcDbEntity
  8
0
  6
Continuous
 62
     7
370
    25
100
AcDbLine
 10
-160.0
 20
10.0
 30
0.0
 11
-210.0
 21
-40.0
 31
0.0
  0
LINE
  5
521
330
1F
100
AcDbEntity
  8
0
  6
Continuous
 62
     7
370
    25
100
AcDbLine
 10
-210.0
 20
-40.0
 30
0.0
 11
-1110.0
 21
-40.0
 31
0.0
  0
LINE
  5
522
330
1F
100
AcDbEntity
  8
0
  6
Continuous
 62
     7
370
    25
100
AcDbLine
 10
-1110.0
 20
-40.0
 30
0.0
 11
-1160.0
 21
10.0
 31
0.0
  0
LINE
  5
523
330
1F
100
AcDbEntity
  8
0
  6
Continuous
 62
     7
370
    25
100
AcDbLine
 10
-1160.0
 20
10.0
 30
0.0
 11
-1160.0
 21
510.0
 31
0.0
  0
LINE
  5
524
330
1F
100
AcDbEntity
  8
0
  6
Continuous
 62
     7
370
    25
100
AcDbLine
 10
-1110.0
 20
560.0
 30
0.0
 11
-1160.0
 21
510.0
 31
0.0
  0
LINE
  5
525
330
1F
100
AcDbEntity
  8
0
  6
Continuous
 62
     7
370
    25
100
AcDbLine
 10
-210.0
 20
560.0
 30
0.0
 11
-1110.0
 21
560.0
 31
0.0
  0
LINE
  5
526
330
1F
100
AcDbEntity
  8
0
  6
Continuous
 62
     7
370
    25
100
AcDbLine
 10
-160.0
 20
510.0
 30
0.0
 11
-210.0
 21
560.0
 31
0.0
  0
LINE
  5
527
330
1F
100
AcDbEntity
  8
0
  6
Continuous
 62
     7
370
    25
100
AcDbLine
 10
-160.0
 20
10.0
 30
0.0
 11
-160.0
 21
510.0
 31
0.0
  0
LINE
  5
528
330
1F
100
AcDbEntity
  8
0
  6
Continuous
 62
     7
370
    25
100
AcDbLine
 10
-677.851045415
 20
239.6876840909
 30
0.0
 11
-685.615616768
 21
268.6654588795
 31
0.0
  0
LINE
  5
529
330
1F
100
AcDbEntity
  8
0
  6
Continuous
 62
     7
370
    25
100
AcDbLine
 10
-666.2599354995
 20
242.7935126321
 30
0.0
 11
-677.851045415
 21
239.6876840909
 31
0.0
  0
LINE
  5
52A
330
1F
100
AcDbEntity
  8
0
  6
Continuous
 62
     7
370
    25
100
AcDbLine
 10
-674.0245068526
 20
271.7712874208
 30
0.0
 11
-666.2599354995
 21
242.7935126321
 31
0.0
  0
LINE
  5
52B
330
1F
100
AcDbEntity
  8
0
  6
Continuous
 62
     7
370
    25
100
AcDbLine
 10
-685.615616768
 20
268.6654588795
 30
0.0
 11
-674.0245068526
 21
271.7712874208
 31
0.0
  0
LINE
  5
52C
330
1F
100
AcDbEntity
  8
0
  6
Continuous
 62
     7
370
    25
100
AcDbLine
 10
-453.7079752989
 20
340.1224097535
 30
0.0
 11
-434.3894587731
 21
345.2987906555
 31
0.0
  0
LINE
  5
52D
330
1F
100
AcDbEntity
  8
0
  6
Continuous
 62
     7
370
    25
100
AcDbLine
 10
-452.1550610283
 20
334.3268547958
 30
0.0
 11
-453.7079752989
 21
340.1224097535
 31
0.0
  0
LINE
  5
52E
330
1F
100
AcDbEntity
  8
0
  6
Continuous
 62
     7
370
    25
100
AcDbLine
 10
-432.8365445025
 20
339.5032356978
 30
0.0
 11
-452.1550610283
 21
334.3268547958
 31
0.0
  0
LINE
  5
52F
330
1F
100
AcDbEntity
  8
0
  6
Continuous
 62
     7
370
    25
100
AcDbLine
 10
-485.1980586427
 20
268.3235387748
 30
0.0
 11
-496.7891685582
 21
265.2177102335
 31
0.0
  0
LINE
  5
530
330
1F
100
AcDbEntity
  8
0
  6
Continuous
 62
     7
370
    25
100
AcDbLine
 10
-488.356207577
 20
280.1099110553
 30
0.0
 11
-485.1980586427
 21
268.3235387748
 31
0.0
  0
LINE
  5
531
330
1F
100
AcDbEntity
  8
0
  6
Continuous
 62
     7
370
    25
100
AcDbLine
 10
-499.9473174925
 20
277.0040825141
 30
0.0
 11
-488.356207577
 21
280.1099110553
 31
0.0
  0
LINE
  5
532
330
1F
100
AcDbEntity
  8
0
  6
Continuous
 62
     7
370
    25
100
AcDbLine
 10
-496.7891685582
 20
265.2177102335
 30
0.0
 11
-499.9473174925
 21
277.0040825141
 31
0.0
  0
LINE
  5
533
330
1F
100
AcDbEntity
  8
0
  6
Continuous
 62
     7
370
    25
100
AcDbLine
 10
-427.4013445553
 20
319.2187933457
 30
0.0
 11
-446.7198610811
 21
314.0424124437
 31
0.0
  0
LINE
  5
534
330
1F
100
AcDbEntity
  8
0
  6
Continuous
 62
     7
370
    25
100
AcDbLine
 10
-428.9542588259
 20
325.0143483035
 30
0.0
 11
-427.4013445553
 21
319.2187933457
 31
0.0
  0
LINE
  5
535
330
1F
100
AcDbEntity
  8
0
  6
Continuous
 62
     7
370
    25
100
AcDbLine
 10
-448.2727753517
 20
319.8379674014
 30
0.0
 11
-428.9542588259
 21
325.0143483035
 31
0.0
  0
LINE
  5
536
330
1F
100
AcDbEntity
  8
0
  6
Continuous
 62
     7
370
    25
100
AcDbLine
 10
-446.7198610811
 20
314.0424124437
 30
0.0
 11
-448.2727753517
 21
319.8379674014
 31
0.0
  0
LINE
  5
537
330
1F
100
AcDbEntity
  8
0
  6
Continuous
 62
     7
370
    25
100
AcDbLine
 10
-634.7930166596
 20
189.1084772989
 30
0.0
 11
-646.384126575
 21
186.0026487577
 31
0.0
  0
LINE
  5
538
330
1F
100
AcDbEntity
  8
0
  6
Continuous
 62
     7
370
    25
100
AcDbLine
 10
-647.7339689147
 20
237.4047686134
 30
0.0
 11
-634.7930166596
 21
189.1084772989
 31
0.0
  0
LINE
  5
539
330
1F
100
AcDbEntity
  8
0
  6
Continuous
 62
     7
370
    25
100
AcDbLine
 10
-659.3250788302
 20
234.2989400722
 30
0.0
 11
-647.7339689147
 21
237.4047686134
 31
0.0
  0
LINE
  5
53A
330
1F
100
AcDbEntity
  8
0
  6
Continuous
 62
     7
370
    25
100
AcDbLine
 10
-646.384126575
 20
186.0026487577
 30
0.0
 11
-659.3250788302
 21
234.2989400722
 31
0.0
  0
LINE
  5
53B
330
1F
100
AcDbEntity
  8
0
  6
Continuous
 62
     7
370
    25
100
AcDbLine
 10
-651.9691409047
 20
143.095101462
 30
0.0
 11
-659.7337122578
 21
172.0728762506
 31
0.0
  0
LINE
  5
53C
330
1F
100
AcDbEntity
  8
0
  6
Continuous
 62
     7
370
    25
100
AcDbLine
 10
-648.1426023423
 20
175.1787047919
 30
0.0
 11
-640.3780309892
 21
146.2009300032
 31
0.0
  0
LINE
  5
53D
330
1F
100
AcDbEntity
  8
0
  6
Continuous
 62
     7
370
    25
100
AcDbLine
 10
-659.7337122578
 20
172.0728762506
 30
0.0
 11
-648.1426023423
 21
175.1787047919
 31
0.0
  0
LINE
  5
53E
330
1F
100
AcDbEntity
  8
0
  6
Continuous
 62
     7
370
    25
100
AcDbLine
 10
-665.3187265875
 20
129.1653289549
 30
0.0
 11
-653.727616672
 21
132.2711574961
 31
0.0
  0
LINE
  5
53F
330
1F
100
AcDbEntity
  8
0
  6
Continuous
 62
     7
370
    25
100
AcDbLine
 10
-653.5168512115
 20
85.1201304272
 30
0.0
 11
-665.3187265875
 21
129.1653289549
 31
0.0
  0
LINE
  5
540
330
1F
100
AcDbEntity
  8
0
  6
Continuous
 62
     7
370
    25
100
AcDbLine
 10
-641.925741296
 20
88.2259589685
 30
0.0
 11
-653.5168512115
 21
85.1201304272
 31
0.0
  0
LINE
  5
541
330
1F
100
AcDbEntity
  8
0
  6
Continuous
 62
     7
370
    25
100
AcDbLine
 10
-653.727616672
 20
132.2711574961
 30
0.0
 11
-641.925741296
 21
88.2259589685
 31
0.0
  0
LINE
  5
542
330
1F
100
AcDbEntity
  8
0
  6
Continuous
 62
     7
370
    25
100
AcDbLine
 10
-703.7329499252
 20
336.2802667198
 30
0.0
 11
-711.4975212783
 21
365.2580415084
 31
0.0
  0
LINE
  5
543
330
1F
100
AcDbEntity
  8
0
  6
Continuous
 62
     7
370
    25
100
AcDbLine
 10
-692.1418400098
 20
339.386095261
 30
0.0
 11
-703.7329499252
 21
336.2802667198
 31
0.0
  0
LINE
  5
544
330
1F
100
AcDbEntity
  8
0
  6
Continuous
 62
     7
370
    25
100
AcDbLine
 10
-699.9064113628
 20
368.3638700497
 30
0.0
 11
-692.1418400098
 21
339.386095261
 31
0.0
  0
LINE
  5
545
330
1F
100
AcDbEntity
  8
0
  6
Continuous
 62
     7
370
    25
100
AcDbLine
 10
-711.4975212783
 20
365.2580415084
 30
0.0
 11
-699.9064113628
 21
368.3638700497
 31
0.0
  0
LINE
  5
546
330
1F
100
AcDbEntity
  8
0
  6
Continuous
 62
     7
370
    25
100
AcDbLine
 10
-531.82286976
 20
268.4630540257
 30
0.0
 11
-520.2317598445
 21
271.5688825669
 31
0.0
  0
LINE
  5
547
330
1F
100
AcDbEntity
  8
0
  6
Continuous
 62
     7
370
    25
100
AcDbLine
 10
-518.8819175049
 20
220.1667627112
 30
0.0
 11
-531.82286976
 21
268.4630540257
 31
0.0
  0
LINE
  5
548
330
1F
100
AcDbEntity
  8
0
  6
Continuous
 62
     7
370
    25
100
AcDbLine
 10
-507.2908075894
 20
223.2725912525
 30
0.0
 11
-518.8819175049
 21
220.1667627112
 31
0.0
  0
LINE
  5
549
330
1F
100
AcDbEntity
  8
0
  6
Continuous
 62
     7
370
    25
100
AcDbLine
 10
-520.2317598445
 20
271.5688825669
 30
0.0
 11
-507.2908075894
 21
223.2725912525
 31
0.0
  0
LINE
  5
54A
330
1F
100
AcDbEntity
  8
0
  6
Continuous
 62
     7
370
    25
100
AcDbLine
 10
-394.5412840901
 20
312.4944773045
 30
0.0
 11
-392.9883698195
 21
306.6989223467
 31
0.0
  0
LINE
  5
54B
330
1F
100
AcDbEntity
  8
0
  6
Continuous
 62
     7
370
    25
100
AcDbLine
 10
-412.3068863453
 20
301.5225414447
 30
0.0
 11
-413.8598006159
 21
307.3180964024
 31
0.0
  0
LINE
  5
54C
330
1F
100
AcDbEntity
  8
0
  6
Continuous
 62
     7
370
    25
100
AcDbLine
 10
-441.2846611339
 20
293.7579700916
 30
0.0
 11
-442.8375754046
 21
299.5535250494
 31
0.0
  0
LINE
  5
54D
330
1F
100
AcDbEntity
  8
0
  6
Continuous
 62
     7
370
    25
100
AcDbLine
 10
-388.7643115038
 20
329.5715551498
 30
0.0
 11
-408.0828280295
 21
324.3951742478
 31
0.0
  0
LINE
  5
54E
330
1F
100
AcDbEntity
  8
0
  6
Continuous
 62
     7
370
    25
100
AcDbLine
 10
-424.7302005102
 20
347.8869811066
 30
0.0
 11
-405.4116839844
 21
353.0633620086
 31
0.0
  0
LINE
  5
54F
330
1F
100
AcDbEntity
  8
0
  6
Continuous
 62
     7
370
    25
100
AcDbLine
 10
-423.1772862396
 20
342.0914261488
 30
0.0
 11
-424.7302005102
 21
347.8869811066
 31
0.0
  0
LINE
  5
550
330
1F
100
AcDbEntity
  8
0
  6
Continuous
 62
     7
370
    25
100
AcDbLine
 10
-403.8587697138
 20
347.2678070509
 30
0.0
 11
-423.1772862396
 21
342.0914261488
 31
0.0
  0
LINE
  5
551
330
1F
100
AcDbEntity
  8
0
  6
Continuous
 62
     7
370
    25
100
AcDbLine
 10
-405.4116839844
 20
353.0633620086
 30
0.0
 11
-403.8587697138
 21
347.2678070509
 31
0.0
  0
LINE
  5
552
330
1F
100
AcDbEntity
  8
0
  6
Continuous
 62
     7
370
    25
100
AcDbLine
 10
-546.1136643548
 20
368.1614651958
 30
0.0
 11
-533.1727120997
 21
319.8651738814
 31
0.0
  0
LINE
  5
553
330
1F
100
AcDbEntity
  8
0
  6
Continuous
 62
     7
370
    25
100
AcDbLine
 10
-572.4042022927
 20
402.5279840032
 30
0.0
 11
-564.6396309396
 21
373.5502092145
 31
0.0
  0
LINE
  5
554
330
1F
100
AcDbEntity
  8
0
  6
Continuous
 62
     7
370
    25
100
AcDbLine
 10
-583.9953122081
 20
399.422155462
 30
0.0
 11
-572.4042022927
 21
402.5279840032
 31
0.0
  0
LINE
  5
555
330
1F
100
AcDbEntity
  8
0
  6
Continuous
 62
     7
370
    25
100
AcDbLine
 10
-735.6085021928
 20
327.7392382314
 30
0.0
 11
-743.3730735458
 21
356.7170130201
 31
0.0
  0
LINE
  5
556
330
1F
100
AcDbEntity
  8
0
  6
Continuous
 62
     7
370
    25
100
AcDbLine
 10
-724.0173922773
 20
330.8450667726
 30
0.0
 11
-735.6085021928
 21
327.7392382314
 31
0.0
  0
LINE
  5
557
330
1F
100
AcDbEntity
  8
0
  6
Continuous
 62
     7
370
    25
100
AcDbLine
 10
-731.7819636304
 20
359.8228415613
 30
0.0
 11
-724.0173922773
 21
330.8450667726
 31
0.0
  0
LINE
  5
558
330
1F
100
AcDbEntity
  8
0
  6
Continuous
 62
     7
370
    25
100
AcDbLine
 10
-730.2342533236
 20
417.797812596
 30
0.0
 11
-718.4323779476
 21
373.7526140684
 31
0.0
  0
LINE
  5
559
330
1F
100
AcDbEntity
  8
0
  6
Continuous
 62
     7
370
    25
100
AcDbLine
 10
-730.0234878631
 20
370.6467855271
 30
0.0
 11
-741.825363239
 21
414.6919840548
 31
0.0
  0
LINE
  5
55A
330
1F
100
AcDbEntity
  8
0
  6
Continuous
 62
     7
370
    25
100
AcDbLine
 10
-718.4323779476
 20
373.7526140684
 30
0.0
 11
-730.0234878631
 21
370.6467855271
 31
0.0
  0
LINE
  5
55B
330
1F
100
AcDbEntity
  8
0
  6
Continuous
 62
     7
370
    25
100
AcDbLine
 10
-608.1062931226
 20
361.9033521849
 30
0.0
 11
-615.8708644757
 21
390.8811269736
 31
0.0
  0
LINE
  5
55C
330
1F
100
AcDbEntity
  8
0
  6
Continuous
 62
     7
370
    25
100
AcDbLine
 10
-596.5151832071
 20
365.0091807261
 30
0.0
 11
-608.1062931226
 21
361.9033521849
 31
0.0
  0
LINE
  5
55D
330
1F
100
AcDbEntity
  8
0
  6
Continuous
 62
     7
370
    25
100
AcDbLine
 10
-604.2797545602
 20
393.9869555148
 30
0.0
 11
-596.5151832071
 21
365.0091807261
 31
0.0
  0
LINE
  5
55E
330
1F
100
AcDbEntity
  8
0
  6
Continuous
 62
     7
370
    25
100
AcDbLine
 10
-615.8708644757
 20
390.8811269736
 30
0.0
 11
-604.2797545602
 21
393.9869555148
 31
0.0
  0
LINE
  5
55F
330
1F
100
AcDbEntity
  8
0
  6
Continuous
 62
     7
370
    25
100
AcDbLine
 10
-524.4669318346
 20
177.2592154155
 30
0.0
 11
-532.2315031876
 21
206.2369902042
 31
0.0
  0
LINE
  5
560
330
1F
100
AcDbEntity
  8
0
  6
Continuous
 62
     7
370
    25
100
AcDbLine
 10
-512.8758219191
 20
180.3650439567
 30
0.0
 11
-524.4669318346
 21
177.2592154155
 31
0.0
  0
LINE
  5
561
330
1F
100
AcDbEntity
  8
0
  6
Continuous
 62
     7
370
    25
100
AcDbLine
 10
-520.6403932722
 20
209.3428187454
 30
0.0
 11
-512.8758219191
 21
180.3650439567
 31
0.0
  0
LINE
  5
562
330
1F
100
AcDbEntity
  8
0
  6
Continuous
 62
     7
370
    25
100
AcDbLine
 10
-532.2315031876
 20
206.2369902042
 30
0.0
 11
-520.6403932722
 21
209.3428187454
 31
0.0
  0
LINE
  5
563
330
1F
100
AcDbEntity
  8
0
  6
Continuous
 62
     7
370
    25
100
AcDbLine
 10
-582.2243886123
 20
265.310769556
 30
0.0
 11
-589.9889599654
 21
294.2885443447
 31
0.0
  0
LINE
  5
564
330
1F
100
AcDbEntity
  8
0
  6
Continuous
 62
     7
370
    25
100
AcDbLine
 10
-570.6332786969
 20
268.4165980972
 30
0.0
 11
-582.2243886123
 21
265.310769556
 31
0.0
  0
LINE
  5
565
330
1F
100
AcDbEntity
  8
0
  6
Continuous
 62
     7
370
    25
100
AcDbLine
 10
-578.39785005
 20
297.3943728859
 30
0.0
 11
-570.6332786969
 21
268.4165980972
 31
0.0
  0
LINE
  5
566
330
1F
100
AcDbEntity
  8
0
  6
Continuous
 62
     7
370
    25
100
AcDbLine
 10
-589.9889599654
 20
294.2885443447
 30
0.0
 11
-578.39785005
 21
297.3943728859
 31
0.0
  0
LINE
  5
567
330
1F
100
AcDbEntity
  8
0
  6
Continuous
 62
     7
370
    25
100
AcDbLine
 10
-544.7513741866
 20
171.8240154683
 30
0.0
 11
-556.3424841021
 21
168.7181869271
 31
0.0
  0
LINE
  5
568
330
1F
100
AcDbEntity
  8
0
  6
Continuous
 62
     7
370
    25
100
AcDbLine
 10
-552.5159455397
 20
200.801790257
 30
0.0
 11
-544.7513741866
 21
171.8240154683
 31
0.0
  0
LINE
  5
569
330
1F
100
AcDbEntity
  8
0
  6
Continuous
 62
     7
370
    25
100
AcDbLine
 10
-564.1070554552
 20
197.6959617158
 30
0.0
 11
-552.5159455397
 21
200.801790257
 31
0.0
  0
LINE
  5
56A
330
1F
100
AcDbEntity
  8
0
  6
Continuous
 62
     7
370
    25
100
AcDbLine
 10
-602.5212787929
 20
404.8108994807
 30
0.0
 11
-606.4035644695
 21
419.299786875
 31
0.0
  0
LINE
  5
56B
330
1F
100
AcDbEntity
  8
0
  6
Continuous
 62
     7
370
    25
100
AcDbLine
 10
-594.812454554
 20
422.4056154162
 30
0.0
 11
-590.9301688775
 21
407.9167280219
 31
0.0
  0
LINE
  5
56C
330
1F
100
AcDbEntity
  8
0
  6
Continuous
 62
     7
370
    25
100
AcDbLine
 10
-748.9580878755
 20
313.8094657243
 30
0.0
 11
-737.36697796
 21
316.9152942655
 31
0.0
  0
LINE
  5
56D
330
1F
100
AcDbEntity
  8
0
  6
Continuous
 62
     7
370
    25
100
AcDbLine
 10
-724.4260257049
 20
268.6190029511
 30
0.0
 11
-736.0171356204
 21
265.5131744098
 31
0.0
  0
LINE
  5
56E
330
1F
100
AcDbEntity
  8
0
  6
Continuous
 62
     7
370
    25
100
AcDbLine
 10
-737.36697796
 20
316.9152942655
 30
0.0
 11
-724.4260257049
 21
268.6190029511
 31
0.0
  0
LINE
  5
56F
330
1F
100
AcDbEntity
  8
0
  6
Continuous
 62
     7
370
    25
100
AcDbLine
 10
-660.6749211698
 20
285.7010599278
 30
0.0
 11
-672.2660310853
 21
282.5952313866
 31
0.0
  0
LINE
  5
570
330
1F
100
AcDbEntity
  8
0
  6
Continuous
 62
     7
370
    25
100
AcDbLine
 10
-673.615873425
 20
333.9973512423
 30
0.0
 11
-660.6749211698
 21
285.7010599278
 31
0.0
  0
LINE
  5
571
330
1F
100
AcDbEntity
  8
0
  6
Continuous
 62
     7
370
    25
100
AcDbLine
 10
-685.2069833404
 20
330.8915227011
 30
0.0
 11
-673.615873425
 21
333.9973512423
 31
0.0
  0
LINE
  5
572
330
1F
100
AcDbEntity
  8
0
  6
Continuous
 62
     7
370
    25
100
AcDbLine
 10
-672.2660310853
 20
282.5952313866
 30
0.0
 11
-685.2069833404
 21
330.8915227011
 31
0.0
  0
LINE
  5
573
330
1F
100
AcDbEntity
  8
0
  6
Continuous
 62
     7
370
    25
100
AcDbLine
 10
-699.4977779352
 20
430.5899338712
 30
0.0
 11
-686.5568256801
 21
382.2936425567
 31
0.0
  0
LINE
  5
574
330
1F
100
AcDbEntity
  8
0
  6
Continuous
 62
     7
370
    25
100
AcDbLine
 10
-711.0888878507
 20
427.48410533
 30
0.0
 11
-699.4977779352
 21
430.5899338712
 31
0.0
  0
LINE
  5
575
330
1F
100
AcDbEntity
  8
0
  6
Continuous
 62
     7
370
    25
100
AcDbLine
 10
-698.1479355955
 20
379.1878140155
 30
0.0
 11
-711.0888878507
 21
427.48410533
 31
0.0
  0
LINE
  5
576
330
1F
100
AcDbEntity
  8
0
  6
Continuous
 62
     7
370
    25
100
AcDbLine
 10
-620.0935886372
 20
151.6361299503
 30
0.0
 11
-627.8581599903
 21
180.613904739
 31
0.0
  0
LINE
  5
577
330
1F
100
AcDbEntity
  8
0
  6
Continuous
 62
     7
370
    25
100
AcDbLine
 10
-608.5024787217
 20
154.7419584916
 30
0.0
 11
-620.0935886372
 21
151.6361299503
 31
0.0
  0
LINE
  5
578
330
1F
100
AcDbEntity
  8
0
  6
Continuous
 62
     7
370
    25
100
AcDbLine
 10
-616.2670500748
 20
183.7197332802
 30
0.0
 11
-608.5024787217
 21
154.7419584916
 31
0.0
  0
LINE
  5
579
330
1F
100
AcDbEntity
  8
0
  6
Continuous
 62
     7
370
    25
100
AcDbLine
 10
-627.8581599903
 20
180.613904739
 30
0.0
 11
-616.2670500748
 21
183.7197332802
 31
0.0
  0
LINE
  5
57A
330
1F
100
AcDbEntity
  8
0
  6
Continuous
 62
     7
370
    25
100
AcDbLine
 10
-717.082535608
 20
322.3504942127
 30
0.0
 11
-705.4914256925
 21
325.4563227539
 31
0.0
  0
LINE
  5
57B
330
1F
100
AcDbEntity
  8
0
  6
Continuous
 62
     7
370
    25
100
AcDbLine
 10
-704.1415833528
 20
274.0542028982
 30
0.0
 11
-717.082535608
 21
322.3504942127
 31
0.0
  0
LINE
  5
57C
330
1F
100
AcDbEntity
  8
0
  6
Continuous
 62
     7
370
    25
100
AcDbLine
 10
-692.5504734374
 20
277.1600314395
 30
0.0
 11
-704.1415833528
 21
274.0542028982
 31
0.0
  0
LINE
  5
57D
330
1F
100
AcDbEntity
  8
0
  6
Continuous
 62
     7
370
    25
100
AcDbLine
 10
-705.4914256925
 20
325.4563227539
 30
0.0
 11
-692.5504734374
 21
277.1600314395
 31
0.0
  0
LINE
  5
57E
330
1F
100
AcDbEntity
  8
0
  6
Continuous
 62
     7
370
    25
100
AcDbLine
 10
-723.0761833653
 20
217.2168830954
 30
0.0
 11
-711.4850734498
 21
220.3227116366
 31
0.0
  0
LINE
  5
57F
330
1F
100
AcDbEntity
  8
0
  6
Continuous
 62
     7
370
    25
100
AcDbLine
 10
-710.1352311101
 20
168.9205917809
 30
0.0
 11
-723.0761833653
 21
217.2168830954
 31
0.0
  0
LINE
  5
580
330
1F
100
AcDbEntity
  8
0
  6
Continuous
 62
     7
370
    25
100
AcDbLine
 10
-698.5441211947
 20
172.0264203222
 30
0.0
 11
-710.1352311101
 21
168.9205917809
 31
0.0
  0
LINE
  5
581
330
1F
100
AcDbEntity
  8
0
  6
Continuous
 62
     7
370
    25
100
AcDbLine
 10
-711.4850734498
 20
220.3227116366
 30
0.0
 11
-698.5441211947
 21
172.0264203222
 31
0.0
  0
LINE
  5
582
330
1F
100
AcDbEntity
  8
0
  6
Continuous
 62
     7
370
    25
100
AcDbLine
 10
-697.194278855
 20
120.6243004665
 30
0.0
 11
-685.6031689395
 21
123.7301290077
 31
0.0
  0
LINE
  5
583
330
1F
100
AcDbEntity
  8
0
  6
Continuous
 62
     7
370
    25
100
AcDbLine
 10
-688.2644132947
 20
87.2975884908
 30
0.0
 11
-697.194278855
 21
120.6243004665
 31
0.0
  0
LINE
  5
584
330
1F
100
AcDbEntity
  8
0
  6
Continuous
 62
     7
370
    25
100
AcDbLine
 10
-676.6733033793
 20
90.403417032
 30
0.0
 11
-688.2644132947
 21
87.2975884908
 31
0.0
  0
LINE
  5
585
330
1F
100
AcDbEntity
  8
0
  6
Continuous
 62
     7
370
    25
100
AcDbLine
 10
-685.6031689395
 20
123.7301290077
 30
0.0
 11
-676.6733033793
 21
90.403417032
 31
0.0
  0
LINE
  5
586
330
1F
100
AcDbEntity
  8
0
  6
Continuous
 62
     7
370
    25
100
AcDbLine
 10
-698.135487767
 20
234.2524841437
 30
0.0
 11
-709.7265976825
 21
231.1466556025
 31
0.0
  0
LINE
  5
587
330
1F
100
AcDbEntity
  8
0
  6
Continuous
 62
     7
370
    25
100
AcDbLine
 10
-717.4911690356
 20
260.1244303911
 30
0.0
 11
-705.9000591201
 21
263.2302589324
 31
0.0
  0
LINE
  5
588
330
1F
100
AcDbEntity
  8
0
  6
Continuous
 62
     7
370
    25
100
AcDbLine
 10
-807.1241780809
 20
339.6349560433
 30
0.0
 11
-795.5330681654
 21
342.7407845845
 31
0.0
  0
LINE
  5
589
330
1F
100
AcDbEntity
  8
0
  6
Continuous
 62
     7
370
    25
100
AcDbLine
 10
-799.3596067278
 20
310.6571812546
 30
0.0
 11
-807.1241780809
 21
339.6349560433
 31
0.0
  0
LINE
  5
58A
330
1F
100
AcDbEntity
  8
0
  6
Continuous
 62
     7
370
    25
100
AcDbLine
 10
-867.8449389717
 20
185.6731452042
 30
0.0
 11
-866.2920247011
 21
179.8775902465
 31
0.0
  0
LINE
  5
58B
330
1F
100
AcDbEntity
  8
0
  6
Continuous
 62
     7
370
    25
100
AcDbLine
 10
-887.1634554975
 20
180.4967643022
 30
0.0
 11
-867.8449389717
 21
185.6731452042
 31
0.0
  0
LINE
  5
58C
330
1F
100
AcDbEntity
  8
0
  6
Continuous
 62
     7
370
    25
100
AcDbLine
 10
-885.6105412269
 20
174.7012093445
 30
0.0
 11
-887.1634554975
 21
180.4967643022
 31
0.0
  0
LINE
  5
58D
330
1F
100
AcDbEntity
  8
0
  6
Continuous
 62
     7
370
    25
100
AcDbLine
 10
-866.2920247011
 20
179.8775902465
 30
0.0
 11
-885.6105412269
 21
174.7012093445
 31
0.0
  0
LINE
  5
58E
330
1F
100
AcDbEntity
  8
0
  6
Continuous
 62
     7
370
    25
100
AcDbLine
 10
-820.0526825075
 20
242.9959174859
 30
0.0
 11
-831.643792423
 21
239.8900889447
 31
0.0
  0
LINE
  5
58F
330
1F
100
AcDbEntity
  8
0
  6
Continuous
 62
     7
370
    25
100
AcDbLine
 10
-823.2108314418
 20
254.7822897665
 30
0.0
 11
-820.0526825075
 21
242.9959174859
 31
0.0
  0
LINE
  5
590
330
1F
100
AcDbEntity
  8
0
  6
Continuous
 62
     7
370
    25
100
AcDbLine
 10
-831.643792423
 20
239.8900889447
 30
0.0
 11
-834.8019413573
 21
251.6764612252
 31
0.0
  0
LINE
  5
591
330
1F
100
AcDbEntity
  8
0
  6
Continuous
 62
     7
370
    25
100
AcDbLine
 10
-797.6568780747
 20
368.0536159447
 30
0.0
 11
-786.0657681592
 21
371.1594444859
 31
0.0
  0
LINE
  5
592
330
1F
100
AcDbEntity
  8
0
  6
Continuous
 62
     7
370
    25
100
AcDbLine
 10
-793.7745923982
 20
353.5647285504
 30
0.0
 11
-797.6568780747
 21
368.0536159447
 31
0.0
  0
LINE
  5
593
330
1F
100
AcDbEntity
  8
0
  6
Continuous
 62
     7
370
    25
100
AcDbLine
 10
-782.1834824827
 20
356.6705570916
 30
0.0
 11
-793.7745923982
 21
353.5647285504
 31
0.0
  0
LINE
  5
594
330
1F
100
AcDbEntity
  8
0
  6
Continuous
 62
     7
370
    25
100
AcDbLine
 10
-713.5964355305
 20
100.700213125
 30
0.0
 11
-725.187545446
 21
97.5943845838
 31
0.0
  0
LINE
  5
595
330
1F
100
AcDbEntity
  8
0
  6
Continuous
 62
     7
370
    25
100
AcDbLine
 10
-717.4787212071
 20
115.1891005193
 30
0.0
 11
-713.5964355305
 21
100.700213125
 31
0.0
  0
LINE
  5
596
330
1F
100
AcDbEntity
  8
0
  6
Continuous
 62
     7
370
    25
100
AcDbLine
 10
-729.0698311225
 20
112.0832719781
 30
0.0
 11
-717.4787212071
 21
115.1891005193
 31
0.0
  0
LINE
  5
597
330
1F
100
AcDbEntity
  8
0
  6
Continuous
 62
     7
370
    25
100
AcDbLine
 10
-691.6092645253
 20
163.5318477622
 30
0.0
 11
-680.0181546099
 21
166.6376763035
 31
0.0
  0
LINE
  5
598
330
1F
100
AcDbEntity
  8
0
  6
Continuous
 62
     7
370
    25
100
AcDbLine
 10
-683.8446931723
 20
134.5540729736
 30
0.0
 11
-691.6092645253
 21
163.5318477622
 31
0.0
  0
LINE
  5
599
330
1F
100
AcDbEntity
  8
0
  6
Continuous
 62
     7
370
    25
100
AcDbLine
 10
-680.0181546099
 20
166.6376763035
 30
0.0
 11
-672.2535832568
 21
137.6599015148
 31
0.0
  0
LINE
  5
59A
330
1F
100
AcDbEntity
  8
0
  6
Continuous
 62
     7
370
    25
100
AcDbLine
 10
-759.2377957754
 20
398.5382975557
 30
0.0
 11
-750.3079302152
 21
365.21158558
 31
0.0
  0
LINE
  5
59B
330
1F
100
AcDbEntity
  8
0
  6
Continuous
 62
     7
370
    25
100
AcDbLine
 10
-770.8289056909
 20
395.4324690145
 30
0.0
 11
-759.2377957754
 21
398.5382975557
 31
0.0
  0
LINE
  5
59C
330
1F
100
AcDbEntity
  8
0
  6
Continuous
 62
     7
370
    25
100
AcDbLine
 10
-761.8990401306
 20
362.1057570388
 30
0.0
 11
-770.8289056909
 21
395.4324690145
 31
0.0
  0
LINE
  5
59D
330
1F
100
AcDbEntity
  8
0
  6
Continuous
 62
     7
370
    25
100
AcDbLine
 10
-679.6219690108
 20
373.7990699968
 30
0.0
 11
-668.0308590953
 21
376.904898538
 31
0.0
  0
LINE
  5
59E
330
1F
100
AcDbEntity
  8
0
  6
Continuous
 62
     7
370
    25
100
AcDbLine
 10
-671.8573976577
 20
344.8212952081
 30
0.0
 11
-679.6219690108
 21
373.7990699968
 31
0.0
  0
LINE
  5
59F
330
1F
100
AcDbEntity
  8
0
  6
Continuous
 62
     7
370
    25
100
AcDbLine
 10
-660.2662877422
 20
347.9271237494
 30
0.0
 11
-671.8573976577
 21
344.8212952081
 31
0.0
  0
LINE
  5
5A0
330
1F
100
AcDbEntity
  8
0
  6
Continuous
 62
     7
370
    25
100
AcDbLine
 10
-668.0308590953
 20
376.904898538
 30
0.0
 11
-660.2662877422
 21
347.9271237494
 31
0.0
  0
LINE
  5
5A1
330
1F
100
AcDbEntity
  8
0
  6
Continuous
 62
     7
370
    25
100
AcDbLine
 10
-633.4431743199
 20
137.7063574433
 30
0.0
 11
-621.8520644045
 21
140.8121859845
 31
0.0
  0
LINE
  5
5A2
330
1F
100
AcDbEntity
  8
0
  6
Continuous
 62
     7
370
    25
100
AcDbLine
 10
-620.5022220648
 20
89.4100661288
 30
0.0
 11
-633.4431743199
 21
137.7063574433
 31
0.0
  0
LINE
  5
5A3
330
1F
100
AcDbEntity
  8
0
  6
Continuous
 62
     7
370
    25
100
AcDbLine
 10
-608.9111121493
 20
92.51589467
 30
0.0
 11
-620.5022220648
 21
89.4100661288
 31
0.0
  0
LINE
  5
5A4
330
1F
100
AcDbEntity
  8
0
  6
Continuous
 62
     7
370
    25
100
AcDbLine
 10
-647.7464167432
 20
382.3400984852
 30
0.0
 11
-636.1553068277
 21
385.4459270264
 31
0.0
  0
LINE
  5
5A5
330
1F
100
AcDbEntity
  8
0
  6
Continuous
 62
     7
370
    25
100
AcDbLine
 10
-628.3907354747
 20
356.4681522378
 30
0.0
 11
-639.9818453901
 21
353.3623236965
 31
0.0
  0
LINE
  5
5A6
330
1F
100
AcDbEntity
  8
0
  6
Continuous
 62
     7
370
    25
100
AcDbLine
 10
-636.1553068277
 20
385.4459270264
 30
0.0
 11
-628.3907354747
 21
356.4681522378
 31
0.0
  0
LINE
  5
5A7
330
1F
100
AcDbEntity
  8
0
  6
Continuous
 62
     7
370
    25
100
AcDbLine
 10
-576.6269264542
 20
163.2829869799
 30
0.0
 11
-588.2180363696
 21
160.1771584387
 31
0.0
  0
LINE
  5
5A8
330
1F
100
AcDbEntity
  8
0
  6
Continuous
 62
     7
370
    25
100
AcDbLine
 10
-584.3914978072
 20
192.2607617686
 30
0.0
 11
-576.6269264542
 21
163.2829869799
 31
0.0
  0
LINE
  5
5A9
330
1F
100
AcDbEntity
  8
0
  6
Continuous
 62
     7
370
    25
100
AcDbLine
 10
-588.2180363696
 20
160.1771584387
 30
0.0
 11
-595.9826077227
 21
189.1549332274
 31
0.0
  0
LINE
  5
5AA
330
1F
100
AcDbEntity
  8
0
  6
Continuous
 62
     7
370
    25
100
AcDbLine
 10
-537.8165175173
 20
163.3294429084
 30
0.0
 11
-526.2254076018
 21
166.4352714496
 31
0.0
  0
LINE
  5
5AB
330
1F
100
AcDbEntity
  8
0
  6
Continuous
 62
     7
370
    25
100
AcDbLine
 10
-522.3431219253
 20
151.9463840553
 30
0.0
 11
-533.9342318408
 21
148.8405555141
 31
0.0
  0
LINE
  5
5AC
330
1F
100
AcDbEntity
  8
0
  6
Continuous
 62
     7
370
    25
100
AcDbLine
 10
-526.2254076018
 20
166.4352714496
 30
0.0
 11
-522.3431219253
 21
151.9463840553
 31
0.0
  0
LINE
  5
5AD
330
1F
100
AcDbEntity
  8
0
  6
Continuous
 62
     7
370
    25
100
AcDbLine
 10
-512.8882697476
 20
325.3003738285
 30
0.0
 11
-516.0464186819
 21
337.0867461091
 31
0.0
  0
LINE
  5
5AE
330
1F
100
AcDbEntity
  8
0
  6
Continuous
 62
     7
370
    25
100
AcDbLine
 10
-501.2971598321
 20
328.4062023698
 30
0.0
 11
-512.8882697476
 21
325.3003738285
 31
0.0
  0
LINE
  5
5AF
330
1F
100
AcDbEntity
  8
0
  6
Continuous
 62
     7
370
    25
100
AcDbLine
 10
-504.4553087664
 20
340.1925746503
 30
0.0
 11
-501.2971598321
 21
328.4062023698
 31
0.0
  0
LINE
  5
5B0
330
1F
100
AcDbEntity
  8
0
  6
Continuous
 62
     7
370
    25
100
AcDbLine
 10
-569.6920697848
 20
154.78841442
 30
0.0
 11
-558.1009598694
 21
157.8942429612
 31
0.0
  0
LINE
  5
5B1
330
1F
100
AcDbEntity
  8
0
  6
Continuous
 62
     7
370
    25
100
AcDbLine
 10
-560.7622042246
 20
121.4617024443
 30
0.0
 11
-569.6920697848
 21
154.78841442
 31
0.0
  0
LINE
  5
5B2
330
1F
100
AcDbEntity
  8
0
  6
Continuous
 62
     7
370
    25
100
AcDbLine
 10
-549.1710943091
 20
124.5675309855
 30
0.0
 11
-560.7622042246
 21
121.4617024443
 31
0.0
  0
LINE
  5
5B3
330
1F
100
AcDbEntity
  8
0
  6
Continuous
 62
     7
370
    25
100
AcDbLine
 10
-558.1009598694
 20
157.8942429612
 30
0.0
 11
-549.1710943091
 21
124.5675309855
 31
0.0
  0
LINE
  5
5B4
330
1F
100
AcDbEntity
  8
0
  6
Continuous
 62
     7
370
    25
100
AcDbLine
 10
-595.5739742951
 20
251.3809970489
 30
0.0
 11
-583.9828643796
 21
254.4868255902
 31
0.0
  0
LINE
  5
5B5
330
1F
100
AcDbEntity
  8
0
  6
Continuous
 62
     7
370
    25
100
AcDbLine
 10
-582.63302204
 20
203.0847057345
 30
0.0
 11
-595.5739742951
 21
251.3809970489
 31
0.0
  0
LINE
  5
5B6
330
1F
100
AcDbEntity
  8
0
  6
Continuous
 62
     7
370
    25
100
AcDbLine
 10
-571.0419121245
 20
206.1905342757
 30
0.0
 11
-582.63302204
 21
203.0847057345
 31
0.0
  0
LINE
  5
5B7
330
1F
100
AcDbEntity
  8
0
  6
Continuous
 62
     7
370
    25
100
AcDbLine
 10
-583.9828643796
 20
254.4868255902
 30
0.0
 11
-571.0419121245
 21
206.1905342757
 31
0.0
  0
LINE
  5
5B8
330
1F
100
AcDbEntity
  8
0
  6
Continuous
 62
     7
370
    25
100
AcDbLine
 10
-898.0338553918
 20
221.0656490063
 30
0.0
 11
-878.7153388661
 21
226.2420299084
 31
0.0
  0
LINE
  5
5B9
330
1F
100
AcDbEntity
  8
0
  6
Continuous
 62
     7
370
    25
100
AcDbLine
 10
-896.4809411212
 20
215.2700940486
 30
0.0
 11
-898.0338553918
 21
221.0656490063
 31
0.0
  0
LINE
  5
5BA
330
1F
100
AcDbEntity
  8
0
  6
Continuous
 62
     7
370
    25
100
AcDbLine
 10
-878.7153388661
 20
226.2420299084
 30
0.0
 11
-877.1624245954
 21
220.4464749506
 31
0.0
  0
LINE
  5
5BB
330
1F
100
AcDbEntity
  8
0
  6
Continuous
 62
     7
370
    25
100
AcDbLine
 10
-906.1401993841
 20
212.6819035976
 30
0.0
 11
-925.4587159099
 21
207.5055226955
 31
0.0
  0
LINE
  5
5BC
330
1F
100
AcDbEntity
  8
0
  6
Continuous
 62
     7
370
    25
100
AcDbLine
 10
-895.2697994898
 20
172.1130188934
 30
0.0
 11
-914.5883160156
 21
166.9366379914
 31
0.0
  0
LINE
  5
5BD
330
1F
100
AcDbEntity
  8
0
  6
Continuous
 62
     7
370
    25
100
AcDbLine
 10
-896.8227137604
 20
177.9085738512
 30
0.0
 11
-895.2697994898
 21
172.1130188934
 31
0.0
  0
LINE
  5
5BE
330
1F
100
AcDbEntity
  8
0
  6
Continuous
 62
     7
370
    25
100
AcDbLine
 10
-916.1412302862
 20
172.7321929491
 30
0.0
 11
-896.8227137604
 21
177.9085738512
 31
0.0
  0
LINE
  5
5BF
330
1F
100
AcDbEntity
  8
0
  6
Continuous
 62
     7
370
    25
100
AcDbLine
 10
-871.7272246483
 20
200.1620325986
 30
0.0
 11
-891.0457411741
 21
194.9856516965
 31
0.0
  0
LINE
  5
5C0
330
1F
100
AcDbEntity
  8
0
  6
Continuous
 62
     7
370
    25
100
AcDbLine
 10
-818.7028401679
 20
191.5937976302
 30
0.0
 11
-807.1117302524
 21
194.6996261715
 31
0.0
  0
LINE
  5
5C1
330
1F
100
AcDbEntity
  8
0
  6
Continuous
 62
     7
370
    25
100
AcDbLine
 10
-815.5446912336
 20
179.8074253497
 30
0.0
 11
-818.7028401679
 21
191.5937976302
 31
0.0
  0
LINE
  5
5C2
330
1F
100
AcDbEntity
  8
0
  6
Continuous
 62
     7
370
    25
100
AcDbLine
 10
-803.9535813181
 20
182.9132538909
 30
0.0
 11
-815.5446912336
 21
179.8074253497
 31
0.0
  0
LINE
  5
5C3
330
1F
100
AcDbEntity
  8
0
  6
Continuous
 62
     7
370
    25
100
AcDbLine
 10
-786.8272879003
 20
200.1348261186
 30
0.0
 11
-775.2361779849
 21
203.2406546599
 31
0.0
  0
LINE
  5
5C4
330
1F
100
AcDbEntity
  8
0
  6
Continuous
 62
     7
370
    25
100
AcDbLine
 10
-773.8863356452
 20
151.8385348042
 30
0.0
 11
-786.8272879003
 21
200.1348261186
 31
0.0
  0
LINE
  5
5C5
330
1F
100
AcDbEntity
  8
0
  6
Continuous
 62
     7
370
    25
100
AcDbLine
 10
-762.2952257297
 20
154.9443633454
 30
0.0
 11
-773.8863356452
 21
151.8385348042
 31
0.0
  0
LINE
  5
5C6
330
1F
100
AcDbEntity
  8
0
  6
Continuous
 62
     7
370
    25
100
AcDbLine
 10
-775.2361779849
 20
203.2406546599
 30
0.0
 11
-762.2952257297
 21
154.9443633454
 31
0.0
  0
LINE
  5
5C7
330
1F
100
AcDbEntity
  8
0
  6
Continuous
 62
     7
370
    25
100
AcDbLine
 10
-911.9171719705
 20
195.6048257522
 30
0.0
 11
-910.3642576999
 21
189.8092707945
 31
0.0
  0
LINE
  5
5C8
330
1F
100
AcDbEntity
  8
0
  6
Continuous
 62
     7
370
    25
100
AcDbLine
 10
-931.2356884962
 20
190.4284448502
 30
0.0
 11
-911.9171719705
 21
195.6048257522
 31
0.0
  0
LINE
  5
5C9
330
1F
100
AcDbEntity
  8
0
  6
Continuous
 62
     7
370
    25
100
AcDbLine
 10
-929.6827742256
 20
184.6328898924
 30
0.0
 11
-931.2356884962
 21
190.4284448502
 31
0.0
  0
LINE
  5
5CA
330
1F
100
AcDbEntity
  8
0
  6
Continuous
 62
     7
370
    25
100
AcDbLine
 10
-968.3198072772
 20
174.2801280883
 30
0.0
 11
-969.8727215478
 21
180.0756830461
 31
0.0
  0
LINE
  5
5CB
330
1F
100
AcDbEntity
  8
0
  6
Continuous
 62
     7
370
    25
100
AcDbLine
 10
-747.5957977073
 20
117.4720159968
 30
0.0
 11
-755.3603690604
 21
146.4497907855
 31
0.0
  0
LINE
  5
5CC
330
1F
100
AcDbEntity
  8
0
  6
Continuous
 62
     7
370
    25
100
AcDbLine
 10
-736.0046877919
 20
120.577844538
 30
0.0
 11
-747.5957977073
 21
117.4720159968
 31
0.0
  0
LINE
  5
5CD
330
1F
100
AcDbEntity
  8
0
  6
Continuous
 62
     7
370
    25
100
AcDbLine
 10
-743.7692591449
 20
149.5556193267
 30
0.0
 11
-736.0046877919
 21
120.577844538
 31
0.0
  0
LINE
  5
5CE
330
1F
100
AcDbEntity
  8
0
  6
Continuous
 62
     7
370
    25
100
AcDbLine
 10
-755.3603690604
 20
146.4497907855
 30
0.0
 11
-743.7692591449
 21
149.5556193267
 31
0.0
  0
LINE
  5
5CF
330
1F
100
AcDbEntity
  8
0
  6
Continuous
 62
     7
370
    25
100
AcDbLine
 10
-754.9517356328
 20
208.675854607
 30
0.0
 11
-743.3606257173
 21
211.7816831482
 31
0.0
  0
LINE
  5
5D0
330
1F
100
AcDbEntity
  8
0
  6
Continuous
 62
     7
370
    25
100
AcDbLine
 10
-742.0107833777
 20
160.3795632926
 30
0.0
 11
-754.9517356328
 21
208.675854607
 31
0.0
  0
LINE
  5
5D1
330
1F
100
AcDbEntity
  8
0
  6
Continuous
 62
     7
370
    25
100
AcDbLine
 10
-743.3606257173
 20
211.7816831482
 30
0.0
 11
-730.4196734622
 21
163.4853918338
 31
0.0
  0
LINE
  5
5D2
330
1F
100
AcDbEntity
  8
0
  6
Continuous
 62
     7
370
    25
100
AcDbLine
 10
-812.7091924106
 20
296.7274087475
 30
0.0
 11
-801.1180824951
 21
299.8332372888
 31
0.0
  0
LINE
  5
5D3
330
1F
100
AcDbEntity
  8
0
  6
Continuous
 62
     7
370
    25
100
AcDbLine
 10
-799.7682401555
 20
248.4311174331
 30
0.0
 11
-812.7091924106
 21
296.7274087475
 31
0.0
  0
LINE
  5
5D4
330
1F
100
AcDbEntity
  8
0
  6
Continuous
 62
     7
370
    25
100
AcDbLine
 10
-788.17713024
 20
251.5369459743
 30
0.0
 11
-799.7682401555
 21
248.4311174331
 31
0.0
  0
LINE
  5
5D5
330
1F
100
AcDbEntity
  8
0
  6
Continuous
 62
     7
370
    25
100
AcDbLine
 10
-801.1180824951
 20
299.8332372888
 30
0.0
 11
-788.17713024
 21
251.5369459743
 31
0.0
  0
LINE
  5
5D6
330
1F
100
AcDbEntity
  8
0
  6
Continuous
 62
     7
370
    25
100
AcDbLine
 10
-773.4777022176
 20
214.0645986257
 30
0.0
 11
-781.2422735707
 21
243.0423734144
 31
0.0
  0
LINE
  5
5D7
330
1F
100
AcDbEntity
  8
0
  6
Continuous
 62
     7
370
    25
100
AcDbLine
 10
-761.8865923021
 20
217.1704271669
 30
0.0
 11
-773.4777022176
 21
214.0645986257
 31
0.0
  0
LINE
  5
5D8
330
1F
100
AcDbEntity
  8
0
  6
Continuous
 62
     7
370
    25
100
AcDbLine
 10
-769.6511636552
 20
246.1482019556
 30
0.0
 11
-761.8865923021
 21
217.1704271669
 31
0.0
  0
LINE
  5
5D9
330
1F
100
AcDbEntity
  8
0
  6
Continuous
 62
     7
370
    25
100
AcDbLine
 10
-781.2422735707
 20
243.0423734144
 30
0.0
 11
-769.6511636552
 21
246.1482019556
 31
0.0
  0
LINE
  5
5DA
330
1F
100
AcDbEntity
  8
0
  6
Continuous
 62
     7
370
    25
100
AcDbLine
 10
-741.60214995
 20
222.6056271141
 30
0.0
 11
-749.3667213031
 21
251.5834019028
 31
0.0
  0
LINE
  5
5DB
330
1F
100
AcDbEntity
  8
0
  6
Continuous
 62
     7
370
    25
100
AcDbLine
 10
-730.0110400346
 20
225.7114556553
 30
0.0
 11
-741.60214995
 21
222.6056271141
 31
0.0
  0
LINE
  5
5DC
330
1F
100
AcDbEntity
  8
0
  6
Continuous
 62
     7
370
    25
100
AcDbLine
 10
-737.7756113877
 20
254.689230444
 30
0.0
 11
-730.0110400346
 21
225.7114556553
 31
0.0
  0
LINE
  5
5DD
330
1F
100
AcDbEntity
  8
0
  6
Continuous
 62
     7
370
    25
100
AcDbLine
 10
-749.3667213031
 20
251.5834019028
 30
0.0
 11
-737.7756113877
 21
254.689230444
 31
0.0
  0
LINE
  5
5DE
330
1F
100
AcDbEntity
  8
0
  6
Continuous
 62
     7
370
    25
100
AcDbLine
 10
-715.7202454398
 20
126.0130444852
 30
0.0
 11
-723.4848167929
 21
154.9908192739
 31
0.0
  0
LINE
  5
5DF
330
1F
100
AcDbEntity
  8
0
  6
Continuous
 62
     7
370
    25
100
AcDbLine
 10
-704.1291355243
 20
129.1188730264
 30
0.0
 11
-715.7202454398
 21
126.0130444852
 31
0.0
  0
LINE
  5
5E0
330
1F
100
AcDbEntity
  8
0
  6
Continuous
 62
     7
370
    25
100
AcDbLine
 10
-711.8937068774
 20
158.0966478151
 30
0.0
 11
-704.1291355243
 21
129.1188730264
 31
0.0
  0
LINE
  5
5E1
330
1F
100
AcDbEntity
  8
0
  6
Continuous
 62
     7
370
    25
100
AcDbLine
 10
-780.833640143
 20
305.2684372359
 30
0.0
 11
-769.2425302276
 21
308.3742657771
 31
0.0
  0
LINE
  5
5E2
330
1F
100
AcDbEntity
  8
0
  6
Continuous
 62
     7
370
    25
100
AcDbLine
 10
-767.8926878879
 20
256.9721459215
 30
0.0
 11
-780.833640143
 21
305.2684372359
 31
0.0
  0
LINE
  5
5E3
330
1F
100
AcDbEntity
  8
0
  6
Continuous
 62
     7
370
    25
100
AcDbLine
 10
-756.3015779724
 20
260.0779744627
 30
0.0
 11
-767.8926878879
 21
256.9721459215
 31
0.0
  0
LINE
  5
5E4
330
1F
100
AcDbEntity
  8
0
  6
Continuous
 62
     7
370
    25
100
AcDbLine
 10
-769.2425302276
 20
308.3742657771
 30
0.0
 11
-756.3015779724
 21
260.0779744627
 31
0.0
  0
LINE
  5
5E5
330
1F
100
AcDbEntity
  8
0
  6
Continuous
 62
     7
370
    25
100
AcDbLine
 10
-767.4840544603
 20
319.198209743
 30
0.0
 11
-775.2486258134
 21
348.1759845317
 31
0.0
  0
LINE
  5
5E6
330
1F
100
AcDbEntity
  8
0
  6
Continuous
 62
     7
370
    25
100
AcDbLine
 10
-755.8929445448
 20
322.3040382842
 30
0.0
 11
-767.4840544603
 21
319.198209743
 31
0.0
  0
LINE
  5
5E7
330
1F
100
AcDbEntity
  8
0
  6
Continuous
 62
     7
370
    25
100
AcDbLine
 10
-763.6575158979
 20
351.2818130729
 30
0.0
 11
-755.8929445448
 21
322.3040382842
 31
0.0
  0
LINE
  5
5E8
330
1F
100
AcDbEntity
  8
0
  6
Continuous
 62
     7
370
    25
100
AcDbLine
 10
-775.2486258134
 20
348.1759845317
 30
0.0
 11
-763.6575158979
 21
351.2818130729
 31
0.0
  0
LINE
  5
5E9
330
1F
100
AcDbEntity
  8
0
  6
Continuous
 62
     7
370
    25
100
AcDbLine
 10
-621.4558788053
 20
347.9735796778
 30
0.0
 11
-609.8647688899
 21
351.0794082191
 31
0.0
  0
LINE
  5
5EA
330
1F
100
AcDbEntity
  8
0
  6
Continuous
 62
     7
370
    25
100
AcDbLine
 10
-596.9238166347
 20
302.7831169046
 30
0.0
 11
-608.5149265502
 21
299.6772883634
 31
0.0
  0
LINE
  5
5EB
330
1F
100
AcDbEntity
  8
0
  6
Continuous
 62
     7
370
    25
100
AcDbLine
 10
-609.8647688899
 20
351.0794082191
 30
0.0
 11
-596.9238166347
 21
302.7831169046
 31
0.0
  0
LINE
  5
5EC
330
1F
100
AcDbEntity
  8
0
  6
Continuous
 62
     7
370
    25
100
AcDbLine
 10
-578.174636761
 20
105.3080159452
 30
0.0
 11
-589.7657466764
 21
102.202187404
 31
0.0
  0
LINE
  5
5ED
330
1F
100
AcDbEntity
  8
0
  6
Continuous
 62
     7
370
    25
100
AcDbLine
 10
-602.5088309644
 20
259.8755696089
 30
0.0
 11
-614.0999408799
 21
256.7697410676
 31
0.0
  0
LINE
  5
5EE
330
1F
100
AcDbEntity
  8
0
  6
Continuous
 62
     7
370
    25
100
AcDbLine
 10
-653.3314310729
 20
339.4325511894
 30
0.0
 11
-641.7403211574
 21
342.5383797307
 31
0.0
  0
LINE
  5
5EF
330
1F
100
AcDbEntity
  8
0
  6
Continuous
 62
     7
370
    25
100
AcDbLine
 10
-640.3904788178
 20
291.136259875
 30
0.0
 11
-653.3314310729
 21
339.4325511894
 31
0.0
  0
LINE
  5
5F0
330
1F
100
AcDbEntity
  8
0
  6
Continuous
 62
     7
370
    25
100
AcDbLine
 10
-628.7993689023
 20
294.2420884162
 30
0.0
 11
-640.3904788178
 21
291.136259875
 31
0.0
  0
LINE
  5
5F1
330
1F
100
AcDbEntity
  8
0
  6
Continuous
 62
     7
370
    25
100
AcDbLine
 10
-641.7403211574
 20
342.5383797307
 30
0.0
 11
-628.7993689023
 21
294.2420884162
 31
0.0
  0
LINE
  5
5F2
330
1F
100
AcDbEntity
  8
0
  6
Continuous
 62
     7
370
    25
100
AcDbLine
 10
-563.6984220276
 20
259.9220255373
 30
0.0
 11
-552.1073121121
 21
263.0278540785
 31
0.0
  0
LINE
  5
5F3
330
1F
100
AcDbEntity
  8
0
  6
Continuous
 62
     7
370
    25
100
AcDbLine
 10
-550.7574697724
 20
211.6257342229
 30
0.0
 11
-563.6984220276
 21
259.9220255373
 31
0.0
  0
LINE
  5
5F4
330
1F
100
AcDbEntity
  8
0
  6
Continuous
 62
     7
370
    25
100
AcDbLine
 10
-539.166359857
 20
214.7315627641
 30
0.0
 11
-550.7574697724
 21
211.6257342229
 31
0.0
  0
LINE
  5
5F5
330
1F
100
AcDbEntity
  8
0
  6
Continuous
 62
     7
370
    25
100
AcDbLine
 10
-589.5803265378
 20
356.5146081662
 30
0.0
 11
-577.9892166223
 21
359.6204367074
 31
0.0
  0
LINE
  5
5F6
330
1F
100
AcDbEntity
  8
0
  6
Continuous
 62
     7
370
    25
100
AcDbLine
 10
-576.6393742827
 20
308.2183168518
 30
0.0
 11
-589.5803265378
 21
356.5146081662
 31
0.0
  0
LINE
  5
5F7
330
1F
100
AcDbEntity
  8
0
  6
Continuous
 62
     7
370
    25
100
AcDbLine
 10
-565.0482643672
 20
311.324145393
 30
0.0
 11
-576.6393742827
 21
308.2183168518
 31
0.0
  0
LINE
  5
5F8
330
1F
100
AcDbEntity
  8
0
  6
Continuous
 62
     7
370
    25
100
AcDbLine
 10
-577.9892166223
 20
359.6204367074
 30
0.0
 11
-565.0482643672
 21
311.324145393
 31
0.0
  0
LINE
  5
5F9
330
1F
100
AcDbEntity
  8
0
  6
Continuous
 62
     7
370
    25
100
AcDbLine
 10
-550.3488363448
 20
273.8517980444
 30
0.0
 11
-558.1134076979
 21
302.8295728331
 31
0.0
  0
LINE
  5
5FA
330
1F
100
AcDbEntity
  8
0
  6
Continuous
 62
     7
370
    25
100
AcDbLine
 10
-538.7577264293
 20
276.9576265856
 30
0.0
 11
-550.3488363448
 21
273.8517980444
 31
0.0
  0
LINE
  5
5FB
330
1F
100
AcDbEntity
  8
0
  6
Continuous
 62
     7
370
    25
100
AcDbLine
 10
-546.5222977824
 20
305.9354013743
 30
0.0
 11
-538.7577264293
 21
276.9576265856
 31
0.0
  0
LINE
  5
5FC
330
1F
100
AcDbEntity
  8
0
  6
Continuous
 62
     7
370
    25
100
AcDbLine
 10
-558.1134076979
 20
302.8295728331
 30
0.0
 11
-546.5222977824
 21
305.9354013743
 31
0.0
  0
LINE
  5
5FD
330
1F
100
AcDbEntity
  8
0
  6
Continuous
 62
     7
370
    25
100
AcDbLine
 10
-627.4495265626
 20
242.8399685605
 30
0.0
 11
-615.8584166472
 21
245.9457971018
 31
0.0
  0
LINE
  5
5FE
330
1F
100
AcDbEntity
  8
0
  6
Continuous
 62
     7
370
    25
100
AcDbLine
 10
-614.5085743075
 20
194.5436772461
 30
0.0
 11
-627.4495265626
 21
242.8399685605
 31
0.0
  0
LINE
  5
5FF
330
1F
100
AcDbEntity
  8
0
  6
Continuous
 62
     7
370
    25
100
AcDbLine
 10
-602.917464392
 20
197.6495057873
 30
0.0
 11
-614.5085743075
 21
194.5436772461
 31
0.0
  0
LINE
  5
600
330
1F
100
AcDbEntity
  8
0
  6
Continuous
 62
     7
370
    25
100
AcDbLine
 10
-615.8584166472
 20
245.9457971018
 30
0.0
 11
-602.917464392
 21
197.6495057873
 31
0.0
  0
LINE
  5
601
330
1F
100
AcDbEntity
  8
0
  6
Continuous
 62
     7
370
    25
100
AcDbLine
 10
-645.9754931474
 20
248.2287125792
 30
0.0
 11
-653.7400645005
 21
277.2064873679
 31
0.0
  0
LINE
  5
602
330
1F
100
AcDbEntity
  8
0
  6
Continuous
 62
     7
370
    25
100
AcDbLine
 10
-642.148954585
 20
280.3123159091
 30
0.0
 11
-634.384383232
 21
251.3345411205
 31
0.0
  0
LINE
  5
603
330
1F
100
AcDbEntity
  8
0
  6
Continuous
 62
     7
370
    25
100
AcDbLine
 10
-653.7400645005
 20
277.2064873679
 30
0.0
 11
-642.148954585
 21
280.3123159091
 31
0.0
  0
LINE
  5
604
330
1F
100
AcDbEntity
  8
0
  6
Continuous
 62
     7
370
    25
100
AcDbLine
 10
-678.074258704
 20
431.7740410315
 30
0.0
 11
-666.4831487885
 21
434.8798695728
 31
0.0
  0
LINE
  5
605
330
1F
100
AcDbEntity
  8
0
  6
Continuous
 62
     7
370
    25
100
AcDbLine
 10
-666.272383328
 20
387.7288425039
 30
0.0
 11
-678.074258704
 21
431.7740410315
 31
0.0
  0
LINE
  5
606
330
1F
100
AcDbEntity
  8
0
  6
Continuous
 62
     7
370
    25
100
AcDbLine
 10
-654.6812734125
 20
390.8346710451
 30
0.0
 11
-666.272383328
 21
387.7288425039
 31
0.0
  0
LINE
  5
607
330
1F
100
AcDbEntity
  8
0
  6
Continuous
 62
     7
370
    25
100
AcDbLine
 10
-666.4831487885
 20
434.8798695728
 30
0.0
 11
-654.6812734125
 21
390.8346710451
 31
0.0
  0
LINE
  5
608
330
1F
100
AcDbEntity
  8
0
  6
Continuous
 62
     7
370
    25
100
AcDbLine
 10
-643.3266966207
 20
429.596582968
 30
0.0
 11
-631.7355867053
 21
432.7024115092
 31
0.0
  0
LINE
  5
609
330
1F
100
AcDbEntity
  8
0
  6
Continuous
 62
     7
370
    25
100
AcDbLine
 10
-634.3968310605
 20
396.2698709923
 30
0.0
 11
-643.3266966207
 21
429.596582968
 31
0.0
  0
LINE
  5
60A
330
1F
100
AcDbEntity
  8
0
  6
Continuous
 62
     7
370
    25
100
AcDbLine
 10
-622.805721145
 20
399.3756995335
 30
0.0
 11
-634.3968310605
 21
396.2698709923
 31
0.0
  0
LINE
  5
60B
330
1F
100
AcDbEntity
  8
0
  6
Continuous
 62
     7
370
    25
100
AcDbLine
 10
-631.7355867053
 20
432.7024115092
 30
0.0
 11
-622.805721145
 21
399.3756995335
 31
0.0
  0
LINE
  5
60C
330
1F
100
AcDbEntity
  8
0
  6
Continuous
 62
     7
370
    25
100
AcDbLine
 10
-350.1272784522
 20
339.9243169539
 30
0.0
 11
-369.445794978
 21
334.7479360519
 31
0.0
  0
LINE
  5
60D
330
1F
100
AcDbEntity
  8
0
  6
Continuous
 62
     7
370
    25
100
AcDbLine
 10
-351.6801927228
 20
345.7198719117
 30
0.0
 11
-350.1272784522
 21
339.9243169539
 31
0.0
  0
LINE
  5
60E
330
1F
100
AcDbEntity
  8
0
  6
Continuous
 62
     7
370
    25
100
AcDbLine
 10
-370.9987092486
 20
340.5434910096
 30
0.0
 11
-351.6801927228
 21
345.7198719117
 31
0.0
  0
LINE
  5
60F
330
1F
100
AcDbEntity
  8
0
  6
Continuous
 62
     7
370
    25
100
AcDbLine
 10
-369.445794978
 20
334.7479360519
 30
0.0
 11
-370.9987092486
 21
340.5434910096
 31
0.0
  0
LINE
  5
610
330
1F
100
AcDbEntity
  8
0
  6
Continuous
 62
     7
370
    25
100
AcDbLine
 10
-1095.4020202536
 20
530.7573593129
 30
0.0
 11
-1103.8873016278
 21
539.2426406871
 31
0.0
  0
LINE
  5
611
330
1F
100
AcDbEntity
  8
0
  6
Continuous
 62
     7
370
    25
100
AcDbLine
 10
-1103.8873016278
 20
539.2426406871
 30
0.0
 11
-1139.2426406871
 21
503.8873016278
 31
0.0
  0
LINE
  5
612
330
1F
100
AcDbEntity
  8
0
  6
Continuous
 62
     7
370
    25
100
AcDbLine
 10
-1139.2426406871
 20
503.8873016278
 30
0.0
 11
-1130.7573593129
 21
495.4020202536
 31
0.0
  0
LINE
  5
613
330
1F
100
AcDbEntity
  8
0
  6
Continuous
 62
     7
370
    25
100
AcDbLine
 10
-1130.7573593129
 20
495.4020202536
 30
0.0
 11
-1095.4020202536
 21
530.7573593129
 31
0.0
  0
LINE
  5
614
330
1F
100
AcDbEntity
  8
0
  6
Continuous
 62
     7
370
    25
100
AcDbLine
 10
-750.0
 20
73.7142857143
 30
0.0
 11
-745.7142857143
 21
73.7142857143
 31
0.0
  0
LINE
  5
615
330
1F
100
AcDbEntity
  8
0
  6
Continuous
 62
     7
370
    25
100
AcDbLine
 10
-790.0
 20
18.0
 30
0.0
 11
-750.0
 21
73.7142857143
 31
0.0
  0
LINE
  5
616
330
1F
100
AcDbEntity
  8
0
  6
Continuous
 62
     7
370
    25
100
AcDbLine
 10
-778.5714285714
 20
18.0
 30
0.0
 11
-790.0
 21
18.0
 31
0.0
  0
LINE
  5
617
330
1F
100
AcDbEntity
  8
0
  6
Continuous
 62
     7
370
    25
100
AcDbLine
 10
-770.625
 20
29.4285714286
 30
0.0
 11
-778.5714285714
 21
18.0
 31
0.0
  0
LINE
  5
618
330
1F
100
AcDbEntity
  8
0
  6
Continuous
 62
     7
370
    25
100
AcDbLine
 10
-743.5714285714
 20
18.0
 30
0.0
 11
-745.9040178571
 21
29.4285714286
 31
0.0
  0
LINE
  5
619
330
1F
100
AcDbEntity
  8
0
  6
Continuous
 62
     7
370
    25
100
AcDbLine
 10
-745.7142857143
 20
73.7142857143
 30
0.0
 11
-732.1428571429
 21
18.0
 31
0.0
  0
LINE
  5
61A
330
1F
100
AcDbEntity
  8
0
  6
Continuous
 62
     7
370
    25
100
AcDbLine
 10
-720.0
 20
64.4285714286
 30
0.0
 11
-718.1026785714
 21
73.0
 31
0.0
  0
LINE
  5
61B
330
1F
100
AcDbEntity
  8
0
  6
Continuous
 62
     7
370
    25
100
AcDbLine
 10
-699.2857142857
 20
64.4285714286
 30
0.0
 11
-720.0
 21
64.4285714286
 31
0.0
  0
LINE
  5
61C
330
1F
100
AcDbEntity
  8
0
  6
Continuous
 62
     7
370
    25
100
AcDbLine
 10
-709.2857142857
 20
18.0
 30
0.0
 11
-699.2857142857
 21
64.4285714286
 31
0.0
  0
LINE
  5
61D
330
1F
100
AcDbEntity
  8
0
  6
Continuous
 62
     7
370
    25
100
AcDbLine
 10
-697.6227678571
 20
18.0
 30
0.0
 11
-709.2857142857
 21
18.0
 31
0.0
  0
LINE
  5
61E
330
1F
100
AcDbEntity
  8
0
  6
Continuous
 62
     7
370
    25
100
AcDbLine
 10
-687.6227678571
 20
64.4285714286
 30
0.0
 11
-697.6227678571
 21
18.0
 31
0.0
  0
LINE
  5
61F
330
1F
100
AcDbEntity
  8
0
  6
Continuous
 62
     7
370
    25
100
AcDbLine
 10
-666.7075892857
 20
64.4285714286
 30
0.0
 11
-687.6227678571
 21
64.4285714286
 31
0.0
  0
LINE
  5
620
330
1F
100
AcDbEntity
  8
0
  6
Continuous
 62
     7
370
    25
100
AcDbLine
 10
-664.765625
 20
73.0
 30
0.0
 11
-666.7075892857
 21
64.4285714286
 31
0.0
  0
LINE
  5
621
330
1F
100
AcDbEntity
  8
0
  6
Continuous
 62
     7
370
    25
100
AcDbLine
 10
-718.1026785714
 20
73.0
 30
0.0
 11
-664.765625
 21
73.0
 31
0.0
  0
LINE
  5
622
330
1F
100
AcDbEntity
  8
0
  6
Continuous
 62
     7
370
    25
100
AcDbLine
 10
-736.0171356204
 20
265.5131744098
 30
0.0
 11
-748.9580878755
 21
313.8094657243
 31
0.0
  0
LINE
  5
623
330
1F
100
AcDbEntity
  8
0
  6
Continuous
 62
     7
370
    25
100
AcDbLine
 10
-787.7684968124
 20
313.7630097958
 30
0.0
 11
-799.3596067278
 21
310.6571812546
 31
0.0
  0
LINE
  5
624
330
1F
100
AcDbEntity
  8
0
  6
Continuous
 62
     7
370
    25
100
AcDbLine
 10
-795.5330681654
 20
342.7407845845
 30
0.0
 11
-787.7684968124
 21
313.7630097958
 31
0.0
  0
LINE
  5
625
330
1F
100
AcDbEntity
  8
0
  6
Continuous
 62
     7
370
    25
100
AcDbLine
 10
-516.0464186819
 20
337.0867461091
 30
0.0
 11
-504.4553087664
 21
340.1925746503
 31
0.0
  0
LINE
  5
626
330
1F
100
AcDbEntity
  8
0
  6
Continuous
 62
     7
370
    25
100
AcDbLine
 10
-709.7265976825
 20
231.1466556025
 30
0.0
 11
-717.4911690356
 21
260.1244303911
 31
0.0
  0
LINE
  5
627
330
1F
100
AcDbEntity
  8
0
  6
Continuous
 62
     7
370
    25
100
AcDbLine
 10
-745.9040178571
 20
29.4285714286
 30
0.0
 11
-770.625
 21
29.4285714286
 31
0.0
  0
LINE
  5
628
330
1F
100
AcDbEntity
  8
0
  6
Continuous
 62
     7
370
    25
100
AcDbLine
 10
-732.1428571429
 20
18.0
 30
0.0
 11
-743.5714285714
 21
18.0
 31
0.0
  0
LINE
  5
629
330
1F
100
AcDbEntity
  8
0
  6
Continuous
 62
     7
370
    25
100
AcDbLine
 10
-834.8019413573
 20
251.6764612252
 30
0.0
 11
-823.2108314418
 21
254.7822897665
 31
0.0
  0
LINE
  5
62A
330
1F
100
AcDbEntity
  8
0
  6
Continuous
 62
     7
370
    25
100
AcDbLine
 10
-1139.2426406871
 20
16.1126983722
 30
0.0
 11
-1130.7573593129
 21
24.5979797464
 31
0.0
  0
LINE
  5
62B
330
1F
100
AcDbEntity
  8
0
  6
Continuous
 62
     7
370
    25
100
AcDbLine
 10
-877.1624245954
 20
220.4464749506
 30
0.0
 11
-896.4809411212
 21
215.2700940486
 31
0.0
  0
LINE
  5
62C
330
1F
100
AcDbEntity
  8
0
  6
Continuous
 62
     7
370
    25
100
AcDbLine
 10
-544.7638220151
 20
316.7593453401
 30
0.0
 11
-557.7047742703
 21
365.0556366546
 31
0.0
  0
LINE
  5
62D
330
1F
100
AcDbEntity
  8
0
  6
Continuous
 62
     7
370
    25
100
AcDbLine
 10
-723.4848167929
 20
154.9908192739
 30
0.0
 11
-711.8937068774
 21
158.0966478151
 31
0.0
  0
LINE
  5
62E
330
1F
100
AcDbEntity
  8
0
  6
Continuous
 62
     7
370
    25
100
AcDbLine
 10
-813.1178258382
 20
234.501344926
 30
0.0
 11
-801.5267159227
 21
237.6071734672
 31
0.0
  0
LINE
  5
62F
330
1F
100
AcDbEntity
  8
0
  6
Continuous
 62
     7
370
    25
100
AcDbLine
 10
-805.3532544851
 20
205.5235701373
 30
0.0
 11
-813.1178258382
 21
234.501344926
 31
0.0
  0
LINE
  5
630
330
1F
100
AcDbEntity
  8
0
  6
Continuous
 62
     7
370
    25
100
AcDbLine
 10
-805.4910714286
 20
51.3816964286
 30
0.0
 11
-798.4933035714
 21
46.5714285714
 31
0.0
  0
LINE
  5
631
330
1F
100
AcDbEntity
  8
0
  6
Continuous
 62
     7
370
    25
100
AcDbLine
 10
-801.5267159227
 20
237.6071734672
 30
0.0
 11
-793.7621445697
 21
208.6293986786
 31
0.0
  0
LINE
  5
632
330
1F
100
AcDbEntity
  8
0
  6
Continuous
 62
     7
370
    25
100
AcDbLine
 10
-1141.0
 20
310.0
 30
0.0
 11
-1129.0
 21
310.0
 31
0.0
  0
LINE
  5
633
330
1F
100
AcDbEntity
  8
0
  6
Continuous
 62
     7
370
    25
100
AcDbLine
 10
-1141.0
 20
210.0
 30
0.0
 11
-1129.0
 21
210.0
 31
0.0
  0
LINE
  5
634
330
1F
100
AcDbEntity
  8
0
  6
Continuous
 62
     7
370
    25
100
AcDbLine
 10
-730.4196734622
 20
163.4853918338
 30
0.0
 11
-742.0107833777
 21
160.3795632926
 31
0.0
  0
LINE
  5
635
330
1F
100
AcDbEntity
  8
0
  6
Continuous
 62
     7
370
    25
100
AcDbLine
 10
-506.8821741618
 20
285.498655074
 30
0.0
 11
-518.4732840773
 21
282.3928265328
 31
0.0
  0
LINE
  5
636
330
1F
100
AcDbEntity
  8
0
  6
Continuous
 62
     7
370
    25
100
AcDbLine
 10
-514.6467455149
 20
314.4764298627
 30
0.0
 11
-506.8821741618
 21
285.498655074
 31
0.0
  0
LINE
  5
637
330
1F
100
AcDbEntity
  8
0
  6
Continuous
 62
     7
370
    25
100
AcDbLine
 10
-557.7047742703
 20
365.0556366546
 30
0.0
 11
-546.1136643548
 21
368.1614651958
 31
0.0
  0
LINE
  5
638
330
1F
100
AcDbEntity
  8
0
  6
Continuous
 62
     7
370
    25
100
AcDbLine
 10
-910.3642576999
 20
189.8092707945
 30
0.0
 11
-929.6827742256
 21
184.6328898924
 31
0.0
  0
LINE
  5
639
330
1F
100
AcDbEntity
  8
0
  6
Continuous
 62
     7
370
    25
100
AcDbLine
 10
-189.2426406871
 20
495.4020202536
 30
0.0
 11
-224.5979797464
 21
530.7573593129
 31
0.0
  0
LINE
  5
63A
330
1F
100
AcDbEntity
  8
0
  6
Continuous
 62
     7
370
    25
100
AcDbLine
 10
-191.0
 20
310.0
 30
0.0
 11
-191.0
 21
210.0
 31
0.0
  0
LINE
  5
63B
330
1F
100
AcDbEntity
  8
0
  6
Continuous
 62
     7
370
    25
100
AcDbLine
 10
-179.0
 20
210.0
 30
0.0
 11
-191.0
 21
210.0
 31
0.0
  0
LINE
  5
63C
330
1F
100
AcDbEntity
  8
0
  6
Continuous
 62
     7
370
    25
100
AcDbLine
 10
-179.0
 20
310.0
 30
0.0
 11
-179.0
 21
210.0
 31
0.0
  0
LINE
  5
63D
330
1F
100
AcDbEntity
  8
0
  6
Continuous
 62
     7
370
    25
100
AcDbLine
 10
-224.5979797464
 20
-10.7573593129
 30
0.0
 11
-216.1126983722
 21
-19.2426406871
 31
0.0
  0
LINE
  5
63E
330
1F
100
AcDbEntity
  8
0
  6
Continuous
 62
     7
370
    25
100
AcDbLine
 10
-216.1126983722
 20
-19.2426406871
 30
0.0
 11
-180.7573593129
 21
16.1126983722
 31
0.0
  0
LINE
  5
63F
330
1F
100
AcDbEntity
  8
0
  6
Continuous
 62
     7
370
    25
100
AcDbLine
 10
-180.7573593129
 20
16.1126983722
 30
0.0
 11
-189.2426406871
 21
24.5979797464
 31
0.0
  0
LINE
  5
640
330
1F
100
AcDbEntity
  8
0
  6
Continuous
 62
     7
370
    25
100
AcDbLine
 10
-189.2426406871
 20
24.5979797464
 30
0.0
 11
-224.5979797464
 21
-10.7573593129
 31
0.0
  0
LINE
  5
641
330
1F
100
AcDbEntity
  8
0
  6
Continuous
 62
     7
370
    25
100
AcDbLine
 10
-485.0
 20
-21.0
 30
0.0
 11
-335.0
 21
-21.0
 31
0.0
  0
LINE
  5
642
330
1F
100
AcDbEntity
  8
0
  6
Continuous
 62
     7
370
    25
100
AcDbLine
 10
-335.0
 20
-9.0
 30
0.0
 11
-335.0
 21
-21.0
 31
0.0
  0
LINE
  5
643
330
1F
100
AcDbEntity
  8
0
  6
Continuous
 62
     7
370
    25
100
AcDbLine
 10
-485.0
 20
-9.0
 30
0.0
 11
-335.0
 21
-9.0
 31
0.0
  0
LINE
  5
644
330
1F
100
AcDbEntity
  8
0
  6
Continuous
 62
     7
370
    25
100
AcDbLine
 10
-485.0
 20
-9.0
 30
0.0
 11
-485.0
 21
-21.0
 31
0.0
  0
LINE
  5
645
330
1F
100
AcDbEntity
  8
0
  6
Continuous
 62
     7
370
    25
100
AcDbLine
 10
-835.0
 20
-9.0
 30
0.0
 11
-985.0
 21
-9.0
 31
0.0
  0
LINE
  5
646
330
1F
100
AcDbEntity
  8
0
  6
Continuous
 62
     7
370
    25
100
AcDbLine
 10
-985.0
 20
-9.0
 30
0.0
 11
-985.0
 21
-21.0
 31
0.0
  0
LINE
  5
647
330
1F
100
AcDbEntity
  8
0
  6
Continuous
 62
     7
370
    25
100
AcDbLine
 10
-835.0
 20
-21.0
 30
0.0
 11
-985.0
 21
-21.0
 31
0.0
  0
LINE
  5
648
330
1F
100
AcDbEntity
  8
0
  6
Continuous
 62
     7
370
    25
100
AcDbLine
 10
-835.0
 20
-9.0
 30
0.0
 11
-835.0
 21
-21.0
 31
0.0
  0
LINE
  5
649
330
1F
100
AcDbEntity
  8
0
  6
Continuous
 62
     7
370
    25
100
AcDbLine
 10
-1095.4020202536
 20
-10.7573593129
 30
0.0
 11
-1103.8873016278
 21
-19.2426406871
 31
0.0
  0
LINE
  5
64A
330
1F
100
AcDbEntity
  8
0
  6
Continuous
 62
     7
370
    25
100
AcDbLine
 10
-1130.7573593129
 20
24.5979797464
 30
0.0
 11
-1095.4020202536
 21
-10.7573593129
 31
0.0
  0
LINE
  5
64B
330
1F
100
AcDbEntity
  8
0
  6
Continuous
 62
     7
370
    25
100
AcDbLine
 10
-678.2596788426
 20
177.4616202693
 30
0.0
 11
-691.2006310977
 21
225.7579115838
 31
0.0
  0
LINE
  5
64C
330
1F
100
AcDbEntity
  8
0
  6
Continuous
 62
     7
370
    25
100
AcDbLine
 10
-686.5568256801
 20
382.2936425567
 30
0.0
 11
-698.1479355955
 21
379.1878140155
 31
0.0
  0
LINE
  5
64D
330
1F
100
AcDbEntity
  8
0
  6
Continuous
 62
     7
370
    25
100
AcDbLine
 10
-640.3780309892
 20
146.2009300032
 30
0.0
 11
-651.9691409047
 21
143.095101462
 31
0.0
  0
LINE
  5
64E
330
1F
100
AcDbEntity
  8
0
  6
Continuous
 62
     7
370
    25
100
AcDbLine
 10
-741.825363239
 20
414.6919840548
 30
0.0
 11
-730.2342533236
 21
417.797812596
 31
0.0
  0
LINE
  5
64F
330
1F
100
AcDbEntity
  8
0
  6
Continuous
 62
     7
370
    25
100
AcDbLine
 10
-610.2734023175
 20
288.8533443975
 30
0.0
 11
-602.5088309644
 21
259.8755696089
 31
0.0
  0
LINE
  5
650
330
1F
100
AcDbEntity
  8
0
  6
Continuous
 62
     7
370
    25
100
AcDbLine
 10
-634.384383232
 20
251.3345411205
 30
0.0
 11
-645.9754931474
 21
248.2287125792
 31
0.0
  0
LINE
  5
651
330
1F
100
AcDbEntity
  8
0
  6
Continuous
 62
     7
370
    25
100
AcDbLine
 10
-743.3730735458
 20
356.7170130201
 30
0.0
 11
-731.7819636304
 21
359.8228415613
 31
0.0
  0
LINE
  5
652
330
1F
100
AcDbEntity
  8
0
  6
Continuous
 62
     7
370
    25
100
AcDbLine
 10
-691.2006310977
 20
225.7579115838
 30
0.0
 11
-679.6095211822
 21
228.863740125
 31
0.0
  0
LINE
  5
653
330
1F
100
AcDbEntity
  8
0
  6
Continuous
 62
     7
370
    25
100
AcDbLine
 10
-552.1073121121
 20
263.0278540785
 30
0.0
 11
-539.166359857
 21
214.7315627641
 31
0.0
  0
LINE
  5
654
330
1F
100
AcDbEntity
  8
0
  6
Continuous
 62
     7
370
    25
100
AcDbLine
 10
-666.6685689271
 20
180.5674488106
 30
0.0
 11
-678.2596788426
 21
177.4616202693
 31
0.0
  0
LINE
  5
655
330
1F
100
AcDbEntity
  8
0
  6
Continuous
 62
     7
370
    25
100
AcDbLine
 10
-679.6095211822
 20
228.863740125
 30
0.0
 11
-666.6685689271
 21
180.5674488106
 31
0.0
  0
LINE
  5
656
330
1F
100
AcDbEntity
  8
0
  6
Continuous
 62
     7
370
    25
100
AcDbLine
 10
-518.4732840773
 20
282.3928265328
 30
0.0
 11
-526.2378554303
 21
311.3706013214
 31
0.0
  0
LINE
  5
657
330
1F
100
AcDbEntity
  8
0
  6
Continuous
 62
     7
370
    25
100
AcDbLine
 10
-595.9826077227
 20
189.1549332274
 30
0.0
 11
-584.3914978072
 21
192.2607617686
 31
0.0
  0
LINE
  5
658
330
1F
100
AcDbEntity
  8
0
  6
Continuous
 62
     7
370
    25
100
AcDbLine
 10
-786.0657681592
 20
371.1594444859
 30
0.0
 11
-782.1834824827
 21
356.6705570916
 31
0.0
  0
LINE
  5
659
330
1F
100
AcDbEntity
  8
0
  6
Continuous
 62
     7
370
    25
100
AcDbLine
 10
-526.2378554303
 20
311.3706013214
 30
0.0
 11
-514.6467455149
 21
314.4764298627
 31
0.0
  0
LINE
  5
65A
330
1F
100
AcDbEntity
  8
0
  6
Continuous
 62
     7
370
    25
100
AcDbLine
 10
-576.2307408551
 20
370.4443806733
 30
0.0
 11
-583.9953122081
 21
399.422155462
 31
0.0
  0
LINE
  5
65B
330
1F
100
AcDbEntity
  8
0
  6
Continuous
 62
     7
370
    25
100
AcDbLine
 10
-564.6396309396
 20
373.5502092145
 30
0.0
 11
-576.2307408551
 21
370.4443806733
 31
0.0
  0
LINE
  5
65C
330
1F
100
AcDbEntity
  8
0
  6
Continuous
 62
     7
370
    25
100
AcDbLine
 10
-950.554205022
 20
185.2520639481
 30
0.0
 11
-949.0012907514
 21
179.4565089904
 31
0.0
  0
LINE
  5
65D
330
1F
100
AcDbEntity
  8
0
  6
Continuous
 62
     7
370
    25
100
AcDbLine
 10
-969.8727215478
 20
180.0756830461
 30
0.0
 11
-950.554205022
 21
185.2520639481
 31
0.0
  0
LINE
  5
65E
330
1F
100
AcDbEntity
  8
0
  6
Continuous
 62
     7
370
    25
100
AcDbLine
 10
-421.9661446082
 20
298.9343509937
 30
0.0
 11
-441.2846611339
 21
293.7579700916
 31
0.0
  0
LINE
  5
65F
330
1F
100
AcDbEntity
  8
0
  6
Continuous
 62
     7
370
    25
100
AcDbLine
 10
-589.9765121369
 20
149.3532144729
 30
0.0
 11
-578.174636761
 21
105.3080159452
 31
0.0
  0
LINE
  5
660
330
1F
100
AcDbEntity
  8
0
  6
Continuous
 62
     7
370
    25
100
AcDbLine
 10
-608.5149265502
 20
299.6772883634
 30
0.0
 11
-621.4558788053
 21
347.9735796778
 31
0.0
  0
LINE
  5
661
330
1F
100
AcDbEntity
  8
0
  6
Continuous
 62
     7
370
    25
100
AcDbLine
 10
-533.1727120997
 20
319.8651738814
 30
0.0
 11
-544.7638220151
 21
316.7593453401
 31
0.0
  0
LINE
  5
662
330
1F
100
AcDbEntity
  8
0
  6
Continuous
 62
     7
370
    25
100
AcDbLine
 10
-614.0999408799
 20
256.7697410676
 30
0.0
 11
-621.864512233
 21
285.7475158563
 31
0.0
  0
LINE
  5
663
330
1F
100
AcDbEntity
  8
0
  6
Continuous
 62
     7
370
    25
100
AcDbLine
 10
-621.864512233
 20
285.7475158563
 30
0.0
 11
-610.2734023175
 21
288.8533443975
 31
0.0
  0
LINE
  5
664
330
1F
100
AcDbEntity
  8
0
  6
Continuous
 62
     7
370
    25
100
AcDbLine
 10
-601.5676220524
 20
146.2473859316
 30
0.0
 11
-589.9765121369
 21
149.3532144729
 31
0.0
  0
LINE
  5
665
330
1F
100
AcDbEntity
  8
0
  6
Continuous
 62
     7
370
    25
100
AcDbLine
 10
-589.7657466764
 20
102.202187404
 30
0.0
 11
-601.5676220524
 21
146.2473859316
 31
0.0
  0
LINE
  5
666
330
1F
100
AcDbEntity
  8
0
  6
Continuous
 62
     7
370
    25
100
AcDbLine
 10
-621.8520644045
 20
140.8121859845
 30
0.0
 11
-608.9111121493
 21
92.51589467
 31
0.0
  0
LINE
  5
667
330
1F
100
AcDbEntity
  8
0
  6
Continuous
 62
     7
370
    25
100
AcDbLine
 10
-413.8598006159
 20
307.3180964024
 30
0.0
 11
-394.5412840901
 21
312.4944773045
 31
0.0
  0
LINE
  5
668
330
1F
100
AcDbEntity
  8
0
  6
Continuous
 62
     7
370
    25
100
AcDbLine
 10
-927.0116301805
 20
213.3010776533
 30
0.0
 11
-907.6931136547
 21
218.4774585553
 31
0.0
  0
LINE
  5
669
330
1F
100
AcDbEntity
  8
0
  6
Continuous
 62
     7
370
    25
100
AcDbLine
 10
-907.6931136547
 20
218.4774585553
 30
0.0
 11
-906.1401993841
 21
212.6819035976
 31
0.0
  0
LINE
  5
66A
330
1F
100
AcDbEntity
  8
0
  6
Continuous
 62
     7
370
    25
100
AcDbLine
 10
-434.3894587731
 20
345.2987906555
 30
0.0
 11
-432.8365445025
 21
339.5032356978
 31
0.0
  0
LINE
  5
66B
330
1F
100
AcDbEntity
  8
0
  6
Continuous
 62
     7
370
    25
100
AcDbLine
 10
-793.7621445697
 20
208.6293986786
 30
0.0
 11
-805.3532544851
 21
205.5235701373
 31
0.0
  0
LINE
  5
66C
330
1F
100
AcDbEntity
  8
0
  6
Continuous
 62
     7
370
    25
100
AcDbLine
 10
-390.3172257744
 20
335.3671101076
 30
0.0
 11
-388.7643115038
 21
329.5715551498
 31
0.0
  0
LINE
  5
66D
330
1F
100
AcDbEntity
  8
0
  6
Continuous
 62
     7
370
    25
100
AcDbLine
 10
-807.1117302524
 20
194.6996261715
 30
0.0
 11
-803.9535813181
 21
182.9132538909
 31
0.0
  0
LINE
  5
66E
330
1F
100
AcDbEntity
  8
0
  6
Continuous
 62
     7
370
    25
100
AcDbLine
 10
-409.6357423001
 20
330.1907292055
 30
0.0
 11
-390.3172257744
 21
335.3671101076
 31
0.0
  0
LINE
  5
66F
330
1F
100
AcDbEntity
  8
0
  6
Continuous
 62
     7
370
    25
100
AcDbLine
 10
-873.2801389189
 20
205.9575875563
 30
0.0
 11
-871.7272246483
 21
200.1620325986
 31
0.0
  0
LINE
  5
670
330
1F
100
AcDbEntity
  8
0
  6
Continuous
 62
     7
370
    25
100
AcDbLine
 10
-892.5986554447
 20
200.7812066543
 30
0.0
 11
-873.2801389189
 21
205.9575875563
 31
0.0
  0
LINE
  5
671
330
1F
100
AcDbEntity
  8
0
  6
Continuous
 62
     7
370
    25
100
AcDbLine
 10
-891.0457411741
 20
194.9856516965
 30
0.0
 11
-892.5986554447
 21
200.7812066543
 31
0.0
  0
LINE
  5
672
330
1F
100
AcDbEntity
  8
0
  6
Continuous
 62
     7
370
    25
100
AcDbLine
 10
-725.187545446
 20
97.5943845838
 30
0.0
 11
-729.0698311225
 21
112.0832719781
 31
0.0
  0
LINE
  5
673
330
1F
100
AcDbEntity
  8
0
  6
Continuous
 62
     7
370
    25
100
AcDbLine
 10
-914.5883160156
 20
166.9366379914
 30
0.0
 11
-916.1412302862
 21
172.7321929491
 31
0.0
  0
LINE
  5
674
330
1F
100
AcDbEntity
  8
0
  6
Continuous
 62
     7
370
    25
100
AcDbLine
 10
-925.4587159099
 20
207.5055226955
 30
0.0
 11
-927.0116301805
 21
213.3010776533
 31
0.0
  0
LINE
  5
675
330
1F
100
AcDbEntity
  8
0
  6
Continuous
 62
     7
370
    25
100
AcDbLine
 10
-639.9818453901
 20
353.3623236965
 30
0.0
 11
-647.7464167432
 21
382.3400984852
 31
0.0
  0
LINE
  5
676
330
1F
100
AcDbEntity
  8
0
  6
Continuous
 62
     7
370
    25
100
AcDbLine
 10
-949.0012907514
 20
179.4565089904
 30
0.0
 11
-968.3198072772
 21
174.2801280883
 31
0.0
  0
LINE
  5
677
330
1F
100
AcDbEntity
  8
0
  6
Continuous
 62
     7
370
    25
100
AcDbLine
 10
-672.2535832568
 20
137.6599015148
 30
0.0
 11
-683.8446931723
 21
134.5540729736
 31
0.0
  0
LINE
  5
678
330
1F
100
AcDbEntity
  8
0
  6
Continuous
 62
     7
370
    25
100
AcDbLine
 10
-705.9000591201
 20
263.2302589324
 30
0.0
 11
-698.135487767
 21
234.2524841437
 31
0.0
  0
LINE
  5
679
330
1F
100
AcDbEntity
  8
0
  6
Continuous
 62
     7
370
    25
100
AcDbLine
 10
-533.9342318408
 20
148.8405555141
 30
0.0
 11
-537.8165175173
 21
163.3294429084
 31
0.0
  0
LINE
  5
67A
330
1F
100
AcDbEntity
  8
0
  6
Continuous
 62
     7
370
    25
100
AcDbLine
 10
-750.3079302152
 20
365.21158558
 30
0.0
 11
-761.8990401306
 21
362.1057570388
 31
0.0
  0
LINE
  5
67B
330
1F
100
AcDbEntity
  8
0
  6
Continuous
 62
     7
370
    25
100
AcDbLine
 10
-423.5190588788
 20
304.7299059514
 30
0.0
 11
-421.9661446082
 21
298.9343509937
 31
0.0
  0
LINE
  5
67C
330
1F
100
AcDbEntity
  8
0
  6
Continuous
 62
     7
370
    25
100
AcDbLine
 10
-408.0828280295
 20
324.3951742478
 30
0.0
 11
-409.6357423001
 21
330.1907292055
 31
0.0
  0
LINE
  5
67D
330
1F
100
AcDbEntity
  8
0
  6
Continuous
 62
     7
370
    25
100
AcDbLine
 10
-556.3424841021
 20
168.7181869271
 30
0.0
 11
-564.1070554552
 21
197.6959617158
 31
0.0
  0
LINE
  5
67E
330
1F
100
AcDbEntity
  8
0
  6
Continuous
 62
     7
370
    25
100
AcDbLine
 10
-590.9301688775
 20
407.9167280219
 30
0.0
 11
-602.5212787929
 21
404.8108994807
 31
0.0
  0
LINE
  5
67F
330
1F
100
AcDbEntity
  8
0
  6
Continuous
 62
     7
370
    25
100
AcDbLine
 10
-392.9883698195
 20
306.6989223467
 30
0.0
 11
-412.3068863453
 21
301.5225414447
 31
0.0
  0
LINE
  5
680
330
1F
100
AcDbEntity
  8
0
  6
Continuous
 62
     7
370
    25
100
AcDbLine
 10
-606.4035644695
 20
419.299786875
 30
0.0
 11
-594.812454554
 21
422.4056154162
 31
0.0
  0
LINE
  5
681
330
1F
100
AcDbEntity
  8
0
  6
Continuous
 62
     7
370
    25
100
AcDbLine
 10
-442.8375754046
 20
299.5535250494
 30
0.0
 11
-423.5190588788
 21
304.7299059514
 31
0.0
  0
LINE
  5
682
330
1F
100
AcDbEntity
  8
0
  6
Continuous
 62
     7
370
    25
100
AcDbLine
 10
-830.7142857143
 20
20.1428571429
 30
0.0
 11
-826.9308035714
 21
30.1428571429
 31
0.0
  0
LINE
  5
683
330
1F
100
AcDbEntity
  8
0
  6
Continuous
 62
     7
370
    25
100
AcDbLine
 10
-603.5714285714
 20
73.0
 30
0.0
 11
-612.1428571429
 21
35.0870535714
 31
0.0
  0
LINE
  5
684
330
1F
100
AcDbEntity
  8
0
  6
Continuous
 62
     7
370
    25
100
AcDbLine
 10
-581.640625
 20
64.40625
 30
0.0
 11
-585.0223214286
 21
48.7142857143
 31
0.0
  0
LINE
  5
685
330
1F
100
AcDbEntity
  8
0
  6
Continuous
 62
     7
370
    25
100
AcDbLine
 10
-747.3660714286
 20
36.5714285714
 30
0.0
 11
-751.5736607143
 21
56.9508928571
 31
0.0
  0
LINE
  5
686
330
1F
100
AcDbEntity
  8
0
  6
Continuous
 62
     7
370
    25
100
AcDbLine
 10
-765.4910714286
 20
36.5714285714
 30
0.0
 11
-747.3660714286
 21
36.5714285714
 31
0.0
  0
LINE
  5
687
330
1F
100
AcDbEntity
  8
0
  6
Continuous
 62
     7
370
    25
100
AcDbLine
 10
-751.5736607143
 20
56.9508928571
 30
0.0
 11
-765.4910714286
 21
36.5714285714
 31
0.0
  0
ARC
  5
688
330
1F
100
AcDbEntity
  8
0
  6
Continuous
 62
     7
370
    25
100
AcDbCircle
 10
142.6650344092
 20
-243.9565058161
 30
0.0
 40
173.5475439180859
100
AcDbArc
 50
359.5
 51
179.5
  0
ARC
  5
689
330
1F
100
AcDbEntity
  8
0
  6
Continuous
 62
     7
370
    25
100
AcDbCircle
 10
140.8010287
 20
-320.6133576381
 30
0.0
 40
170.5989448970888
100
AcDbArc
 50
180.5
 51
0.5
  0
ARC
  5
68A
330
1F
100
AcDbEntity
  8
0
  6
Continuous
 62
     7
370
    25
100
AcDbCircle
 10
-251.8366347522
 20
-314.8460638109
 30
0.0
 40
165.9661109986007
100
AcDbArc
 50
181.0000000001
 51
1.0000000001
  0
ARC
  5
68B
330
1F
100
AcDbEntity
  8
0
  6
Continuous
 62
     7
370
    25
100
AcDbCircle
 10
-237.8004992951
 20
-237.0831204534
 30
0.0
 40
170.5989448970889
100
AcDbArc
 50
0.5
 51
180.5
  0
ARC
  5
68C
330
1F
100
AcDbEntity
  8
0
  6
Continuous
 62
     7
370
    25
100
AcDbCircle
 10
-613.15276052
 20
-292.457502093
 30
0.0
 40
175.0
100
AcDbArc
 50
181.0
 51
1.0
  0
ARC
  5
68D
330
1F
100
AcDbEntity
  8
0
  6
Continuous
 62
     7
370
    25
100
AcDbCircle
 10
-616.6356592315
 20
-246.5814337555
 30
0.0
 40
173.5475439180859
100
AcDbArc
 50
0.5000000001
 51
180.5000000001
  0
ARC
  5
68E
330
1F
100
AcDbEntity
  8
0
  6
Continuous
 62
     7
370
    25
100
AcDbCircle
 10
-983.1386931647
 20
-283.6383835427
 30
0.0
 40
150.9726796476766
100
AcDbArc
 50
180.5
 51
0.5
  0
ARC
  5
68F
330
1F
100
AcDbEntity
  8
0
  6
Continuous
 62
     7
370
    25
100
AcDbCircle
 10
-982.3625206587
 20
-219.8135668485
 30
0.0
 40
159.5023510798506
100
AcDbArc
 50
359.0
 51
179.0
  0
ARC
  5
690
330
1F
100
AcDbEntity
  8
0
  6
Continuous
 62
     7
370
    25
100
AcDbCircle
 10
670.3260640772
 20
187.382379344
 30
0.0
 40
107.615054708901
100
AcDbArc
 50
357.0
 51
177.0
  0
ARC
  5
691
330
1F
100
AcDbEntity
  8
0
  6
Continuous
 62
     7
370
    25
100
AcDbCircle
 10
706.4453543091
 20
387.1372292074
 30
0.0
 40
82.18728612139402
100
AcDbArc
 50
179.5
 51
359.5
  0
ARC
  5
692
330
1F
100
AcDbEntity
  8
0
  6
Continuous
 62
     7
370
    25
100
AcDbCircle
 10
509.0116765056
 20
71.0991480345
 30
0.0
 40
37.20215047547424
100
AcDbArc
 50
180.0
 51
0.0
  0
ARC
  5
693
330
1F
100
AcDbEntity
  8
0
  6
Continuous
 62
     7
370
    25
100
AcDbCircle
 10
505.330178888
 20
111.9069992148
 30
0.0
 40
37.20215047547457
100
AcDbArc
 50
359.5
 51
179.5
  0
ARC
  5
694
330
1F
100
AcDbEntity
  8
0
  6
Continuous
 62
     7
370
    25
100
AcDbCircle
 10
667.0069290449
 20
414.4894708628
 30
0.0
 40
82.18728612139338
100
AcDbArc
 50
357.5
 51
177.5
  0
ARC
  5
695
330
1F
100
AcDbEntity
  8
0
  6
Continuous
 62
     7
370
    25
100
AcDbCircle
 10
420.57352987
 20
305.8090947887
 30
0.0
 40
150.972679647676
100
AcDbArc
 50
180.5
 51
0.5
  0
ARC
  5
696
330
1F
100
AcDbEntity
  8
0
  6
Continuous
 62
     7
370
    25
100
AcDbCircle
 10
676.3014292852
 20
131.5010069247
 30
0.0
 40
107.6150547089017
100
AcDbArc
 50
180.5
 51
0.5
  0
ARC
  5
697
330
1F
100
AcDbEntity
  8
0
  6
Continuous
 62
     7
370
    25
100
AcDbCircle
 10
413.1764482364
 20
340.6643019668
 30
0.0
 40
139.9999999999993
100
AcDbArc
 50
1.0
 51
181.0
  0
ARC
  5
698
330
1F
100
AcDbEntity
  8
0
  6
Continuous
 62
     7
370
    25
100
AcDbCircle
 10
81.2349795525
 20
296.2623757244
 30
0.0
 40
159.5023510798504
100
AcDbArc
 50
180.5
 51
0.5
  0
ARC
  5
699
330
1F
100
AcDbEntity
  8
0
  6
Continuous
 62
     7
370
    25
100
AcDbCircle
 10
1015.2925676864
 20
83.950815329
 30
0.0
 40
139.9999999999998
100
AcDbArc
 50
0.5
 51
180.5
  0
ARC
  5
69A
330
1F
100
AcDbEntity
  8
0
  6
Continuous
 62
     7
370
    25
100
AcDbCircle
 10
1007.6525949407
 20
367.1812765288
 30
0.0
 40
125.9474096597457
100
AcDbArc
 50
179.5
 51
359.5
  0
ARC
  5
69B
330
1F
100
AcDbEntity
  8
0
  6
Continuous
 62
     7
370
    25
100
AcDbCircle
 10
1005.3646643828
 20
420.0412070236
 30
0.0
 40
125.9474096597462
100
AcDbArc
 50
1.5
 51
181.5
  0
ARC
  5
69C
330
1F
100
AcDbEntity
  8
0
  6
Continuous
 62
     7
370
    25
100
AcDbCircle
 10
77.8803870961
 20
333.346601144
 30
0.0
 40
165.9661109986011
100
AcDbArc
 50
0.0
 51
180.0
  0
MTEXT
  5
69E
330
1F
100
AcDbEntity
  8
0
  6
Continuous
 62
     7
100
AcDbMText
 10
-1200.0
 20
-601.0195663917
 30
0.0
 40
4.83362
 41
0.0
 71
     1
 72
     1
  1
SOLIDWORKS Educational Product.
  7
SLDTEXTSTYLE0
 73
     1
 44
1.0
  0
MTEXT
  5
69F
330
1F
100
AcDbEntity
  8
0
  6
Continuous
 62
     7
100
AcDbMText
 10
-1200.0
 20
-608.2699963917
 30
0.0
 40
4.83362
 41
0.0
 71
     1
 72
     1
  1
For Instructional Use Only.
  7
SLDTEXTSTYLE0
 73
     1
 44
1.0
  0
ENDSEC
  0
SECTION
  2
OBJECTS
  0
DICTIONARY
  5
C
330
0
100
AcDbDictionary
281
     1
  3
ACAD_GROUP
350
D
  3
ACAD_LAYOUT
350
1A
  3
ACAD_MLINESTYLE
350
17
  3
ACAD_PLOTSETTINGS
350
19
  3
ACAD_PLOTSTYLENAME
350
E
  3
ACAD_SCALELIST
350
47
  3
DWGPROPS
350
6A0
  0
DICTIONARY
  5
D
102
{ACAD_REACTORS
330
C
102
}
330
C
100
AcDbDictionary
281
     1
  0
DICTIONARY
  5
1A
102
{ACAD_REACTORS
330
C
102
}
330
C
100
AcDbDictionary
281
     1
  3
Layout1
350
1E
  3
Layout2
350
26
  3
Model
350
22
  0
DICTIONARY
  5
17
102
{ACAD_REACTORS
330
C
102
}
330
C
100
AcDbDictionary
281
     1
  3
Standard
350
18
  0
DICTIONARY
  5
19
102
{ACAD_REACTORS
330
C
102
}
330
C
100
AcDbDictionary
281
     1
  0
ACDBDICTIONARYWDFLT
  5
E
102
{ACAD_REACTORS
330
C
102
}
330
C
100
AcDbDictionary
281
     1
  3
Normal
350
F
100
AcDbDictionaryWithDefault
340
F
  0
DICTIONARY
  5
47
102
{ACAD_REACTORS
330
C
102
}
330
C
100
AcDbDictionary
281
     1
  3
A0
350
48
  3
A1
350
49
  3
A2
350
4A
  3
A3
350
4B
  3
A4
350
4C
  3
A5
350
4D
  3
A6
350
4E
  3
A7
350
4F
  3
A8
350
50
  3
A9
350
51
  3
B0
350
52
  3
B1
350
53
  3
B2
350
54
  3
B3
350
55
  3
B4
350
56
  3
B5
350
57
  3
B6
350
58
  0
XRECORD
  5
6A0
102
{ACAD_REACTORS
330
C
102
}
330
C
100
AcDbXrecord
280
     1
  1
DWGPROPS COOKIE
  2

  3

  4

  6

  7

  8
hassa
  9

300
=
301
=
302
=
303
=
304
=
305
=
306
=
307
=
308
=
309
=
 40
0.0
 41
2460532.619838843
 42
2460532.619970209
  1

 90
        0
  0
LAYOUT
  5
1E
102
{ACAD_REACTORS
330
1A
102
}
330
1A
100
AcDbPlotSettings
  1

  2
none_device
  4

  6

 40
0.0
 41
0.0
 42
0.0
 43
0.0
 44
0.0
 45
0.0
 46
0.0
 47
0.0
 48
0.0
 49
0.0
140
0.0
141
0.0
142
1.0
143
1.0
 70
   688
 72
     1
 73
     0
 74
     5
  7

 75
    16
147
1.0
148
0.0
149
0.0
100
AcDbLayout
  1
Layout1
 70
     1
 71
     1
 10
0.0
 20
0.0
 11
420.0
 21
297.0
 12
0.0
 22
0.0
 32
0.0
 14
1.0000000000E+20
 24
1.0000000000E+20
 34
1.0000000000E+20
 15
-1.0000000000E+20
 25
-1.0000000000E+20
 35
-1.0000000000E+20
146
0.0
 13
0.0
 23
0.0
 33
0.0
 16
1.0
 26
0.0
 36
0.0
 17
0.0
 27
1.0
 37
0.0
 76
     0
330
1B
  0
LAYOUT
  5
26
102
{ACAD_REACTORS
330
1A
102
}
330
1A
100
AcDbPlotSettings
  1

  2
none_device
  4

  6

 40
0.0
 41
0.0
 42
0.0
 43
0.0
 44
0.0
 45
0.0
 46
0.0
 47
0.0
 48
0.0
 49
0.0
140
0.0
141
0.0
142
1.0
143
1.0
 70
   688
 72
     1
 73
     0
 74
     5
  7

 75
    16
147
1.0
148
0.0
149
0.0
100
AcDbLayout
  1
Layout2
 70
     1
 71
     2
 10
0.0
 20
0.0
 11
0.0
 21
0.0
 12
0.0
 22
0.0
 32
0.0
 14
0.0
 24
0.0
 34
0.0
 15
0.0
 25
0.0
 35
0.0
146
0.0
 13
0.0
 23
0.0
 33
0.0
 16
1.0
 26
0.0
 36
0.0
 17
0.0
 27
1.0
 37
0.0
 76
     0
330
23
  0
LAYOUT
  5
22
102
{ACAD_REACTORS
330
1A
102
}
330
1A
100
AcDbPlotSettings
  1

  2
none_device
  4
ANSI_A_(11.00_x_8.50_Inches)
  6

 40
6.35
 41
19.05
 42
6.35000508
 43
19.05000254
 44
279.4
 45
215.9
 46
133.34999746
 47
88.89999873
 48
0.0
 49
0.0
140
0.0
141
0.0
142
0.0045375
143
1.0
 70
  1696
 72
     0
 73
     0
 74
     0
  7

 75
     0
147
0.0179189148
148
-1300.4909072572
149
0.0
100
AcDbLayout
  1
Model
 70
     1
 71
     0
 10
0.0
 20
0.0
 11
420.0
 21
297.0
 12
0.0
 22
0.0
 32
0.0
 14
-1200.0
 24
-600.0
 34
0.0
 15
1200.0
 25
600.0
 35
0.0
146
0.0
 13
0.0
 23
0.0
 33
0.0
 16
1.0
 26
0.0
 36
0.0
 17
0.0
 27
1.0
 37
0.0
 76
     0
330
1F
331
29
  0
MLINESTYLE
  5
18
102
{ACAD_REACTORS
330
17
102
}
330
17
100
AcDbMlineStyle
  2
Standard
 70
     0
  3

 62
   256
 51
90.0
 52
90.0
 71
     2
 49
0.5
 62
   256
  6
BYLAYER
 49
-0.5
 62
   256
  6
BYLAYER
  0
ACDBPLACEHOLDER
  5
F
102
{ACAD_REACTORS
330
E
102
}
330
E
  0
SCALE
  5
48
102
{ACAD_REACTORS
330
47
102
}
330
47
100
AcDbScale
 70
     0
300
1:1
140
1.0
141
1.0
290
     1
  0
SCALE
  5
49
102
{ACAD_REACTORS
330
47
102
}
330
47
100
AcDbScale
 70
     0
300
1:2
140
1.0
141
2.0
290
     0
  0
SCALE
  5
4A
102
{ACAD_REACTORS
330
47
102
}
330
47
100
AcDbScale
 70
     0
300
1:4
140
1.0
141
4.0
290
     0
  0
SCALE
  5
4B
102
{ACAD_REACTORS
330
47
102
}
330
47
100
AcDbScale
 70
     0
300
1:5
140
1.0
141
5.0
290
     0
  0
SCALE
  5
4C
102
{ACAD_REACTORS
330
47
102
}
330
47
100
AcDbScale
 70
     0
300
1:8
140
1.0
141
8.0
290
     0
  0
SCALE
  5
4D
102
{ACAD_REACTORS
330
47
102
}
330
47
100
AcDbScale
 70
     0
300
1:10
140
1.0
141
10.0
290
     0
  0
SCALE
  5
4E
102
{ACAD_REACTORS
330
47
102
}
330
47
100
AcDbScale
 70
     0
300
1:16
140
1.0
141
16.0
290
     0
  0
SCALE
  5
4F
102
{ACAD_REACTORS
330
47
102
}
330
47
100
AcDbScale
 70
     0
300
1:20
140
1.0
141
20.0
290
     0
  0
SCALE
  5
50
102
{ACAD_REACTORS
330
47
102
}
330
47
100
AcDbScale
 70
     0
300
1:30
140
1.0
141
30.0
290
     0
  0
SCALE
  5
51
102
{ACAD_REACTORS
330
47
102
}
330
47
100
AcDbScale
 70
     0
300
1:40
140
1.0
141
40.0
290
     0
  0
SCALE
  5
52
102
{ACAD_REACTORS
330
47
102
}
330
47
100
AcDbScale
 70
     0
300
1:50
140
1.0
141
50.0
290
     0
  0
SCALE
  5
53
102
{ACAD_REACTORS
330
47
102
}
330
47
100
AcDbScale
 70
     0
300
1:100
140
1.0
141
100.0
290
     0
  0
SCALE
  5
54
102
{ACAD_REACTORS
330
47
102
}
330
47
100
AcDbScale
 70
     0
300
2:1
140
2.0
141
1.0
290
     0
  0
SCALE
  5
55
102
{ACAD_REACTORS
330
47
102
}
330
47
100
AcDbScale
 70
     0
300
4:1
140
4.0
141
1.0
290
     0
  0
SCALE
  5
56
102
{ACAD_REACTORS
330
47
102
}
330
47
100
AcDbScale
 70
     0
300
8:1
140
8.0
141
1.0
290
     0
  0
SCALE
  5
57
102
{ACAD_REACTORS
330
47
102
}
330
47
100
AcDbScale
 70
     0
300
10:1
140
10.0
141
1.0
290
     0
  0
SCALE
  5
58
102
{ACAD_REACTORS
330
47
102
}
330
47
100
AcDbScale
 70
     0
300
100:1
140
100.0
141
1.0
290
     0
  0
ENDSEC
  0
EOF
