0
SECTION
2
HEADER
9
$HANDSEED
5
1EE
9
$INSUNITS
70
5
9
$ACADVER
1
AC1021
0
ENDSEC
0
SECTION
2
CLASSES
0
ENDSEC
0
SECTION
2
TABLES
0
TABLE
2
LTYPE
5
1EC
330
0
100
AcDbSymbolTable
70
5
0
LTYPE
5
2
330
1EC
100
AcDbSymbolTableRecord
100
AcDbLinetypeTableRecord
2
CONTINUOUS
3
______
70
0
72
65
73
0
40
0
0
LTYPE
5
3
330
1EC
100
AcDbSymbolTableRecord
100
AcDbLinetypeTableRecord
2
DASHED
3
_ _ _ 
70
0
72
65
73
2
40
10
49
5
74
0
49
-5
74
0
0
LTYPE
5
4
330
1EC
100
AcDbSymbolTableRecord
100
AcDbLinetypeTableRecord
2
DOTTED
3
. . . 
70
0
72
65
73
2
40
5
49
0
74
0
49
-5
74
0
0
LTYPE
5
6
330
1EC
100
AcDbSymbolTableRecord
100
AcDbLinetypeTableRecord
2
ByBlock
3

70
0
72
65
73
0
40
0
0
LTYPE
5
7
330
1EC
100
AcDbSymbolTableRecord
100
AcDbLinetypeTableRecord
2
ByLayer
3

70
0
72
65
73
0
40
0
0
ENDTAB
0
TABLE
2
LAYER
5
1ED
330
0
100
AcDbSymbolTable
70
5
0
LAYER
5
5
330
1ED
100
AcDbSymbolTableRecord
100
AcDbLayerTableRecord
2
0
62
7
70
0
6
CONTINUOUS
390
1
0
LAYER
5
16
330
1ED
100
AcDbSymbolTableRecord
100
AcDbLayerTableRecord
2
Layer_0
420
0
70
0
6
CONTINUOUS
390
1
0
LAYER
5
1A
330
1ED
100
AcDbSymbolTableRecord
100
AcDbLayerTableRecord
2
Layer_1
420
1627144
70
0
6
CONTINUOUS
390
1
0
LAYER
5
33
330
1ED
100
AcDbSymbolTableRecord
100
AcDbLayerTableRecord
2
Layer_2
420
0
70
0
6
CONTINUOUS
390
1
0
LAYER
5
1E4
330
1ED
100
AcDbSymbolTableRecord
100
AcDbLayerTableRecord
2
Layer_3
420
0
70
0
6
CONTINUOUS
390
1
0
ENDTAB
0
TABLE
2
VPORT
5
8
330
0
100
AcDbSymbolTable
70
1
0
VPORT
5
E
330
8
100
AcDbSymbolTableRecord
100
AcDbViewportTableRecord
2
*ACTIVE
40
1000
70
0
0
ENDTAB
0
TABLE
2
STYLE
5
9
330
0
100
AcDbSymbolTable
70
1
0
STYLE
5
F
330
9
100
AcDbSymbolTableRecord
100
AcDbTextStyleTableRecord
2
standard
70
0
40
0
41
1
50
0
71
0
42
1
3
txt
4

0
ENDTAB
0
TABLE
2
VIEW
5
A
330
0
100
AcDbSymbolTable
70
0
0
ENDTAB
0
TABLE
2
UCS
5
B
330
0
100
AcDbSymbolTable
70
0
0
ENDTAB
0
TABLE
2
APPID
5
C
330
0
100
AcDbSymbolTable
70
1
0
APPID
5
10
330
C
100
AcDbSymbolTableRecord
100
AcDbRegAppTableRecord
2
ACAD
70
0
0
ENDTAB
0
TABLE
2
DIMSTYLE
5
D
330
0
100
AcDbSymbolTable
100
AcDbDimStyleTable
70
0
71
1
0
ENDTAB
0
TABLE
2
BLOCK_RECORD
5
1E9
330
0
100
AcDbSymbolTable
70
2
0
BLOCK_RECORD
5
1EA
330
1E9
100
AcDbSymbolTableRecord
100
AcDbBlockTableRecord
2
*Model_Space
70
0
280
0
281
1
0
BLOCK_RECORD
5
1EB
330
1E9
100
AcDbSymbolTableRecord
100
AcDbBlockTableRecord
2
*Paper_Space
70
0
280
0
281
1
0
ENDTAB
0
ENDSEC
0
SECTION
2
BLOCKS
0
BLOCK
5
11
330
0
100
AcDbEntity
100
AcDbBlockBegin
2
*Model_Space
70
0
10
0
20
0
30
0
3
*Model_Space
1

0
ENDBLK
5
12
330
0
100
AcDbEntity
100
AcDbBlockEnd
0
BLOCK
5
13
330
0
100
AcDbEntity
100
AcDbBlockBegin
2
*Paper_Space
70
0
10
0
20
0
30
0
3
*Paper_Space
1

0
ENDBLK
5
14
330
0
100
AcDbEntity
100
AcDbBlockEnd
0
ENDSEC
0
SECTION
2
ENTITIES
0
LINE
5
17
330
11
100
AcDbEntity
100
AcDbLine
8
Layer_0
10
7.4872708832101775
20
0.7655798180489767
30
0
11
-2.939184319312098
21
-7.091317728027035
31
0
0
LINE
5
18
330
11
100
AcDbEntity
100
AcDbLine
8
Layer_0
10
-2.939184319312098
20
-7.091317728027035
30
0
11
-4.530229587884406
21
5.866706121815685
31
0
0
LINE
5
19
330
11
100
AcDbEntity
100
AcDbLine
8
Layer_0
10
-4.530229587884406
20
5.866706121815685
30
0
11
7.4872708832101775
21
0.7655798180489767
31
0
0
SPLINE
5
1B
330
11
100
AcDbEntity
100
AcDbSpline
8
Layer_1
210
0
220
0
230
1
70
8
71
3
72
8
73
4
74
0
42
1e-7
43
1e-7
44
1e-10
40
0
40
0
40
0
40
0
40
1
40
1
40
1
40
1
10
0.12448836863040924
20
1.0938351154327393
30
0
10
0.1019279882311821
20
1.2864516973495483
30
0
10
0.024800820276141167
20
1.4287068843841553
30
0
10
-0.10057759284973145
20
1.473082184791565
30
0
0
SPLINE
5
1C
330
11
100
AcDbEntity
100
AcDbSpline
8
Layer_1
210
0
220
0
230
1
70
8
71
3
72
8
73
4
74
0
42
1e-7
43
1e-7
44
1e-10
40
0
40
0
40
0
40
0
40
1
40
1
40
1
40
1
10
-0.10057759284973145
20
1.473082184791565
30
0
10
-0.34511324763298035
20
1.559631109237671
30
0
10
-0.6811884641647339
20
1.2412821054458618
30
0
10
-0.8506032824516296
20
0.7626165151596069
30
0
0
SPLINE
5
1D
330
11
100
AcDbEntity
100
AcDbSpline
8
Layer_1
210
0
220
0
230
1
70
8
71
3
72
8
73
4
74
0
42
1e-7
43
1e-7
44
1e-10
40
0
40
0
40
0
40
0
40
1
40
1
40
1
40
1
10
-0.8506032824516296
20
0.7626165151596069
30
0
10
-0.8633894920349121
20
0.726490318775177
30
0
10
-0.8748632073402405
20
0.6904768943786621
30
0
10
-0.8850447535514832
20
0.6547276377677917
30
0
0
SPLINE
5
1E
330
11
100
AcDbEntity
100
AcDbSpline
8
Layer_1
210
0
220
0
230
1
70
8
71
3
72
8
73
4
74
0
42
1e-7
43
1e-7
44
1e-10
40
0
40
0
40
0
40
0
40
1
40
1
40
1
40
1
10
-0.8850447535514832
20
0.6547276377677917
30
0
10
-1.0631357431411743
20
0.7314980626106262
30
0
10
-1.22489595413208
20
0.7358315587043762
30
0
10
-1.3260153532028198
20
0.6494383215904236
30
0
0
SPLINE
5
1F
330
11
100
AcDbEntity
100
AcDbSpline
8
Layer_1
210
0
220
0
230
1
70
8
71
3
72
8
73
4
74
0
42
1e-7
43
1e-7
44
1e-10
40
0
40
0
40
0
40
0
40
1
40
1
40
1
40
1
10
-1.3260153532028198
20
0.6494383215904236
30
0
10
-1.5232367515563965
20
0.48093870282173157
30
0
10
-1.4155761003494263
20
0.030714495107531548
30
0
10
-1.0857468843460083
20
-0.3553357720375061
30
0
0
SPLINE
5
20
330
11
100
AcDbEntity
100
AcDbSpline
8
Layer_1
210
0
220
0
230
1
70
8
71
3
72
8
73
4
74
0
42
1e-7
43
1e-7
44
1e-10
40
0
40
0
40
0
40
0
40
1
40
1
40
1
40
1
10
-1.0857468843460083
20
-0.3553357720375061
30
0
10
-1.0608538389205933
20
-0.3844720125198364
30
0
10
-1.0354021787643433
20
-0.41241535544395447
30
0
10
-1.009533166885376
20
-0.43910741806030273
30
0
0
SPLINE
5
21
330
11
100
AcDbEntity
100
AcDbSpline
8
Layer_1
210
0
220
0
230
1
70
8
71
3
72
8
73
4
74
0
42
1e-7
43
1e-7
44
1e-10
40
0
40
0
40
0
40
0
40
1
40
1
40
1
40
1
10
-1.009533166885376
20
-0.43910741806030273
30
0
10
-1.1650638580322266
20
-0.5549535751342773
30
0
10
-1.2496968507766724
20
-0.6928752660751343
30
0
10
-1.2254377603530884
20
-0.8236438632011414
30
0
0
SPLINE
5
22
330
11
100
AcDbEntity
100
AcDbSpline
8
Layer_1
210
0
220
0
230
1
70
8
71
3
72
8
73
4
74
0
42
1e-7
43
1e-7
44
1e-10
40
0
40
0
40
0
40
0
40
1
40
1
40
1
40
1
10
-1.2254377603530884
20
-0.8236438632011414
30
0
10
-1.1781234741210938
20
-1.0786923170089722
30
0
10
-0.7343875765800476
20
-1.210567593574524
30
0
10
-0.23514364659786224
20
-1.1179523468017578
30
0
0
SPLINE
5
23
330
11
100
AcDbEntity
100
AcDbSpline
8
Layer_1
210
0
220
0
230
1
70
8
71
3
72
8
73
4
74
0
42
1e-7
43
1e-7
44
1e-10
40
0
40
0
40
0
40
0
40
1
40
1
40
1
40
1
10
-0.23514364659786224
20
-1.1179523468017578
30
0
10
-0.19746436178684235
20
-1.1109623908996582
30
0
10
-0.16053888201713562
20
-1.102892279624939
30
0
10
-0.12448836863040924
20
-1.0938351154327393
30
0
0
SPLINE
5
24
330
11
100
AcDbEntity
100
AcDbSpline
8
Layer_1
210
0
220
0
230
1
70
8
71
3
72
8
73
4
74
0
42
1e-7
43
1e-7
44
1e-10
40
0
40
0
40
0
40
0
40
1
40
1
40
1
40
1
10
-0.12448836863040924
20
-1.0938351154327393
30
0
10
-0.1019279882311821
20
-1.2864516973495483
30
0
10
-0.024800820276141167
20
-1.4287068843841553
30
0
10
0.10057759284973145
20
-1.473082184791565
30
0
0
SPLINE
5
25
330
11
100
AcDbEntity
100
AcDbSpline
8
Layer_1
210
0
220
0
230
1
70
8
71
3
72
8
73
4
74
0
42
1e-7
43
1e-7
44
1e-10
40
0
40
0
40
0
40
0
40
1
40
1
40
1
40
1
10
0.10057759284973145
20
-1.473082184791565
30
0
10
0.34511324763298035
20
-1.559631109237671
30
0
10
0.6811884641647339
20
-1.2412821054458618
30
0
10
0.8506032824516296
20
-0.7626165151596069
30
0
0
SPLINE
5
26
330
11
100
AcDbEntity
100
AcDbSpline
8
Layer_1
210
0
220
0
230
1
70
8
71
3
72
8
73
4
74
0
42
1e-7
43
1e-7
44
1e-10
40
0
40
0
40
0
40
0
40
1
40
1
40
1
40
1
10
0.8506032824516296
20
-0.7626165151596069
30
0
10
0.8633894920349121
20
-0.726490318775177
30
0
10
0.8748632073402405
20
-0.6904768943786621
30
0
10
0.8850447535514832
20
-0.6547276377677917
30
0
0
SPLINE
5
27
330
11
100
AcDbEntity
100
AcDbSpline
8
Layer_1
210
0
220
0
230
1
70
8
71
3
72
8
73
4
74
0
42
1e-7
43
1e-7
44
1e-10
40
0
40
0
40
0
40
0
40
1
40
1
40
1
40
1
10
0.8850447535514832
20
-0.6547276377677917
30
0
10
1.0631357431411743
20
-0.7314980626106262
30
0
10
1.22489595413208
20
-0.7358315587043762
30
0
10
1.3260153532028198
20
-0.6494383215904236
30
0
0
SPLINE
5
28
330
11
100
AcDbEntity
100
AcDbSpline
8
Layer_1
210
0
220
0
230
1
70
8
71
3
72
8
73
4
74
0
42
1e-7
43
1e-7
44
1e-10
40
0
40
0
40
0
40
0
40
1
40
1
40
1
40
1
10
1.3260153532028198
20
-0.6494383215904236
30
0
10
1.5232367515563965
20
-0.48093870282173157
30
0
10
1.4155761003494263
20
-0.030714495107531548
30
0
10
1.0857468843460083
20
0.3553357720375061
30
0
0
SPLINE
5
29
330
11
100
AcDbEntity
100
AcDbSpline
8
Layer_1
210
0
220
0
230
1
70
8
71
3
72
8
73
4
74
0
42
1e-7
43
1e-7
44
1e-10
40
0
40
0
40
0
40
0
40
1
40
1
40
1
40
1
10
1.0857468843460083
20
0.3553357720375061
30
0
10
1.0608538389205933
20
0.3844720125198364
30
0
10
1.0354021787643433
20
0.41241535544395447
30
0
10
1.009533166885376
20
0.43910741806030273
30
0
0
SPLINE
5
2A
330
11
100
AcDbEntity
100
AcDbSpline
8
Layer_1
210
0
220
0
230
1
70
8
71
3
72
8
73
4
74
0
42
1e-7
43
1e-7
44
1e-10
40
0
40
0
40
0
40
0
40
1
40
1
40
1
40
1
10
1.009533166885376
20
0.43910741806030273
30
0
10
1.1650638580322266
20
0.5549535751342773
30
0
10
1.2496968507766724
20
0.6928752660751343
30
0
10
1.2254377603530884
20
0.8236438632011414
30
0
0
SPLINE
5
2B
330
11
100
AcDbEntity
100
AcDbSpline
8
Layer_1
210
0
220
0
230
1
70
8
71
3
72
8
73
4
74
0
42
1e-7
43
1e-7
44
1e-10
40
0
40
0
40
0
40
0
40
1
40
1
40
1
40
1
10
1.2254377603530884
20
0.8236438632011414
30
0
10
1.1781234741210938
20
1.0786923170089722
30
0
10
0.7343875765800476
20
1.210567593574524
30
0
10
0.23514364659786224
20
1.1179523468017578
30
0
0
SPLINE
5
2C
330
11
100
AcDbEntity
100
AcDbSpline
8
Layer_1
210
0
220
0
230
1
70
8
71
3
72
8
73
4
74
0
42
1e-7
43
1e-7
44
1e-10
40
0
40
0
40
0
40
0
40
1
40
1
40
1
40
1
10
0.23514364659786224
20
1.1179523468017578
30
0
10
0.19746436178684235
20
1.1109623908996582
30
0
10
0.16053888201713562
20
1.102892279624939
30
0
10
0.12448836863040924
20
1.0938351154327393
30
0
0
SPLINE
5
2D
330
11
100
AcDbEntity
100
AcDbSpline
8
Layer_1
210
0
220
0
230
1
70
8
71
3
72
8
73
4
74
0
42
1e-7
43
1e-7
44
1e-10
40
0
40
0
40
0
40
0
40
1
40
1
40
1
40
1
10
-0.196029931306839
20
0.011184181086719036
30
0
10
-0.15819767117500305
20
0.060743264853954315
30
0
10
-0.12201681733131409
20
0.11573399603366852
30
0
10
-0.08832916617393494
20
0.17535899579524994
30
0
0
SPLINE
5
2E
330
11
100
AcDbEntity
100
AcDbSpline
8
Layer_1
210
0
220
0
230
1
70
8
71
3
72
8
73
4
74
0
42
1e-7
43
1e-7
44
1e-10
40
0
40
0
40
0
40
0
40
1
40
1
40
1
40
1
10
-0.08832916617393494
20
0.17535899579524994
30
0
10
-0.02649361826479435
20
0.16737483441829681
30
0
10
0.0392201691865921
20
0.1635366827249527
30
0
10
0.10770075023174286
20
0.16417481005191803
30
0
0
SPLINE
5
2F
330
11
100
AcDbEntity
100
AcDbSpline
8
Layer_1
210
0
220
0
230
1
70
8
71
3
72
8
73
4
74
0
42
1e-7
43
1e-7
44
1e-10
40
0
40
0
40
0
40
0
40
1
40
1
40
1
40
1
10
0.10770075023174286
20
0.16417481005191803
30
0
10
0.13170404732227325
20
0.1066315770149231
30
0
10
0.16123700141906738
20
0.047802671790122986
30
0
10
0.196029931306839
20
-0.011184181086719036
30
0
0
SPLINE
5
30
330
11
100
AcDbEntity
100
AcDbSpline
8
Layer_1
210
0
220
0
230
1
70
8
71
3
72
8
73
4
74
0
42
1e-7
43
1e-7
44
1e-10
40
0
40
0
40
0
40
0
40
1
40
1
40
1
40
1
10
0.196029931306839
20
-0.011184181086719036
30
0
10
0.15819767117500305
20
-0.060743264853954315
30
0
10
0.12201682478189468
20
-0.11573400348424911
30
0
10
0.08832917362451553
20
-0.17535899579524994
30
0
0
SPLINE
5
31
330
11
100
AcDbEntity
100
AcDbSpline
8
Layer_1
210
0
220
0
230
1
70
8
71
3
72
8
73
4
74
0
42
1e-7
43
1e-7
44
1e-10
40
0
40
0
40
0
40
0
40
1
40
1
40
1
40
1
10
0.08832917362451553
20
-0.17535899579524994
30
0
10
0.026493621990084648
20
-0.16737483441829681
30
0
10
-0.0392201691865921
20
-0.1635366827249527
30
0
10
-0.10770075023174286
20
-0.16417481005191803
30
0
0
SPLINE
5
32
330
11
100
AcDbEntity
100
AcDbSpline
8
Layer_1
210
0
220
0
230
1
70
8
71
3
72
8
73
4
74
0
42
1e-7
43
1e-7
44
1e-10
40
0
40
0
40
0
40
0
40
1
40
1
40
1
40
1
10
-0.10770075023174286
20
-0.16417481005191803
30
0
10
-0.13170404732227325
20
-0.1066315695643425
30
0
10
-0.16123700141906738
20
-0.047802671790122986
30
0
10
-0.196029931306839
20
0.011184181086719036
30
0
0
SPLINE
5
34
330
11
100
AcDbEntity
100
AcDbSpline
8
Layer_2
210
0
220
0
230
1
70
8
71
3
72
8
73
4
74
0
42
1e-7
43
1e-7
44
1e-10
40
0
40
0
40
0
40
0
40
1
40
1
40
1
40
1
10
-1.0182868881027634
20
-4.616197595309793
30
0
10
-0.9380423258410914
20
-4.578839393324092
30
0
10
-0.8629511930217026
20
-4.533271600085033
30
0
10
-0.7930134896445975
20
-4.479494215592615
30
0
0
SPLINE
5
35
330
11
100
AcDbEntity
100
AcDbSpline
8
Layer_2
210
0
220
0
230
1
70
8
71
3
72
8
73
4
74
0
42
1e-7
43
1e-7
44
1e-10
40
0
40
0
40
0
40
0
40
1
40
1
40
1
40
1
10
-0.7930134896445975
20
-4.479494215592615
30
0
10
-0.6123409535566342
20
-4.340569201311929
30
0
10
-0.4987097402406855
20
-4.198129592932234
30
0
10
-0.4521199834875155
20
-4.052175486042015
30
0
0
SPLINE
5
36
330
11
100
AcDbEntity
100
AcDbSpline
8
Layer_2
210
0
220
0
230
1
70
8
71
3
72
8
73
4
74
0
42
1e-7
43
1e-7
44
1e-10
40
0
40
0
40
0
40
0
40
1
40
1
40
1
40
1
10
-0.4521199834875155
20
-4.052175486042015
30
0
10
-0.40553019771887244
20
-3.906221371955883
30
0
10
-0.4298507385689453
20
-3.771320253113981
30
0
10
-0.5250816060377341
20
-3.6474721295163084
30
0
0
SPLINE
5
37
330
11
100
AcDbEntity
100
AcDbSpline
8
Layer_2
210
0
220
0
230
1
70
8
71
3
72
8
73
4
74
0
42
1e-7
43
1e-7
44
1e-10
40
0
40
0
40
0
40
0
40
1
40
1
40
1
40
1
10
-0.5250816060377341
20
-3.6474721295163084
30
0
10
-0.6046273759006635
20
-3.5440225380182064
30
0
10
-0.7022800317792042
20
-3.4863755986728173
30
0
10
-0.8180394934882622
20
-3.4745311461772688
30
0
0
SPLINE
5
38
330
11
100
AcDbEntity
100
AcDbSpline
8
Layer_2
210
0
220
0
230
1
70
8
71
3
72
8
73
4
74
0
42
1e-7
43
1e-7
44
1e-10
40
0
40
0
40
0
40
0
40
1
40
1
40
1
40
1
10
-0.8180394934882622
20
-3.4745311461772688
30
0
10
-0.9337990253487594
20
-3.4626867821720984
30
0
10
-1.0744427053129855
20
-3.4833081800311962
30
0
10
-1.2399705333809405
20
-3.536395339754562
30
0
0
SPLINE
5
39
330
11
100
AcDbEntity
100
AcDbSpline
8
Layer_2
210
0
220
0
230
1
70
8
71
3
72
8
73
4
74
0
42
1e-7
43
1e-7
44
1e-10
40
0
40
0
40
0
40
0
40
1
40
1
40
1
40
1
10
-1.2399705333809405
20
-3.536395339754562
30
0
10
-1.285022705401451
20
-3.55017070102141
30
0
10
-1.3279734628598867
20
-3.5629099077126303
30
0
10
-1.3688228558403783
20
-3.5746128946936113
30
0
0
SPLINE
5
3A
330
11
100
AcDbEntity
100
AcDbSpline
8
Layer_2
210
0
220
0
230
1
70
8
71
3
72
8
73
4
74
0
42
1e-7
43
1e-7
44
1e-10
40
0
40
0
40
0
40
0
40
1
40
1
40
1
40
1
10
-1.3688228558403783
20
-3.5746128946936113
30
0
10
-1.4096722271093325
20
-3.5863158649798823
30
0
10
-1.438499627505621
20
-3.5812395860058013
30
0
10
-1.4553050570292434
20
-3.559384057771369
30
0
0
SPLINE
5
3B
330
11
100
AcDbEntity
100
AcDbSpline
8
Layer_2
210
0
220
0
230
1
70
8
71
3
72
8
73
4
74
0
42
1e-7
43
1e-7
44
1e-10
40
0
40
0
40
0
40
0
40
1
40
1
40
1
40
1
10
-1.4553050570292434
20
-3.559384057771369
30
0
10
-1.4732308685547597
20
-3.536071468267463
30
0
10
-1.4779330148933445
20
-3.5118648017291267
30
0
10
-1.4694114610113487
20
-3.486764238509714
30
0
0
SPLINE
5
3C
330
11
100
AcDbEntity
100
AcDbSpline
8
Layer_2
210
0
220
0
230
1
70
8
71
3
72
8
73
4
74
0
42
1e-7
43
1e-7
44
1e-10
40
0
40
0
40
0
40
0
40
1
40
1
40
1
40
1
10
-1.4694114610113487
20
-3.486764238509714
30
0
10
-1.4608898920788715
20
-3.4616635600715586
30
0
10
-1.4478869604416926
20
-3.4423910465262044
30
0
10
-1.4304024857464575
20
-3.428946662840002
30
0
0
SPLINE
5
3D
330
11
100
AcDbEntity
100
AcDbSpline
8
Layer_2
210
0
220
0
230
1
70
8
71
3
72
8
73
4
74
0
42
1e-7
43
1e-7
44
1e-10
40
0
40
0
40
0
40
0
40
1
40
1
40
1
40
1
10
-1.4304024857464575
20
-3.428946662840002
30
0
10
-1.3998047201644077
20
-3.405419041473278
30
0
10
-1.3746157146255196
20
-3.3906874078946356
30
0
10
-1.3548353539110503
20
-3.3847517771545563
30
0
0
SPLINE
5
3E
330
11
100
AcDbEntity
100
AcDbSpline
8
Layer_2
210
0
220
0
230
1
70
8
71
3
72
8
73
4
74
0
42
1e-7
43
1e-7
44
1e-10
40
0
40
0
40
0
40
0
40
1
40
1
40
1
40
1
10
-1.3548353539110503
20
-3.3847517771545563
30
0
10
-1.3350550432807116
20
-3.378816081279865
30
0
10
-1.315723142742571
20
-3.373804874290795
30
0
10
-1.2968396372461473
20
-3.3697180409686034
30
0
0
SPLINE
5
3F
330
11
100
AcDbEntity
100
AcDbSpline
8
Layer_2
210
0
220
0
230
1
70
8
71
3
72
8
73
4
74
0
42
1e-7
43
1e-7
44
1e-10
40
0
40
0
40
0
40
0
40
1
40
1
40
1
40
1
10
-1.2968396372461473
20
-3.3697180409686034
30
0
10
-1.2779561468002048
20
-3.3656313228651547
30
0
10
-1.2538888297035806
20
-3.356978899411995
30
0
10
-1.2246378162254996
20
-3.343760870777386
30
0
0
SPLINE
5
40
330
11
100
AcDbEntity
100
AcDbSpline
8
Layer_2
210
0
220
0
230
1
70
8
71
3
72
8
73
4
74
0
42
1e-7
43
1e-7
44
1e-10
40
0
40
0
40
0
40
0
40
1
40
1
40
1
40
1
10
-1.2246378162254996
20
-3.343760870777386
30
0
10
-1.1953866875286758
20
-3.330542857193258
30
0
10
-1.1559915625835622
20
-3.304887674390609
30
0
10
-1.1064523261714156
20
-3.2667953374199197
30
0
0
SPLINE
5
41
330
11
100
AcDbEntity
100
AcDbSpline
8
Layer_2
210
0
220
0
230
1
70
8
71
3
72
8
73
4
74
0
42
1e-7
43
1e-7
44
1e-10
40
0
40
0
40
0
40
0
40
1
40
1
40
1
40
1
10
-1.1064523261714156
20
-3.2667953374199197
30
0
10
-1.0729404380504186
20
-3.2410269520494084
30
0
10
-1.0444978308098514
20
-3.2064046318960817
30
0
10
-1.0211245044497141
20
-3.1629283769599397
30
0
0
SPLINE
5
42
330
11
100
AcDbEntity
100
AcDbSpline
8
Layer_2
210
0
220
0
230
1
70
8
71
3
72
8
73
4
74
0
42
1e-7
43
1e-7
44
1e-10
40
0
40
0
40
0
40
0
40
1
40
1
40
1
40
1
10
-1.0211245044497141
20
-3.1629283769599397
30
0
10
-0.9977510912434275
20
-3.119452055244957
30
0
10
-0.9874881256057291
20
-3.070986458521545
30
0
10
-0.9903357878899729
20
-3.017531621823354
30
0
0
SPLINE
5
43
330
11
100
AcDbEntity
100
AcDbSpline
8
Layer_2
210
0
220
0
230
1
70
8
71
3
72
8
73
4
74
0
42
1e-7
43
1e-7
44
1e-10
40
0
40
0
40
0
40
0
40
1
40
1
40
1
40
1
10
-0.9903357878899729
20
-3.017531621823354
30
0
10
-0.9931833199049929
20
-2.964076684956902
30
0
10
-1.0170144305044913
20
-2.908208644946667
30
0
10
-1.0618290094024125
20
-2.8499271060522906
30
0
0
SPLINE
5
44
330
11
100
AcDbEntity
100
AcDbSpline
8
Layer_2
210
0
220
0
230
1
70
8
71
3
72
8
73
4
74
0
42
1e-7
43
1e-7
44
1e-10
40
0
40
0
40
0
40
0
40
1
40
1
40
1
40
1
10
-1.0618290094024125
20
-2.8499271060522906
30
0
10
-1.1167268259808552
20
-2.7785322762711
30
0
10
-1.1916050111149876
20
-2.7346733904899736
30
0
10
-1.2864637952422946
20
-2.7183504186079497
30
0
0
SPLINE
5
45
330
11
100
AcDbEntity
100
AcDbSpline
8
Layer_2
210
0
220
0
230
1
70
8
71
3
72
8
73
4
74
0
42
1e-7
43
1e-7
44
1e-10
40
0
40
0
40
0
40
0
40
1
40
1
40
1
40
1
10
-1.2864637952422946
20
-2.7183504186079497
30
0
10
-1.3813225693359474
20
-2.7020273699134307
30
0
10
-1.4860757411884575
20
-2.7112809899601125
30
0
10
-1.600723310799825
20
-2.7461112787479944
30
0
0
SPLINE
5
46
330
11
100
AcDbEntity
100
AcDbSpline
8
Layer_2
210
0
220
0
230
1
70
8
71
3
72
8
73
4
74
0
42
1e-7
43
1e-7
44
1e-10
40
0
40
0
40
0
40
0
40
1
40
1
40
1
40
1
10
-1.600723310799825
20
-2.7461112787479944
30
0
10
-1.7153709355121505
20
-2.780941540807512
30
0
10
-1.8273336160721805
20
-2.8403703859071348
30
0
10
-1.936611322378953
20
-2.924397583609378
30
0
0
SPLINE
5
47
330
11
100
AcDbEntity
100
AcDbSpline
8
Layer_2
210
0
220
0
230
1
70
8
71
3
72
8
73
4
74
0
42
1e-7
43
1e-7
44
1e-10
40
0
40
0
40
0
40
0
40
1
40
1
40
1
40
1
10
-1.936611322378953
20
-2.924397583609378
30
0
10
-2.0502602124941465
20
-3.0117859273173027
30
0
10
-2.135615602748812
20
-3.113355630183066
30
0
10
-2.192677658445822
20
-3.229106612021575
30
0
0
SPLINE
5
48
330
11
100
AcDbEntity
100
AcDbSpline
8
Layer_2
210
0
220
0
230
1
70
8
71
3
72
8
73
4
74
0
42
1e-7
43
1e-7
44
1e-10
40
0
40
0
40
0
40
0
40
1
40
1
40
1
40
1
10
-2.192677658445822
20
-3.229106612021575
30
0
10
-2.249739691609181
20
-3.3448576456305137
30
0
10
-2.2766566622215634
20
-3.4606142681950227
30
0
10
-2.2734285702829706
20
-3.576376479715102
30
0
0
SPLINE
5
49
330
11
100
AcDbEntity
100
AcDbSpline
8
Layer_2
210
0
220
0
230
1
70
8
71
3
72
8
73
4
74
0
42
1e-7
43
1e-7
44
1e-10
40
0
40
0
40
0
40
0
40
1
40
1
40
1
40
1
10
-2.2734285702829706
20
-3.576376479715102
30
0
10
-2.270200344786696
20
-3.6921388649274802
30
0
10
-2.2355356100054777
20
-3.7930025151029265
30
0
10
-2.1694341737446203
20
-3.8789676970404052
30
0
0
SPLINE
5
4A
330
11
100
AcDbEntity
100
AcDbSpline
8
Layer_2
210
0
220
0
230
1
70
8
71
3
72
8
73
4
74
0
42
1e-7
43
1e-7
44
1e-10
40
0
40
0
40
0
40
0
40
1
40
1
40
1
40
1
10
-2.1694341737446203
20
-3.8789676970404052
30
0
10
-2.1044531194856564
20
-3.9634758177084106
30
0
10
-2.033976345586868
20
-4.023471066426043
30
0
10
-1.9580038601900807
20
-4.058953449453821
30
0
0
SPLINE
5
4B
330
11
100
AcDbEntity
100
AcDbSpline
8
Layer_2
210
0
220
0
230
1
70
8
71
3
72
8
73
4
74
0
42
1e-7
43
1e-7
44
1e-10
40
0
40
0
40
0
40
0
40
1
40
1
40
1
40
1
10
-1.9580038601900807
20
-4.058953449453821
30
0
10
-1.8820314027548295
20
-4.094435784884846
30
0
10
-1.7821847458695546
20
-4.105184585167455
30
0
10
-1.658463889534256
20
-4.091199850301649
30
0
0
SPLINE
5
4C
330
11
100
AcDbEntity
100
AcDbSpline
8
Layer_2
210
0
220
0
230
1
70
8
71
3
72
8
73
4
74
0
42
1e-7
43
1e-7
44
1e-10
40
0
40
0
40
0
40
0
40
1
40
1
40
1
40
1
10
-1.658463889534256
20
-4.091199850301649
30
0
10
-1.5758711367407576
20
-4.0810174880698895
30
0
10
-1.5007856492775427
20
-4.065594773893899
30
0
10
-1.433207427144611
20
-4.044931707773676
30
0
0
SPLINE
5
4D
330
11
100
AcDbEntity
100
AcDbSpline
8
Layer_2
210
0
220
0
230
1
70
8
71
3
72
8
73
4
74
0
42
1e-7
43
1e-7
44
1e-10
40
0
40
0
40
0
40
0
40
1
40
1
40
1
40
1
10
-1.433207427144611
20
-4.044931707773676
30
0
10
-1.3656292050116792
20
-4.024268641653453
30
0
10
-1.3094823534076896
20
-4.008338119536709
30
0
10
-1.2647668723326422
20
-3.9971401414234435
30
0
0
SPLINE
5
4E
330
11
100
AcDbEntity
100
AcDbSpline
8
Layer_2
210
0
220
0
230
1
70
8
71
3
72
8
73
4
74
0
42
1e-7
43
1e-7
44
1e-10
40
0
40
0
40
0
40
0
40
1
40
1
40
1
40
1
10
-1.2647668723326422
20
-3.9971401414234435
30
0
10
-1.2200514296638423
20
-3.985942158293351
30
0
10
-1.1904112929180881
20
-3.989813909668594
30
0
10
-1.1758465773141225
20
-4.008755380498691
30
0
0
SPLINE
5
4F
330
11
100
AcDbEntity
100
AcDbSpline
8
Layer_2
210
0
220
0
230
1
70
8
71
3
72
8
73
4
74
0
42
1e-7
43
1e-7
44
1e-10
40
0
40
0
40
0
40
0
40
1
40
1
40
1
40
1
10
-1.1758465773141225
20
-4.008755380498691
30
0
10
-1.1467171461061911
20
-4.046638322158885
30
0
10
-1.156193550640868
20
-4.0840657955154445
30
0
10
-1.204275758350847
20
-4.121037775526306
30
0
0
SPLINE
5
50
330
11
100
AcDbEntity
100
AcDbSpline
8
Layer_2
210
0
220
0
230
1
70
8
71
3
72
8
73
4
74
0
42
1e-7
43
1e-7
44
1e-10
40
0
40
0
40
0
40
0
40
1
40
1
40
1
40
1
10
-1.204275758350847
20
-4.121037775526306
30
0
10
-1.2348735239328967
20
-4.14456539689303
30
0
10
-1.2695319008370913
20
-4.159043124403938
30
0
10
-1.308250889063431
20
-4.164470958059034
30
0
0
SPLINE
5
51
330
11
100
AcDbEntity
100
AcDbSpline
8
Layer_2
210
0
220
0
230
1
70
8
71
3
72
8
73
4
74
0
42
1e-7
43
1e-7
44
1e-10
40
0
40
0
40
0
40
0
40
1
40
1
40
1
40
1
10
-1.308250889063431
20
-4.164470958059034
30
0
10
-1.346969899001308
20
-4.169898808408839
30
0
10
-1.3882387010261517
20
-4.177287277177828
30
0
10
-1.4320572951379622
20
-4.1866363643660005
30
0
0
SPLINE
5
52
330
11
100
AcDbEntity
100
AcDbSpline
8
Layer_2
210
0
220
0
230
1
70
8
71
3
72
8
73
4
74
0
42
1e-7
43
1e-7
44
1e-10
40
0
40
0
40
0
40
0
40
1
40
1
40
1
40
1
10
-1.4320572951379622
20
-4.1866363643660005
30
0
10
-1.4758759109613102
20
-4.195985468248883
30
0
10
-1.522554842506942
20
-4.219706192849347
30
0
10
-1.5720940897748572
20
-4.257798538167391
30
0
0
SPLINE
5
53
330
11
100
AcDbEntity
100
AcDbSpline
8
Layer_2
210
0
220
0
230
1
70
8
71
3
72
8
73
4
74
0
42
1e-7
43
1e-7
44
1e-10
40
0
40
0
40
0
40
0
40
1
40
1
40
1
40
1
10
-1.5720940897748572
20
-4.257798538167391
30
0
10
-1.626004434005044
20
-4.299251962712276
30
0
10
-1.658372562058913
20
-4.351383482332965
30
0
10
-1.669198473936464
20
-4.414193097029459
30
0
0
SPLINE
5
54
330
11
100
AcDbEntity
100
AcDbSpline
8
Layer_2
210
0
220
0
230
1
70
8
71
3
72
8
73
4
74
0
42
1e-7
43
1e-7
44
1e-10
40
0
40
0
40
0
40
0
40
1
40
1
40
1
40
1
10
-1.669198473936464
20
-4.414193097029459
30
0
10
-1.6800243664053627
20
-4.477002731350652
30
0
10
-1.6619096912730884
20
-4.539005314093297
30
0
10
-1.6148544485396408
20
-4.600200845257397
30
0
0
SPLINE
5
55
330
11
100
AcDbEntity
100
AcDbSpline
8
Layer_2
210
0
220
0
230
1
70
8
71
3
72
8
73
4
74
0
42
1e-7
43
1e-7
44
1e-10
40
0
40
0
40
0
40
0
40
1
40
1
40
1
40
1
10
-1.6148544485396408
20
-4.600200845257397
30
0
10
-1.5767621115689514
20
-4.649740081669544
30
0
10
-1.5261993780901304
20
-4.681575619806959
30
0
10
-1.4631662524823839
20
-4.695707437125474
30
0
0
SPLINE
5
56
330
11
100
AcDbEntity
100
AcDbSpline
8
Layer_2
210
0
220
0
230
1
70
8
71
3
72
8
73
4
74
0
42
1e-7
43
1e-7
44
1e-10
40
0
40
0
40
0
40
0
40
1
40
1
40
1
40
1
10
-1.4631662524823839
20
-4.695707437125474
30
0
10
-1.4001331335567284
20
-4.709839268219229
30
0
10
-1.3302894238810532
20
-4.7094601264397475
30
0
10
-1.2536351234553587
20
-4.694570011787031
30
0
0
SPLINE
5
57
330
11
100
AcDbEntity
100
AcDbSpline
8
Layer_2
210
0
220
0
230
1
70
8
71
3
72
8
73
4
74
0
42
1e-7
43
1e-7
44
1e-10
40
0
40
0
40
0
40
0
40
1
40
1
40
1
40
1
10
-1.2536351234553587
20
-4.694570011787031
30
0
10
-1.1769808405675237
20
-4.679679919256908
30
0
10
-1.0985314287833254
20
-4.653555780431162
30
0
10
-1.0182868881027634
20
-4.616197595309793
30
0
0
SPLINE
5
58
330
11
100
AcDbEntity
100
AcDbSpline
8
Layer_2
210
0
220
0
230
1
70
8
71
3
72
8
73
4
74
0
42
1e-7
43
1e-7
44
1e-10
40
0
40
0
40
0
40
0
40
1
40
1
40
1
40
1
10
0.018258138950584257
20
-3.8000364747904354
30
0
10
0.094073545096924
20
-3.7765173369541167
30
0
10
0.1676786522049205
20
-3.737308868094091
30
0
10
0.23907346027457388
20
-3.682411068210359
30
0
0
SPLINE
5
59
330
11
100
AcDbEntity
100
AcDbSpline
8
Layer_2
210
0
220
0
230
1
70
8
71
3
72
8
73
4
74
0
42
1e-7
43
1e-7
44
1e-10
40
0
40
0
40
0
40
0
40
1
40
1
40
1
40
1
10
0.23907346027457388
20
-3.682411068210359
30
0
10
0.3060971279588811
20
-3.6308743809428874
30
0
10
0.3565346415300764
20
-3.583396878249806
30
0
10
0.3903860009881597
20
-3.5399785601311144
30
0
0
SPLINE
5
5A
330
11
100
AcDbEntity
100
AcDbSpline
8
Layer_2
210
0
220
0
230
1
70
8
71
3
72
8
73
4
74
0
42
1e-7
43
1e-7
44
1e-10
40
0
40
0
40
0
40
0
40
1
40
1
40
1
40
1
10
0.3903860009881597
20
-3.5399785601311144
30
0
10
0.42423736044624294
20
-3.496560242012423
30
0
10
0.4508049304701608
20
-3.4512074767837935
30
0
10
0.47008871105991346
20
-3.403920264445225
30
0
0
SPLINE
5
5B
330
11
100
AcDbEntity
100
AcDbSpline
8
Layer_2
210
0
220
0
230
1
70
8
71
3
72
8
73
4
74
0
42
1e-7
43
1e-7
44
1e-10
40
0
40
0
40
0
40
0
40
1
40
1
40
1
40
1
10
0.47008871105991346
20
-3.403920264445225
30
0
10
0.5065089580285693
20
-3.406056309822613
30
0
10
0.5401282969463636
20
-3.404549763090015
30
0
10
0.5709467945130366
20
-3.399400576198758
30
0
0
SPLINE
5
5C
330
11
100
AcDbEntity
100
AcDbSpline
8
Layer_2
210
0
220
0
230
1
70
8
71
3
72
8
73
4
74
0
42
1e-7
43
1e-7
44
1e-10
40
0
40
0
40
0
40
0
40
1
40
1
40
1
40
1
10
0.5709467945130366
20
-3.399400576198758
30
0
10
0.6017652277276624
20
-3.39425144040936
30
0
10
0.63611591477379
20
-3.3771121564018314
30
0
10
0.6739989215685958
20
-3.3479826751097694
30
0
0
SPLINE
5
5D
330
11
100
AcDbEntity
100
AcDbSpline
8
Layer_2
210
0
220
0
230
1
70
8
71
3
72
8
73
4
74
0
42
1e-7
43
1e-7
44
1e-10
40
0
40
0
40
0
40
0
40
1
40
1
40
1
40
1
10
0.6739989215685958
20
-3.3479826751097694
30
0
10
0.7235381579807424
20
-3.30989033813908
30
0
10
0.7497414301199857
20
-3.264817693452989
30
0
10
0.7526088007732445
20
-3.2127646879141807
30
0
0
SPLINE
5
5E
330
11
100
AcDbEntity
100
AcDbSpline
8
Layer_2
210
0
220
0
230
1
70
8
71
3
72
8
73
4
74
0
42
1e-7
43
1e-7
44
1e-10
40
0
40
0
40
0
40
0
40
1
40
1
40
1
40
1
10
0.7526088007732445
20
-3.2127646879141807
30
0
10
0.7554761763827456
20
-3.1607116888209847
30
0
10
0.7412247791026695
20
-3.1142866734584693
30
0
10
0.709854608933016
20
-3.0734896418266344
30
0
0
SPLINE
5
5F
330
11
100
AcDbEntity
100
AcDbSpline
8
Layer_2
210
0
220
0
230
1
70
8
71
3
72
8
73
4
74
0
42
1e-7
43
1e-7
44
1e-10
40
0
40
0
40
0
40
0
40
1
40
1
40
1
40
1
10
0.709854608933016
20
-3.0734896418266344
30
0
10
0.6908084404476713
20
-3.048720023620561
30
0
10
0.6668585683836329
20
-3.028880277146477
30
0
10
0.6380049927409006
20
-3.0139704024043823
30
0
0
SPLINE
5
60
330
11
100
AcDbEntity
100
AcDbSpline
8
Layer_2
210
0
220
0
230
1
70
8
71
3
72
8
73
4
74
0
42
1e-7
43
1e-7
44
1e-10
40
0
40
0
40
0
40
0
40
1
40
1
40
1
40
1
10
0.6380049927409006
20
-3.0139704024043823
30
0
10
0.609151429619201
20
-2.999060543945941
30
0
10
0.5778031638586751
20
-2.990705959355924
30
0
10
0.5439603382495795
20
-2.9889065647497235
30
0
0
SPLINE
5
61
330
11
100
AcDbEntity
100
AcDbSpline
8
Layer_2
210
0
220
0
230
1
70
8
71
3
72
8
73
4
74
0
42
1e-7
43
1e-7
44
1e-10
40
0
40
0
40
0
40
0
40
1
40
1
40
1
40
1
10
0.5439603382495795
20
-2.9889065647497235
30
0
10
0.5391478176108777
20
-2.9555107375652967
30
0
10
0.524503179650532
20
-2.9146047683429397
30
0
10
0.5000263592339309
20
-2.8661887071667826
30
0
0
SPLINE
5
62
330
11
100
AcDbEntity
100
AcDbSpline
8
Layer_2
210
0
220
0
230
1
70
8
71
3
72
8
73
4
74
0
42
1e-7
43
1e-7
44
1e-10
40
0
40
0
40
0
40
0
40
1
40
1
40
1
40
1
10
0.5000263592339309
20
-2.8661887071667826
30
0
10
0.47554953881732986
20
-2.8177726459906256
30
0
10
0.4442649275563784
20
-2.768795022238539
30
0
10
0.406172590585689
20
-2.7192557858263924
30
0
0
SPLINE
5
63
330
11
100
AcDbEntity
100
AcDbSpline
8
Layer_2
210
0
220
0
230
1
70
8
71
3
72
8
73
4
74
0
42
1e-7
43
1e-7
44
1e-10
40
0
40
0
40
0
40
0
40
1
40
1
40
1
40
1
10
0.406172590585689
20
-2.7192557858263924
30
0
10
0.33783041536310926
20
-2.6303765139172723
30
0
10
0.25485993264215245
20
-2.56317889175839
30
0
10
0.15726113243123452
20
-2.517662771563697
30
0
0
SPLINE
5
64
330
11
100
AcDbEntity
100
AcDbSpline
8
Layer_2
210
0
220
0
230
1
70
8
71
3
72
8
73
4
74
0
42
1e-7
43
1e-7
44
1e-10
40
0
40
0
40
0
40
0
40
1
40
1
40
1
40
1
10
0.15726113243123452
20
-2.517662771563697
30
0
10
0.0596622670857046
20
-2.4721467014531346
30
0
10
-0.04814010173647171
20
-2.457081962543109
30
0
10
-0.16614597403529396
20
-2.47246855483362
30
0
0
SPLINE
5
65
330
11
100
AcDbEntity
100
AcDbSpline
8
Layer_2
210
0
220
0
230
1
70
8
71
3
72
8
73
4
74
0
42
1e-7
43
1e-7
44
1e-10
40
0
40
0
40
0
40
0
40
1
40
1
40
1
40
1
10
-0.16614597403529396
20
-2.47246855483362
30
0
10
-0.28415185636777046
20
-2.4878552239366263
30
0
10
-0.4079929167371801
20
-2.5454047061421807
30
0
10
-0.5376691551435231
20
-2.6451170014502834
30
0
0
SPLINE
5
66
330
11
100
AcDbEntity
100
AcDbSpline
8
Layer_2
210
0
220
0
230
1
70
8
71
3
72
8
73
4
74
0
42
1e-7
43
1e-7
44
1e-10
40
0
40
0
40
0
40
0
40
1
40
1
40
1
40
1
10
-0.5376691551435231
20
-2.6451170014502834
30
0
10
-0.5813802441796934
20
-2.6787278855395935
30
0
10
-0.6229913403129022
20
-2.7188388713977516
30
0
10
-0.6625025261945859
20
-2.76544991893221
30
0
0
SPLINE
5
67
330
11
100
AcDbEntity
100
AcDbSpline
8
Layer_2
210
0
220
0
230
1
70
8
71
3
72
8
73
4
74
0
42
1e-7
43
1e-7
44
1e-10
40
0
40
0
40
0
40
0
40
1
40
1
40
1
40
1
10
-0.6625025261945859
20
-2.76544991893221
30
0
10
-0.7020136795089638
20
-2.8120609414246034
30
0
10
-0.7337650321781936
20
-2.861979334440149
30
0
10
-0.757756634286406
20
-2.9152050328442347
30
0
0
SPLINE
5
68
330
11
100
AcDbEntity
100
AcDbSpline
8
Layer_2
210
0
220
0
230
1
70
8
71
3
72
8
73
4
74
0
42
1e-7
43
1e-7
44
1e-10
40
0
40
0
40
0
40
0
40
1
40
1
40
1
40
1
10
-0.757756634286406
20
-2.9152050328442347
30
0
10
-0.7817481863104879
20
-2.968430796382932
30
0
10
-0.7938889733586293
20
-3.0212384589829124
30
0
10
-0.7941789196880485
20
-3.0736281696949477
30
0
0
SPLINE
5
69
330
11
100
AcDbEntity
100
AcDbSpline
8
Layer_2
210
0
220
0
230
1
70
8
71
3
72
8
73
4
74
0
42
1e-7
43
1e-7
44
1e-10
40
0
40
0
40
0
40
0
40
1
40
1
40
1
40
1
10
-0.7941789196880485
20
-3.0736281696949477
30
0
10
-0.7944689161015984
20
-3.126017815272371
30
0
10
-0.7772482436996734
20
-3.1747967620648634
30
0
10
-0.7425170026505346
20
-3.219964879803201
30
0
0
SPLINE
5
6A
330
11
100
AcDbEntity
100
AcDbSpline
8
Layer_2
210
0
220
0
230
1
70
8
71
3
72
8
73
4
74
0
42
1e-7
43
1e-7
44
1e-10
40
0
40
0
40
0
40
0
40
1
40
1
40
1
40
1
10
-0.7425170026505346
20
-3.219964879803201
30
0
10
-0.7044246656798452
20
-3.2695041162153475
30
0
10
-0.6626579071597799
20
-3.2959309362676823
30
0
10
-0.6172167311612523
20
-3.299245343090463
30
0
0
SPLINE
5
6B
330
11
100
AcDbEntity
100
AcDbSpline
8
Layer_2
210
0
220
0
230
1
70
8
71
3
72
8
73
4
74
0
42
1e-7
43
1e-7
44
1e-10
40
0
40
0
40
0
40
0
40
1
40
1
40
1
40
1
10
-0.6172167311612523
20
-3.299245343090463
30
0
10
-0.5717756011759421
20
-3.3025596816483738
30
0
10
-0.5264709109463346
20
-3.2868512830163388
30
0
10
-0.48130277692434376
20
-3.2521200294461674
30
0
0
SPLINE
5
6C
330
11
100
AcDbEntity
100
AcDbSpline
8
Layer_2
210
0
220
0
230
1
70
8
71
3
72
8
73
4
74
0
42
1e-7
43
1e-7
44
1e-10
40
0
40
0
40
0
40
0
40
1
40
1
40
1
40
1
10
-0.48130277692434376
20
-3.2521200294461674
30
0
10
-0.45070500048652534
20
-3.2285923997320887
30
0
10
-0.42826028563118484
20
-3.207276497919267
30
0
10
-0.41396863235832226
20
-3.1881723240077027
30
0
0
SPLINE
5
6D
330
11
100
AcDbEntity
100
AcDbSpline
8
Layer_2
210
0
220
0
230
1
70
8
71
3
72
8
73
4
74
0
42
1e-7
43
1e-7
44
1e-10
40
0
40
0
40
0
40
0
40
1
40
1
40
1
40
1
10
-0.41396863235832226
20
-3.1881723240077027
30
0
10
-0.39967689643402304
20
-3.169068190188685
30
0
10
-0.3880467986400514
20
-3.150271705352623
30
0
10
-0.37907822375766487
20
-3.131782884549999
30
0
0
SPLINE
5
6E
330
11
100
AcDbEntity
100
AcDbSpline
8
Layer_2
210
0
220
0
230
1
70
8
71
3
72
8
73
4
74
0
42
1e-7
43
1e-7
44
1e-10
40
0
40
0
40
0
40
0
40
1
40
1
40
1
40
1
10
-0.37907822375766487
20
-3.131782884549999
30
0
10
-0.3701097315267149
20
-3.1132940236548277
30
0
10
-0.35847955108130686
20
-3.0944975789113127
30
0
10
-0.3441878978084443
20
-3.0753934049997484
30
0
0
SPLINE
5
6F
330
11
100
AcDbEntity
100
AcDbSpline
8
Layer_2
210
0
220
0
230
1
70
8
71
3
72
8
73
4
74
0
42
1e-7
43
1e-7
44
1e-10
40
0
40
0
40
0
40
0
40
1
40
1
40
1
40
1
10
-0.3441878978084443
20
-3.0753934049997484
30
0
10
-0.32989620111250706
20
-3.0562891976987636
30
0
10
-0.30672296105031405
20
-3.034413109058673
30
0
10
-0.27466817762186535
20
-3.0097651390794757
30
0
0
SPLINE
5
70
330
11
100
AcDbEntity
100
AcDbSpline
8
Layer_2
210
0
220
0
230
1
70
8
71
3
72
8
73
4
74
0
42
1e-7
43
1e-7
44
1e-10
40
0
40
0
40
0
40
0
40
1
40
1
40
1
40
1
10
-0.27466817762186535
20
-3.0097651390794757
30
0
10
-0.20618747037962182
20
-2.9571080865048205
30
0
10
-0.1483020127960929
20
-2.932885204723258
30
0
10
-0.10101197017415209
20
-2.9370964135496953
30
0
0
SPLINE
5
71
330
11
100
AcDbEntity
100
AcDbSpline
8
Layer_2
210
0
220
0
230
1
70
8
71
3
72
8
73
4
74
0
42
1e-7
43
1e-7
44
1e-10
40
0
40
0
40
0
40
0
40
1
40
1
40
1
40
1
10
-0.10101197017415209
20
-2.9370964135496953
30
0
10
-0.053721992686823254
20
-2.941307672460263
30
0
10
-0.01719274612329122
20
-2.960169195891915
30
0
10
0.008575614205154736
20
-2.993681051445606
30
0
0
SPLINE
5
72
330
11
100
AcDbEntity
100
AcDbSpline
8
Layer_2
210
0
220
0
230
1
70
8
71
3
72
8
73
4
74
0
42
1e-7
43
1e-7
44
1e-10
40
0
40
0
40
0
40
0
40
1
40
1
40
1
40
1
10
0.008575614205154736
20
-2.993681051445606
30
0
10
-0.011259908617307652
20
-2.9950221344299464
30
0
10
-0.0411829591396965
20
-3.005858662993591
30
0
10
-0.0811934622358157
20
-3.0261907348384582
30
0
0
SPLINE
5
73
330
11
100
AcDbEntity
100
AcDbSpline
8
Layer_2
210
0
220
0
230
1
70
8
71
3
72
8
73
4
74
0
42
1e-7
43
1e-7
44
1e-10
40
0
40
0
40
0
40
0
40
1
40
1
40
1
40
1
10
-0.0811934622358157
20
-3.0261907348384582
30
0
10
-0.1212039327646289
20
-3.04652278164126
30
0
10
-0.16233623952175502
20
-3.0729340485611285
30
0
10
-0.2045902998557576
20
-3.1054245756906105
30
0
0
SPLINE
5
74
330
11
100
AcDbEntity
100
AcDbSpline
8
Layer_2
210
0
220
0
230
1
70
8
71
3
72
8
73
4
74
0
42
1e-7
43
1e-7
44
1e-10
40
0
40
0
40
0
40
0
40
1
40
1
40
1
40
1
10
-0.2045902998557576
20
-3.1054245756906105
30
0
10
-0.27598509706964236
20
-3.160322367226988
30
0
10
-0.33278476682837105
20
-3.2213863744987283
30
0
10
-0.3749892840898783
20
-3.2886166300731388
30
0
0
SPLINE
5
75
330
11
100
AcDbEntity
100
AcDbSpline
8
Layer_2
210
0
220
0
230
1
70
8
71
3
72
8
73
4
74
0
42
1e-7
43
1e-7
44
1e-10
40
0
40
0
40
0
40
0
40
1
40
1
40
1
40
1
10
-0.3749892840898783
20
-3.2886166300731388
30
0
10
-0.41719381763503854
20
-3.355846898168582
30
0
10
-0.44009545835096003
20
-3.4233048678485356
30
0
10
-0.44369417243716514
20
-3.490990616768645
30
0
0
SPLINE
5
76
330
11
100
AcDbEntity
100
AcDbSpline
8
Layer_2
210
0
220
0
230
1
70
8
71
3
72
8
73
4
74
0
42
1e-7
43
1e-7
44
1e-10
40
0
40
0
40
0
40
0
40
1
40
1
40
1
40
1
10
-0.44369417243716514
20
-3.490990616768645
30
0
10
-0.44729288672889883
20
-3.5586763485724693
30
0
10
-0.42668497946787043
20
-3.6216599513542636
30
0
10
-0.38187045065407976
20
-3.679941425114028
30
0
0
SPLINE
5
77
330
11
100
AcDbEntity
100
AcDbSpline
8
Layer_2
210
0
220
0
230
1
70
8
71
3
72
8
73
4
74
0
42
1e-7
43
1e-7
44
1e-10
40
0
40
0
40
0
40
0
40
1
40
1
40
1
40
1
10
-0.38187045065407976
20
-3.679941425114028
30
0
10
-0.3292133897320696
20
-3.74842214321204
30
0
10
-0.2683148857557586
20
-3.7914379538686784
30
0
10
-0.1991749387251469
20
-3.808988857083943
30
0
0
SPLINE
5
78
330
11
100
AcDbEntity
100
AcDbSpline
8
Layer_2
210
0
220
0
230
1
70
8
71
3
72
8
73
4
74
0
42
1e-7
43
1e-7
44
1e-10
40
0
40
0
40
0
40
0
40
1
40
1
40
1
40
1
10
-0.1991749387251469
20
-3.808988857083943
30
0
10
-0.13003498355270868
20
-3.8265397540386914
30
0
10
-0.057557290994131594
20
-3.823555626607522
30
0
10
0.018258138950584257
20
-3.8000364747904354
30
0
0
SPLINE
5
79
330
11
100
AcDbEntity
100
AcDbSpline
8
Layer_2
210
0
220
0
230
1
70
8
71
3
72
8
73
4
74
0
42
1e-7
43
1e-7
44
1e-10
40
0
40
0
40
0
40
0
40
1
40
1
40
1
40
1
10
0.17248602584637696
20
-3.349317573945247
30
0
10
0.16637353550941195
20
-3.37604362071936
30
0
10
0.1465613988940101
20
-3.402290770423888
30
0
10
0.11304954334031914
20
-3.428059130752334
30
0
0
SPLINE
5
7A
330
11
100
AcDbEntity
100
AcDbSpline
8
Layer_2
210
0
220
0
230
1
70
8
71
3
72
8
73
4
74
0
42
1e-7
43
1e-7
44
1e-10
40
0
40
0
40
0
40
0
40
1
40
1
40
1
40
1
10
0.11304954334031914
20
-3.428059130752334
30
0
10
0.08099474905610178
20
-3.452707109078886
30
0
10
0.050903416509294454
20
-3.464832366803455
30
0
10
0.022775520657831727
20
-3.464434871358735
30
0
0
SPLINE
5
7B
330
11
100
AcDbEntity
100
AcDbSpline
8
Layer_2
210
0
220
0
230
1
70
8
71
3
72
8
73
4
74
0
42
1e-7
43
1e-7
44
1e-10
40
0
40
0
40
0
40
0
40
1
40
1
40
1
40
1
10
0.022775520657831727
20
-3.464434871358735
30
0
10
-0.005352355990507235
20
-3.4640373784224288
30
0
10
-0.026138473636745242
20
-3.4550964108903113
30
0
10
-0.03958283228088244
20
-3.437611968762382
30
0
0
SPLINE
5
7C
330
11
100
AcDbEntity
100
AcDbSpline
8
Layer_2
210
0
220
0
230
1
70
8
71
3
72
8
73
4
74
0
42
1e-7
43
1e-7
44
1e-10
40
0
40
0
40
0
40
0
40
1
40
1
40
1
40
1
10
-0.03958283228088244
20
-3.437611968762382
30
0
10
-0.05302719092501964
20
-3.4201275266344524
30
0
10
-0.05632889232854343
20
-3.397742211725023
30
0
10
-0.04948790392414759
20
-3.3704559989920284
30
0
0
SPLINE
5
7D
330
11
100
AcDbEntity
100
AcDbSpline
8
Layer_2
210
0
220
0
230
1
70
8
71
3
72
8
73
4
74
0
42
1e-7
43
1e-7
44
1e-10
40
0
40
0
40
0
40
0
40
1
40
1
40
1
40
1
10
-0.04948790392414759
20
-3.3704559989920284
30
0
10
-0.042646890477686446
20
-3.34316981882634
30
0
10
-0.023199011654412557
20
-3.3172027070129135
30
0
10
0.008855782629804798
20
-3.2925547286863615
30
0
0
SPLINE
5
7E
330
11
100
AcDbEntity
100
AcDbSpline
8
Layer_2
210
0
220
0
230
1
70
8
71
3
72
8
73
4
74
0
42
1e-7
43
1e-7
44
1e-10
40
0
40
0
40
0
40
0
40
1
40
1
40
1
40
1
10
0.008855782629804798
20
-3.2925547286863615
30
0
10
0.042367638183495746
20
-3.2667863683579155
30
0
10
0.07282322852243103
20
-3.2543810727422446
30
0
10
0.10022260126439764
20
-3.25533870157854
30
0
0
SPLINE
5
7F
330
11
100
AcDbEntity
100
AcDbSpline
8
Layer_2
210
0
220
0
230
1
70
8
71
3
72
8
73
4
74
0
42
1e-7
43
1e-7
44
1e-10
40
0
40
0
40
0
40
0
40
1
40
1
40
1
40
1
10
0.10022260126439764
20
-3.25533870157854
30
0
10
0.12762199904842955
20
-3.256296362982142
30
0
10
0.148043844695208
20
-3.2655174397899724
30
0
10
0.16148820333934522
20
-3.283001881917902
30
0
0
SPLINE
5
80
330
11
100
AcDbEntity
100
AcDbSpline
8
Layer_2
210
0
220
0
230
1
70
8
71
3
72
8
73
4
74
0
42
1e-7
43
1e-7
44
1e-10
40
0
40
0
40
0
40
0
40
1
40
1
40
1
40
1
10
0.16148820333934522
20
-3.283001881917902
30
0
10
0.17493256198348242
20
-3.3004863240458313
30
0
10
0.17859851618334197
20
-3.322591527171134
30
0
10
0.17248602584637696
20
-3.349317573945247
30
0
0
SPLINE
5
81
330
11
100
AcDbEntity
100
AcDbSpline
8
Layer_2
210
0
220
0
230
1
70
8
71
3
72
8
73
4
74
0
42
1e-7
43
1e-7
44
1e-10
40
0
40
0
40
0
40
0
40
1
40
1
40
1
40
1
10
0.9913393062168532
20
-3.025719223578741
30
0
10
1.0478737717611388
20
-3.0344147361300244
30
0
10
1.100910622739355
20
-3.0197163239203215
30
0
10
1.1504498591515016
20
-2.981623986949632
30
0
0
SPLINE
5
82
330
11
100
AcDbEntity
100
AcDbSpline
8
Layer_2
210
0
220
0
230
1
70
8
71
3
72
8
73
4
74
0
42
1e-7
43
1e-7
44
1e-10
40
0
40
0
40
0
40
0
40
1
40
1
40
1
40
1
10
1.1504498591515016
20
-2.981623986949632
30
0
10
1.2029031746795207
20
-2.9412909193645755
30
0
10
1.2331685099194998
20
-2.897731861499022
30
0
10
1.241245864871439
20
-2.8509468133529716
30
0
0
SPLINE
5
83
330
11
100
AcDbEntity
100
AcDbSpline
8
Layer_2
210
0
220
0
230
1
70
8
71
3
72
8
73
4
74
0
42
1e-7
43
1e-7
44
1e-10
40
0
40
0
40
0
40
0
40
1
40
1
40
1
40
1
10
1.241245864871439
20
-2.8509468133529716
30
0
10
1.2493231939381635
20
-2.804161776473747
30
0
10
1.2431406596189847
20
-2.7561693902651956
30
0
10
1.2226982619139024
20
-2.706969654727318
30
0
0
SPLINE
5
84
330
11
100
AcDbEntity
100
AcDbSpline
8
Layer_2
210
0
220
0
230
1
70
8
71
3
72
8
73
4
74
0
42
1e-7
43
1e-7
44
1e-10
40
0
40
0
40
0
40
0
40
1
40
1
40
1
40
1
10
1.2226982619139024
20
-2.706969654727318
30
0
10
1.2022559009498037
20
-2.6577698995752597
30
0
10
1.1760419237632556
20
-2.6101099550836278
30
0
10
1.1440564080099027
20
-2.5639897874519453
30
0
0
SPLINE
5
85
330
11
100
AcDbEntity
100
AcDbSpline
8
Layer_2
210
0
220
0
230
1
70
8
71
3
72
8
73
4
74
0
42
1e-7
43
1e-7
44
1e-10
40
0
40
0
40
0
40
0
40
1
40
1
40
1
40
1
10
1.1440564080099027
20
-2.5639897874519453
30
0
10
1.1120708922565499
20
-2.517869619820263
30
0
10
1.0815134475805936
20
-2.4758680689369457
30
0
10
1.052383991330597
20
-2.437985094709446
30
0
0
SPLINE
5
86
330
11
100
AcDbEntity
100
AcDbSpline
8
Layer_2
210
0
220
0
230
1
70
8
71
3
72
8
73
4
74
0
42
1e-7
43
1e-7
44
1e-10
40
0
40
0
40
0
40
0
40
1
40
1
40
1
40
1
10
1.052383991330597
20
-2.437985094709446
30
0
10
0.9963658428343913
20
-2.3651332687933935
30
0
10
0.9740512030728745
20
-2.2901305353269015
30
0
10
0.985440129655418
20
-2.212976901835211
30
0
0
SPLINE
5
87
330
11
100
AcDbEntity
100
AcDbSpline
8
Layer_2
210
0
220
0
230
1
70
8
71
3
72
8
73
4
74
0
42
1e-7
43
1e-7
44
1e-10
40
0
40
0
40
0
40
0
40
1
40
1
40
1
40
1
10
0.985440129655418
20
-2.212976901835211
30
0
10
0.9968290203401277
20
-2.135823244123569
30
0
10
1.0294786432254597
20
-2.0765196988216292
30
0
10
1.083388998311415
20
-2.035066265929389
30
0
0
SPLINE
5
88
330
11
100
AcDbEntity
100
AcDbSpline
8
Layer_2
210
0
220
0
230
1
70
8
71
3
72
8
73
4
74
0
42
1e-7
43
1e-7
44
1e-10
40
0
40
0
40
0
40
0
40
1
40
1
40
1
40
1
10
1.083388998311415
20
-2.035066265929389
30
0
10
1.1037875304109857
20
-2.01938116832353
30
0
10
1.123512653891266
20
-2.0088508921257926
30
0
10
1.1425644839709985
20
-2.00347545238666
30
0
0
SPLINE
5
89
330
11
100
AcDbEntity
100
AcDbSpline
8
Layer_2
210
0
220
0
230
1
70
8
71
3
72
8
73
4
74
0
42
1e-7
43
1e-7
44
1e-10
40
0
40
0
40
0
40
0
40
1
40
1
40
1
40
1
10
1.1425644839709985
20
-2.00347545238666
30
0
10
1.1616163291012123
20
-1.998099897428785
30
0
10
1.1816767602740896
20
-1.992528499438768
30
0
10
1.202745792540112
20
-1.9867611431978665
30
0
0
SPLINE
5
8A
330
11
100
AcDbEntity
100
AcDbSpline
8
Layer_2
210
0
220
0
230
1
70
8
71
3
72
8
73
4
74
0
42
1e-7
43
1e-7
44
1e-10
40
0
40
0
40
0
40
0
40
1
40
1
40
1
40
1
10
1.202745792540112
20
-1.9867611431978665
30
0
10
1.223814809755653
20
-1.9809939021757075
30
0
10
1.2467341262332887
20
-1.9685870947242452
30
0
10
1.271503777006668
20
-1.9495409011968352
30
0
0
SPLINE
5
8B
330
11
100
AcDbEntity
100
AcDbSpline
8
Layer_2
210
0
220
0
230
1
70
8
71
3
72
8
73
4
74
0
42
1e-7
43
1e-7
44
1e-10
40
0
40
0
40
0
40
0
40
1
40
1
40
1
40
1
10
1.271503777006668
20
-1.9495409011968352
30
0
10
1.328328211208496
20
-1.9058467376902282
30
0
10
1.3578388499580685
20
-1.8530142872703474
30
0
10
1.3600356932553863
20
-1.7910435499371933
30
0
0
SPLINE
5
8C
330
11
100
AcDbEntity
100
AcDbSpline
8
Layer_2
210
0
220
0
230
1
70
8
71
3
72
8
73
4
74
0
42
1e-7
43
1e-7
44
1e-10
40
0
40
0
40
0
40
0
40
1
40
1
40
1
40
1
10
1.3600356932553863
20
-1.7910435499371933
30
0
10
1.3622325031632838
20
-1.7290727691809644
30
0
10
1.3470856528998472
20
-1.6769603594916174
30
0
10
1.3145951424650755
20
-1.6347063208691521
30
0
0
SPLINE
5
8D
330
11
100
AcDbEntity
100
AcDbSpline
8
Layer_2
210
0
220
0
230
1
70
8
71
3
72
8
73
4
74
0
42
1e-7
43
1e-7
44
1e-10
40
0
40
0
40
0
40
0
40
1
40
1
40
1
40
1
10
1.3145951424650755
20
-1.6347063208691521
30
0
10
1.276502805494386
20
-1.5851670844570056
30
0
10
1.2255758113856956
20
-1.5536116900386605
30
0
10
1.1618141751894857
20
-1.5400400223953739
30
0
0
SPLINE
5
8E
330
11
100
AcDbEntity
100
AcDbSpline
8
Layer_2
210
0
220
0
230
1
70
8
71
3
72
8
73
4
74
0
42
1e-7
43
1e-7
44
1e-10
40
0
40
0
40
0
40
0
40
1
40
1
40
1
40
1
10
1.1618141751894857
20
-1.5400400223953739
30
0
10
1.0980525389932758
20
-1.5264683547520872
30
0
10
1.0334477829690025
20
-1.5268765516316933
30
0
10
0.9679999873017602
20
-1.54126444773132
30
0
0
SPLINE
5
8F
330
11
100
AcDbEntity
100
AcDbSpline
8
Layer_2
210
0
220
0
230
1
70
8
71
3
72
8
73
4
74
0
42
1e-7
43
1e-7
44
1e-10
40
0
40
0
40
0
40
0
40
1
40
1
40
1
40
1
10
0.9679999873017602
20
-1.54126444773132
30
0
10
0.9025521264999058
20
-1.5556523939150773
30
0
10
0.8465156466876196
20
-1.580772095881036
30
0
10
0.7998904676798082
20
-1.6166237189320687
30
0
0
SPLINE
5
90
330
11
100
AcDbEntity
100
AcDbSpline
8
Layer_2
210
0
220
0
230
1
70
8
71
3
72
8
73
4
74
0
42
1e-7
43
1e-7
44
1e-10
40
0
40
0
40
0
40
0
40
1
40
1
40
1
40
1
10
0.7998904676798082
20
-1.6166237189320687
30
0
10
0.7445230513243791
20
-1.6591975338262024
30
0
10
0.6962987335058974
20
-1.7072917895039852
30
0
10
0.6552173338710086
20
-1.7609065209990664
30
0
0
SPLINE
5
91
330
11
100
AcDbEntity
100
AcDbSpline
8
Layer_2
210
0
220
0
230
1
70
8
71
3
72
8
73
4
74
0
42
1e-7
43
1e-7
44
1e-10
40
0
40
0
40
0
40
0
40
1
40
1
40
1
40
1
10
0.6552173338710086
20
-1.7609065209990664
30
0
10
0.6141359668034256
20
-1.8145212274520823
30
0
10
0.5886031912182159
20
-1.8695116762011443
30
0
10
0.5786189895985547
20
-1.9258777770695747
30
0
0
SPLINE
5
92
330
11
100
AcDbEntity
100
AcDbSpline
8
Layer_2
210
0
220
0
230
1
70
8
71
3
72
8
73
4
74
0
42
1e-7
43
1e-7
44
1e-10
40
0
40
0
40
0
40
0
40
1
40
1
40
1
40
1
10
0.5786189895985547
20
-1.9258777770695747
30
0
10
0.5418677030448996
20
-1.8961740885219558
30
0
10
0.5004623665239766
20
-1.8845396856580976
30
0
10
0.4544030150694345
20
-1.890974748831355
30
0
0
SPLINE
5
93
330
11
100
AcDbEntity
100
AcDbSpline
8
Layer_2
210
0
220
0
230
1
70
8
71
3
72
8
73
4
74
0
42
1e-7
43
1e-7
44
1e-10
40
0
40
0
40
0
40
0
40
1
40
1
40
1
40
1
10
0.4544030150694345
20
-1.890974748831355
30
0
10
0.408343707037967
20
-1.897409778615192
30
0
10
0.3656440515573994
20
-1.9157522001120235
30
0
10
0.326304048627732
20
-1.9460020133218485
30
0
0
SPLINE
5
94
330
11
100
AcDbEntity
100
AcDbSpline
8
Layer_2
210
0
220
0
230
1
70
8
71
3
72
8
73
4
74
0
42
1e-7
43
1e-7
44
1e-10
40
0
40
0
40
0
40
0
40
1
40
1
40
1
40
1
10
0.326304048627732
20
-1.9460020133218485
30
0
10
0.27093666483960893
20
-1.988575803173917
30
0
10
0.239241838328114
20
-2.0355524800754856
30
0
10
0.2312196855451618
20
-2.0869321617747465
30
0
0
SPLINE
5
95
330
11
100
AcDbEntity
100
AcDbSpline
8
Layer_2
210
0
220
0
230
1
70
8
71
3
72
8
73
4
74
0
42
1e-7
43
1e-7
44
1e-10
40
0
40
0
40
0
40
0
40
1
40
1
40
1
40
1
10
0.2312196855451618
20
-2.0869321617747465
30
0
10
0.22319753276220963
20
-2.1383118434740074
30
0
10
0.23035967234378493
20
-2.191347285314143
30
0
10
0.25270610428988705
20
-2.246038487295153
30
0
0
SPLINE
5
96
330
11
100
AcDbEntity
100
AcDbSpline
8
Layer_2
210
0
220
0
230
1
70
8
71
3
72
8
73
4
74
0
42
1e-7
43
1e-7
44
1e-10
40
0
40
0
40
0
40
0
40
1
40
1
40
1
40
1
10
0.25270610428988705
20
-2.246038487295153
30
0
10
0.2750525362359892
20
-2.3007296892761633
30
0
10
0.3055796031905608
20
-2.355506486285015
30
0
10
0.34428730515360195
20
-2.4103688783217074
30
0
0
SPLINE
5
97
330
11
100
AcDbEntity
100
AcDbSpline
8
Layer_2
210
0
220
0
230
1
70
8
71
3
72
8
73
4
74
0
42
1e-7
43
1e-7
44
1e-10
40
0
40
0
40
0
40
0
40
1
40
1
40
1
40
1
10
0.34428730515360195
20
-2.4103688783217074
30
0
10
0.3829950098305852
20
-2.465231268271561
30
0
10
0.4219552133080134
20
-2.5181606012315294
30
0
10
0.4611679155858863
20
-2.5691568772016122
30
0
0
SPLINE
5
98
330
11
100
AcDbEntity
100
AcDbSpline
8
Layer_2
210
0
220
0
230
1
70
8
71
3
72
8
73
4
74
0
42
1e-7
43
1e-7
44
1e-10
40
0
40
0
40
0
40
0
40
1
40
1
40
1
40
1
10
0.4611679155858863
20
-2.5691568772016122
30
0
10
0.5194267780017489
20
-2.644922760522
30
0
10
0.5789191911868894
20
-2.7162623906320995
30
0
10
0.6396451260283298
20
-2.7831757380948634
30
0
0
SPLINE
5
99
330
11
100
AcDbEntity
100
AcDbSpline
8
Layer_2
210
0
220
0
230
1
70
8
71
3
72
8
73
4
74
0
42
1e-7
43
1e-7
44
1e-10
40
0
40
0
40
0
40
0
40
1
40
1
40
1
40
1
10
0.6396451260283298
20
-2.7831757380948634
30
0
10
0.7003710565933283
20
-2.8500890715716003
30
0
10
0.7600346264342136
20
-2.9050674443913223
30
0
10
0.8186358355509853
20
-2.948110856554029
30
0
0
SPLINE
5
9A
330
11
100
AcDbEntity
100
AcDbSpline
8
Layer_2
210
0
220
0
230
1
70
8
71
3
72
8
73
4
74
0
42
1e-7
43
1e-7
44
1e-10
40
0
40
0
40
0
40
0
40
1
40
1
40
1
40
1
10
0.8186358355509853
20
-2.948110856554029
30
0
10
0.8772370334009311
20
-2.9911542428315205
30
0
10
0.9348048569562205
20
-3.0170236985064247
30
0
10
0.9913393062168532
20
-3.025719223578741
30
0
0
SPLINE
5
9B
330
11
100
AcDbEntity
100
AcDbSpline
8
Layer_2
210
0
220
0
230
1
70
8
71
3
72
8
73
4
74
0
42
1e-7
43
1e-7
44
1e-10
40
0
40
0
40
0
40
0
40
1
40
1
40
1
40
1
10
2.1207619602068486
20
-2.1833526128280725
30
0
10
2.1965773663531882
20
-2.159833474991754
30
0
10
2.2701824734611846
20
-2.120625006131728
30
0
10
2.341577281530838
20
-2.065727206247996
30
0
0
SPLINE
5
9C
330
11
100
AcDbEntity
100
AcDbSpline
8
Layer_2
210
0
220
0
230
1
70
8
71
3
72
8
73
4
74
0
42
1e-7
43
1e-7
44
1e-10
40
0
40
0
40
0
40
0
40
1
40
1
40
1
40
1
10
2.341577281530838
20
-2.065727206247996
30
0
10
2.4086009492151454
20
-2.0141905189805245
30
0
10
2.459038462786341
20
-1.9667130162874424
30
0
10
2.492889822244424
20
-1.923294698168751
30
0
0
SPLINE
5
9D
330
11
100
AcDbEntity
100
AcDbSpline
8
Layer_2
210
0
220
0
230
1
70
8
71
3
72
8
73
4
74
0
42
1e-7
43
1e-7
44
1e-10
40
0
40
0
40
0
40
0
40
1
40
1
40
1
40
1
10
2.492889822244424
20
-1.923294698168751
30
0
10
2.526741181702507
20
-1.8798763800500597
30
0
10
2.5533087517264255
20
-1.8345236148214306
30
0
10
2.572592532316178
20
-1.7872364024828622
30
0
0
SPLINE
5
9E
330
11
100
AcDbEntity
100
AcDbSpline
8
Layer_2
210
0
220
0
230
1
70
8
71
3
72
8
73
4
74
0
42
1e-7
43
1e-7
44
1e-10
40
0
40
0
40
0
40
0
40
1
40
1
40
1
40
1
10
2.572592532316178
20
-1.7872364024828622
30
0
10
2.609012779284834
20
-1.7893724478602497
30
0
10
2.642632118202628
20
-1.787865901127652
30
0
10
2.673450615769301
20
-1.782716714236395
30
0
0
SPLINE
5
9F
330
11
100
AcDbEntity
100
AcDbSpline
8
Layer_2
210
0
220
0
230
1
70
8
71
3
72
8
73
4
74
0
42
1e-7
43
1e-7
44
1e-10
40
0
40
0
40
0
40
0
40
1
40
1
40
1
40
1
10
2.673450615769301
20
-1.782716714236395
30
0
10
2.7042690489839267
20
-1.777567578446997
30
0
10
2.738619736030054
20
-1.7604282944394685
30
0
10
2.77650274282486
20
-1.7312988131474065
30
0
0
SPLINE
5
A0
330
11
100
AcDbEntity
100
AcDbSpline
8
Layer_2
210
0
220
0
230
1
70
8
71
3
72
8
73
4
74
0
42
1e-7
43
1e-7
44
1e-10
40
0
40
0
40
0
40
0
40
1
40
1
40
1
40
1
10
2.77650274282486
20
-1.7312988131474065
30
0
10
2.8260419792370066
20
-1.6932064761767172
30
0
10
2.85224525137625
20
-1.6481338314906258
30
0
10
2.855112622029509
20
-1.5960808259518173
30
0
0
SPLINE
5
A1
330
11
100
AcDbEntity
100
AcDbSpline
8
Layer_2
210
0
220
0
230
1
70
8
71
3
72
8
73
4
74
0
42
1e-7
43
1e-7
44
1e-10
40
0
40
0
40
0
40
0
40
1
40
1
40
1
40
1
10
2.855112622029509
20
-1.5960808259518173
30
0
10
2.85797999763901
20
-1.5440278268586216
30
0
10
2.8437286003589337
20
-1.497602811496106
30
0
10
2.8123584301892803
20
-1.456805779864271
30
0
0
SPLINE
5
A2
330
11
100
AcDbEntity
100
AcDbSpline
8
Layer_2
210
0
220
0
230
1
70
8
71
3
72
8
73
4
74
0
42
1e-7
43
1e-7
44
1e-10
40
0
40
0
40
0
40
0
40
1
40
1
40
1
40
1
10
2.8123584301892803
20
-1.456805779864271
30
0
10
2.7933122617039357
20
-1.4320361616581978
30
0
10
2.7693623896398964
20
-1.4121964151841142
30
0
10
2.740508813997164
20
-1.3972865404420198
30
0
0
SPLINE
5
A3
330
11
100
AcDbEntity
100
AcDbSpline
8
Layer_2
210
0
220
0
230
1
70
8
71
3
72
8
73
4
74
0
42
1e-7
43
1e-7
44
1e-10
40
0
40
0
40
0
40
0
40
1
40
1
40
1
40
1
10
2.740508813997164
20
-1.3972865404420198
30
0
10
2.7116552508754643
20
-1.3823766819835783
30
0
10
2.680306985114939
20
-1.3740220973935615
30
0
10
2.646464159505843
20
-1.372222702787361
30
0
0
SPLINE
5
A4
330
11
100
AcDbEntity
100
AcDbSpline
8
Layer_2
210
0
220
0
230
1
70
8
71
3
72
8
73
4
74
0
42
1e-7
43
1e-7
44
1e-10
40
0
40
0
40
0
40
0
40
1
40
1
40
1
40
1
10
2.646464159505843
20
-1.372222702787361
30
0
10
2.6416516388671414
20
-1.338826875602934
30
0
10
2.6270070009067963
20
-1.2979209063805768
30
0
10
2.602530180490195
20
-1.2495048452044197
30
0
0
SPLINE
5
A5
330
11
100
AcDbEntity
100
AcDbSpline
8
Layer_2
210
0
220
0
230
1
70
8
71
3
72
8
73
4
74
0
42
1e-7
43
1e-7
44
1e-10
40
0
40
0
40
0
40
0
40
1
40
1
40
1
40
1
10
2.602530180490195
20
-1.2495048452044197
30
0
10
2.5780533600735938
20
-1.2010887840282627
30
0
10
2.5467687488126423
20
-1.152111160276176
30
0
10
2.508676411841953
20
-1.1025719238640295
30
0
0
SPLINE
5
A6
330
11
100
AcDbEntity
100
AcDbSpline
8
Layer_2
210
0
220
0
230
1
70
8
71
3
72
8
73
4
74
0
42
1e-7
43
1e-7
44
1e-10
40
0
40
0
40
0
40
0
40
1
40
1
40
1
40
1
10
2.508676411841953
20
-1.1025719238640295
30
0
10
2.440334236619373
20
-1.0136926519549094
30
0
10
2.3573637538984165
20
-0.9464950297960273
30
0
10
2.2597649536874984
20
-0.9009789096013341
30
0
0
SPLINE
5
A7
330
11
100
AcDbEntity
100
AcDbSpline
8
Layer_2
210
0
220
0
230
1
70
8
71
3
72
8
73
4
74
0
42
1e-7
43
1e-7
44
1e-10
40
0
40
0
40
0
40
0
40
1
40
1
40
1
40
1
10
2.2597649536874984
20
-0.9009789096013341
30
0
10
2.1621660883419684
20
-0.8554628394907715
30
0
10
2.054363719519793
20
-0.8403981005807459
30
0
10
1.9363578472209708
20
-0.8557846928712571
30
0
0
SPLINE
5
A8
330
11
100
AcDbEntity
100
AcDbSpline
8
Layer_2
210
0
220
0
230
1
70
8
71
3
72
8
73
4
74
0
42
1e-7
43
1e-7
44
1e-10
40
0
40
0
40
0
40
0
40
1
40
1
40
1
40
1
10
1.9363578472209708
20
-0.8557846928712571
30
0
10
1.8183519648884943
20
-0.8711713619742634
30
0
10
1.6945109045190843
20
-0.9287208441798179
30
0
10
1.5648346661127412
20
-1.0284331394879205
30
0
0
SPLINE
5
A9
330
11
100
AcDbEntity
100
AcDbSpline
8
Layer_2
210
0
220
0
230
1
70
8
71
3
72
8
73
4
74
0
42
1e-7
43
1e-7
44
1e-10
40
0
40
0
40
0
40
0
40
1
40
1
40
1
40
1
10
1.5648346661127412
20
-1.0284331394879205
30
0
10
1.521123577076571
20
-1.0620440235772308
30
0
10
1.4795124809433622
20
-1.1021550094353887
30
0
10
1.4400012950616783
20
-1.1487660569698472
30
0
0
SPLINE
5
AA
330
11
100
AcDbEntity
100
AcDbSpline
8
Layer_2
210
0
220
0
230
1
70
8
71
3
72
8
73
4
74
0
42
1e-7
43
1e-7
44
1e-10
40
0
40
0
40
0
40
0
40
1
40
1
40
1
40
1
10
1.4400012950616783
20
-1.1487660569698472
30
0
10
1.4004901417473004
20
-1.1953770794622405
30
0
10
1.3687387890780707
20
-1.2452954724777863
30
0
10
1.3447471869698582
20
-1.2985211708818718
30
0
0
SPLINE
5
AB
330
11
100
AcDbEntity
100
AcDbSpline
8
Layer_2
210
0
220
0
230
1
70
8
71
3
72
8
73
4
74
0
42
1e-7
43
1e-7
44
1e-10
40
0
40
0
40
0
40
0
40
1
40
1
40
1
40
1
10
1.3447471869698582
20
-1.2985211708818718
30
0
10
1.3207556349457763
20
-1.3517469344205693
30
0
10
1.3086148478976352
20
-1.4045545970205489
30
0
10
1.308324901568216
20
-1.4569443077325843
30
0
0
SPLINE
5
AC
330
11
100
AcDbEntity
100
AcDbSpline
8
Layer_2
210
0
220
0
230
1
70
8
71
3
72
8
73
4
74
0
42
1e-7
43
1e-7
44
1e-10
40
0
40
0
40
0
40
0
40
1
40
1
40
1
40
1
10
1.308324901568216
20
-1.4569443077325843
30
0
10
1.308034905154666
20
-1.5093339533100076
30
0
10
1.3252555775565908
20
-1.5581129001025003
30
0
10
1.3599868186057296
20
-1.603281017840838
30
0
0
SPLINE
5
AD
330
11
100
AcDbEntity
100
AcDbSpline
8
Layer_2
210
0
220
0
230
1
70
8
71
3
72
8
73
4
74
0
42
1e-7
43
1e-7
44
1e-10
40
0
40
0
40
0
40
0
40
1
40
1
40
1
40
1
10
1.3599868186057296
20
-1.603281017840838
30
0
10
1.398079155576419
20
-1.6528202542529846
30
0
10
1.4398459140964843
20
-1.6792470743053196
30
0
10
1.485287090095012
20
-1.6825614811281002
30
0
0
SPLINE
5
AE
330
11
100
AcDbEntity
100
AcDbSpline
8
Layer_2
210
0
220
0
230
1
70
8
71
3
72
8
73
4
74
0
42
1e-7
43
1e-7
44
1e-10
40
0
40
0
40
0
40
0
40
1
40
1
40
1
40
1
10
1.485287090095012
20
-1.6825614811281002
30
0
10
1.5307282200803223
20
-1.6858758196860109
30
0
10
1.5760329103099298
20
-1.6701674210539759
30
0
10
1.6212010443319205
20
-1.6354361674838045
30
0
0
SPLINE
5
AF
330
11
100
AcDbEntity
100
AcDbSpline
8
Layer_2
210
0
220
0
230
1
70
8
71
3
72
8
73
4
74
0
42
1e-7
43
1e-7
44
1e-10
40
0
40
0
40
0
40
0
40
1
40
1
40
1
40
1
10
1.6212010443319205
20
-1.6354361674838045
30
0
10
1.651798820769739
20
-1.6119085377697255
30
0
10
1.6742435356250795
20
-1.5905926359569036
30
0
10
1.688535188897942
20
-1.5714884620453393
30
0
0
SPLINE
5
B0
330
11
100
AcDbEntity
100
AcDbSpline
8
Layer_2
210
0
220
0
230
1
70
8
71
3
72
8
73
4
74
0
42
1e-7
43
1e-7
44
1e-10
40
0
40
0
40
0
40
0
40
1
40
1
40
1
40
1
10
1.688535188897942
20
-1.5714884620453393
30
0
10
1.7028269248222412
20
-1.5523843282263217
30
0
10
1.7144570226162132
20
-1.5335878433902599
30
0
10
1.7234255974985997
20
-1.5150990225876355
30
0
0
SPLINE
5
B1
330
11
100
AcDbEntity
100
AcDbSpline
8
Layer_2
210
0
220
0
230
1
70
8
71
3
72
8
73
4
74
0
42
1e-7
43
1e-7
44
1e-10
40
0
40
0
40
0
40
0
40
1
40
1
40
1
40
1
10
1.7234255974985997
20
-1.5150990225876355
30
0
10
1.7323940897295496
20
-1.4966101616924645
30
0
10
1.7440242701749575
20
-1.4778137169489494
30
0
10
1.75831592344782
20
-1.458709543037385
30
0
0
SPLINE
5
B2
330
11
100
AcDbEntity
100
AcDbSpline
8
Layer_2
210
0
220
0
230
1
70
8
71
3
72
8
73
4
74
0
42
1e-7
43
1e-7
44
1e-10
40
0
40
0
40
0
40
0
40
1
40
1
40
1
40
1
10
1.75831592344782
20
-1.458709543037385
30
0
10
1.7726076201437573
20
-1.4396053357364003
30
0
10
1.7957808602059502
20
-1.4177292470963099
30
0
10
1.827835643634399
20
-1.3930812771171128
30
0
0
SPLINE
5
B3
330
11
100
AcDbEntity
100
AcDbSpline
8
Layer_2
210
0
220
0
230
1
70
8
71
3
72
8
73
4
74
0
42
1e-7
43
1e-7
44
1e-10
40
0
40
0
40
0
40
0
40
1
40
1
40
1
40
1
10
1.827835643634399
20
-1.3930812771171128
30
0
10
1.8963163508766425
20
-1.3404242245424578
30
0
10
1.9542018084601713
20
-1.3162013427608952
30
0
10
2.001491851082112
20
-1.3204125515873324
30
0
0
SPLINE
5
B4
330
11
100
AcDbEntity
100
AcDbSpline
8
Layer_2
210
0
220
0
230
1
70
8
71
3
72
8
73
4
74
0
42
1e-7
43
1e-7
44
1e-10
40
0
40
0
40
0
40
0
40
1
40
1
40
1
40
1
10
2.001491851082112
20
-1.3204125515873324
30
0
10
2.048781828569441
20
-1.3246238104979002
30
0
10
2.0853110751329726
20
-1.3434853339295523
30
0
10
2.1110794354614186
20
-1.3769971894832431
30
0
0
SPLINE
5
B5
330
11
100
AcDbEntity
100
AcDbSpline
8
Layer_2
210
0
220
0
230
1
70
8
71
3
72
8
73
4
74
0
42
1e-7
43
1e-7
44
1e-10
40
0
40
0
40
0
40
0
40
1
40
1
40
1
40
1
10
2.1110794354614186
20
-1.3769971894832431
30
0
10
2.0912439126389564
20
-1.3783382724675834
30
0
10
2.0613208621165677
20
-1.3891748010312281
30
0
10
2.0213103590204486
20
-1.4095068728760953
30
0
0
SPLINE
5
B6
330
11
100
AcDbEntity
100
AcDbSpline
8
Layer_2
210
0
220
0
230
1
70
8
71
3
72
8
73
4
74
0
42
1e-7
43
1e-7
44
1e-10
40
0
40
0
40
0
40
0
40
1
40
1
40
1
40
1
10
2.0213103590204486
20
-1.4095068728760953
30
0
10
1.9812998884916355
20
-1.4298389196788972
30
0
10
1.9401675817345094
20
-1.4562501865987656
30
0
10
1.8979135214005067
20
-1.4887407137282476
30
0
0
SPLINE
5
B7
330
11
100
AcDbEntity
100
AcDbSpline
8
Layer_2
210
0
220
0
230
1
70
8
71
3
72
8
73
4
74
0
42
1e-7
43
1e-7
44
1e-10
40
0
40
0
40
0
40
0
40
1
40
1
40
1
40
1
10
1.8979135214005067
20
-1.4887407137282476
30
0
10
1.826518724186622
20
-1.5436385052646249
30
0
10
1.7697190544278931
20
-1.6047025125363654
30
0
10
1.7275145371663858
20
-1.6719327681107758
30
0
0
SPLINE
5
B8
330
11
100
AcDbEntity
100
AcDbSpline
8
Layer_2
210
0
220
0
230
1
70
8
71
3
72
8
73
4
74
0
42
1e-7
43
1e-7
44
1e-10
40
0
40
0
40
0
40
0
40
1
40
1
40
1
40
1
10
1.7275145371663858
20
-1.6719327681107758
30
0
10
1.6853100036212256
20
-1.739163036206219
30
0
10
1.6624083629053041
20
-1.8066210058861727
30
0
10
1.658809648819099
20
-1.8743067548062822
30
0
0
SPLINE
5
B9
330
11
100
AcDbEntity
100
AcDbSpline
8
Layer_2
210
0
220
0
230
1
70
8
71
3
72
8
73
4
74
0
42
1e-7
43
1e-7
44
1e-10
40
0
40
0
40
0
40
0
40
1
40
1
40
1
40
1
10
1.658809648819099
20
-1.8743067548062822
30
0
10
1.6552109345273653
20
-1.9419924866101066
30
0
10
1.6758188417883941
20
-2.0049760893919006
30
0
10
1.7206333706021848
20
-2.063257563151665
30
0
0
SPLINE
5
BA
330
11
100
AcDbEntity
100
AcDbSpline
8
Layer_2
210
0
220
0
230
1
70
8
71
3
72
8
73
4
74
0
42
1e-7
43
1e-7
44
1e-10
40
0
40
0
40
0
40
0
40
1
40
1
40
1
40
1
10
1.7206333706021848
20
-2.063257563151665
30
0
10
1.7732904315241949
20
-2.1317382812496772
30
0
10
1.8341889355005059
20
-2.1747540919063155
30
0
10
1.9033288825311176
20
-2.1923049951215803
30
0
0
SPLINE
5
BB
330
11
100
AcDbEntity
100
AcDbSpline
8
Layer_2
210
0
220
0
230
1
70
8
71
3
72
8
73
4
74
0
42
1e-7
43
1e-7
44
1e-10
40
0
40
0
40
0
40
0
40
1
40
1
40
1
40
1
10
1.9033288825311176
20
-2.1923049951215803
30
0
10
1.972468837703556
20
-2.2098558920763285
30
0
10
2.044946530262133
20
-2.206871764645159
30
0
10
2.1207619602068486
20
-2.1833526128280725
30
0
0
SPLINE
5
BC
330
11
100
AcDbEntity
100
AcDbSpline
8
Layer_2
210
0
220
0
230
1
70
8
71
3
72
8
73
4
74
0
42
1e-7
43
1e-7
44
1e-10
40
0
40
0
40
0
40
0
40
1
40
1
40
1
40
1
10
2.274989847102641
20
-1.7326337119828832
30
0
10
2.268877356765676
20
-1.759359758756996
30
0
10
2.2490652201502743
20
-1.7856069084615247
30
0
10
2.2155533645965835
20
-1.8113752687899707
30
0
0
SPLINE
5
BD
330
11
100
AcDbEntity
100
AcDbSpline
8
Layer_2
210
0
220
0
230
1
70
8
71
3
72
8
73
4
74
0
42
1e-7
43
1e-7
44
1e-10
40
0
40
0
40
0
40
0
40
1
40
1
40
1
40
1
10
2.2155533645965835
20
-1.8113752687899707
30
0
10
2.183498570312366
20
-1.836023247116523
30
0
10
2.1534072377655584
20
-1.848148504841092
30
0
10
2.1252793419140956
20
-1.8477510093963718
30
0
0
SPLINE
5
BE
330
11
100
AcDbEntity
100
AcDbSpline
8
Layer_2
210
0
220
0
230
1
70
8
71
3
72
8
73
4
74
0
42
1e-7
43
1e-7
44
1e-10
40
0
40
0
40
0
40
0
40
1
40
1
40
1
40
1
10
2.1252793419140956
20
-1.8477510093963718
30
0
10
2.097151465265757
20
-1.8473535164600654
30
0
10
2.076365347619519
20
-1.8384125489279477
30
0
10
2.0629209889753817
20
-1.8209281068000185
30
0
0
SPLINE
5
BF
330
11
100
AcDbEntity
100
AcDbSpline
8
Layer_2
210
0
220
0
230
1
70
8
71
3
72
8
73
4
74
0
42
1e-7
43
1e-7
44
1e-10
40
0
40
0
40
0
40
0
40
1
40
1
40
1
40
1
10
2.0629209889753817
20
-1.8209281068000185
30
0
10
2.0494766303312444
20
-1.8034436646720893
30
0
10
2.0461749289277207
20
-1.78105834976266
30
0
10
2.0530159173321163
20
-1.7537721370296655
30
0
0
SPLINE
5
C0
330
11
100
AcDbEntity
100
AcDbSpline
8
Layer_2
210
0
220
0
230
1
70
8
71
3
72
8
73
4
74
0
42
1e-7
43
1e-7
44
1e-10
40
0
40
0
40
0
40
0
40
1
40
1
40
1
40
1
10
2.0530159173321163
20
-1.7537721370296655
30
0
10
2.0598569307785772
20
-1.726485956863977
30
0
10
2.0793048096018514
20
-1.7005188450505508
30
0
10
2.111359603886069
20
-1.6758708667239985
30
0
0
SPLINE
5
C1
330
11
100
AcDbEntity
100
AcDbSpline
8
Layer_2
210
0
220
0
230
1
70
8
71
3
72
8
73
4
74
0
42
1e-7
43
1e-7
44
1e-10
40
0
40
0
40
0
40
0
40
1
40
1
40
1
40
1
10
2.111359603886069
20
-1.6758708667239985
30
0
10
2.1448714594397598
20
-1.6501025063955526
30
0
10
2.175327049778695
20
-1.6376972107798813
30
0
10
2.2027264225206618
20
-1.6386548396161769
30
0
0
SPLINE
5
C2
330
11
100
AcDbEntity
100
AcDbSpline
8
Layer_2
210
0
220
0
230
1
70
8
71
3
72
8
73
4
74
0
42
1e-7
43
1e-7
44
1e-10
40
0
40
0
40
0
40
0
40
1
40
1
40
1
40
1
10
2.2027264225206618
20
-1.6386548396161769
30
0
10
2.2301258203046936
20
-1.6396125010197784
30
0
10
2.250547665951472
20
-1.6488335778276093
30
0
10
2.263992024595609
20
-1.6663180199555385
30
0
0
SPLINE
5
C3
330
11
100
AcDbEntity
100
AcDbSpline
8
Layer_2
210
0
220
0
230
1
70
8
71
3
72
8
73
4
74
0
42
1e-7
43
1e-7
44
1e-10
40
0
40
0
40
0
40
0
40
1
40
1
40
1
40
1
10
2.263992024595609
20
-1.6663180199555385
30
0
10
2.2774363832397464
20
-1.6838024620834677
30
0
10
2.281102337439606
20
-1.7059076652087704
30
0
10
2.274989847102641
20
-1.7326337119828832
30
0
0
SPLINE
5
C4
330
11
100
AcDbEntity
100
AcDbSpline
8
Layer_2
210
0
220
0
230
1
70
8
71
3
72
8
73
4
74
0
42
1e-7
43
1e-7
44
1e-10
40
0
40
0
40
0
40
0
40
1
40
1
40
1
40
1
10
-3.488600942375537
20
3.189961111092491
30
0
10
-3.496370071547046
20
3.1017881806654706
30
0
10
-3.4944527714173184
20
3.0139734554253987
30
0
10
-3.4828490419863534
20
2.926516935372276
30
0
0
SPLINE
5
C5
330
11
100
AcDbEntity
100
AcDbSpline
8
Layer_2
210
0
220
0
230
1
70
8
71
3
72
8
73
4
74
0
42
1e-7
43
1e-7
44
1e-10
40
0
40
0
40
0
40
0
40
1
40
1
40
1
40
1
10
-3.4828490419863534
20
2.926516935372276
30
0
10
-3.452872718442145
20
2.700587422213596
30
0
10
-3.3863320057381965
20
2.5309601006292883
30
0
10
-3.2832269197611823
20
2.417635134279796
30
0
0
SPLINE
5
C6
330
11
100
AcDbEntity
100
AcDbSpline
8
Layer_2
210
0
220
0
230
1
70
8
71
3
72
8
73
4
74
0
42
1e-7
43
1e-7
44
1e-10
40
0
40
0
40
0
40
0
40
1
40
1
40
1
40
1
10
-3.2832269197611823
20
2.417635134279796
30
0
10
-3.1801218420600614
20
2.3043101392042105
30
0
10
-3.0511337757189945
20
2.2579217859931995
30
0
10
-2.8962627207379805
20
2.2784700746467634
30
0
0
SPLINE
5
C7
330
11
100
AcDbEntity
100
AcDbSpline
8
Layer_2
210
0
220
0
230
1
70
8
71
3
72
8
73
4
74
0
42
1e-7
43
1e-7
44
1e-10
40
0
40
0
40
0
40
0
40
1
40
1
40
1
40
1
10
-2.8962627207379805
20
2.2784700746467634
30
0
10
-2.766899861558037
20
2.2956339363626
30
0
10
-2.668149819695239
20
2.351380147427742
30
0
10
-2.600012492085647
20
2.445708555748424
30
0
0
SPLINE
5
C8
330
11
100
AcDbEntity
100
AcDbSpline
8
Layer_2
210
0
220
0
230
1
70
8
71
3
72
8
73
4
74
0
42
1e-7
43
1e-7
44
1e-10
40
0
40
0
40
0
40
0
40
1
40
1
40
1
40
1
10
-2.600012492085647
20
2.445708555748424
30
0
10
-2.5318752060352505
20
2.5400370690672234
30
0
10
-2.4794120204606624
20
2.67214876772752
30
0
10
-2.442622935361882
20
2.8420436517293153
30
0
0
SPLINE
5
C9
330
11
100
AcDbEntity
100
AcDbSpline
8
Layer_2
210
0
220
0
230
1
70
8
71
3
72
8
73
4
74
0
42
1e-7
43
1e-7
44
1e-10
40
0
40
0
40
0
40
0
40
1
40
1
40
1
40
1
10
-2.442622935361882
20
2.8420436517293153
30
0
10
-2.432026662155025
20
2.887947657828168
30
0
10
-2.4215837600444647
20
2.9315137082445673
30
0
10
-2.4112941475799072
20
2.972741813785337
30
0
0
SPLINE
5
CA
330
11
100
AcDbEntity
100
AcDbSpline
8
Layer_2
210
0
220
0
230
1
70
8
71
3
72
8
73
4
74
0
42
1e-7
43
1e-7
44
1e-10
40
0
40
0
40
0
40
0
40
1
40
1
40
1
40
1
10
-2.4112941475799072
20
2.972741813785337
30
0
10
-2.4010045315130752
20
3.013969892176009
30
0
10
-2.38219464476668
20
3.03639701375722
30
0
10
-2.3548644873407225
20
3.04002317852897
30
0
0
SPLINE
5
CB
330
11
100
AcDbEntity
100
AcDbSpline
8
Layer_2
210
0
220
0
230
1
70
8
71
3
72
8
73
4
74
0
42
1e-7
43
1e-7
44
1e-10
40
0
40
0
40
0
40
0
40
1
40
1
40
1
40
1
10
-2.3548644873407225
20
3.04002317852897
30
0
10
-2.3257122868395834
20
3.0438910919415663
30
0
10
-2.302397625507153
20
3.0358599368539245
30
0
10
-2.284920677050842
20
3.015929773102692
30
0
0
SPLINE
5
CC
330
11
100
AcDbEntity
100
AcDbSpline
8
Layer_2
210
0
220
0
230
1
70
8
71
3
72
8
73
4
74
0
42
1e-7
43
1e-7
44
1e-10
40
0
40
0
40
0
40
0
40
1
40
1
40
1
40
1
10
-2.284920677050842
20
3.015929773102692
30
0
10
-2.267443636337414
20
2.9959995387079887
30
0
10
-2.2572546158309463
20
2.975102412813842
30
0
10
-2.2543536753680877
20
2.953238221712841
30
0
0
SPLINE
5
CD
330
11
100
AcDbEntity
100
AcDbSpline
8
Layer_2
210
0
220
0
230
1
70
8
71
3
72
8
73
4
74
0
42
1e-7
43
1e-7
44
1e-10
40
0
40
0
40
0
40
0
40
1
40
1
40
1
40
1
10
-2.2543536753680877
20
2.953238221712841
30
0
10
-2.249277040364908
20
2.9149759687363828
30
0
10
-2.249113574216005
20
2.8857958332543174
30
0
10
-2.2538633475648466
20
2.8656977230095277
30
0
0
SPLINE
5
CE
330
11
100
AcDbEntity
100
AcDbSpline
8
Layer_2
210
0
220
0
230
1
70
8
71
3
72
8
73
4
74
0
42
1e-7
43
1e-7
44
1e-10
40
0
40
0
40
0
40
0
40
1
40
1
40
1
40
1
10
-2.2538633475648466
20
2.8656977230095277
30
0
10
-2.2586130394633948
20
2.8455996235715615
30
0
10
-2.2639391571763077
20
2.826352103107563
30
0
10
-2.269841608446469
20
2.807955090974061
30
0
0
SPLINE
5
CF
330
11
100
AcDbEntity
100
AcDbSpline
8
Layer_2
210
0
220
0
230
1
70
8
71
3
72
8
73
4
74
0
42
1e-7
43
1e-7
44
1e-10
40
0
40
0
40
0
40
0
40
1
40
1
40
1
40
1
10
-2.269841608446469
20
2.807955090974061
30
0
10
-2.275744151973748
20
2.7895581494840296
30
0
10
-2.2802845920073236
20
2.764389029750838
30
0
10
-2.2834629501608426
20
2.732447894675074
30
0
0
SPLINE
5
D0
330
11
100
AcDbEntity
100
AcDbSpline
8
Layer_2
210
0
220
0
230
1
70
8
71
3
72
8
73
4
74
0
42
1e-7
43
1e-7
44
1e-10
40
0
40
0
40
0
40
0
40
1
40
1
40
1
40
1
10
-2.2834629501608426
20
2.732447894675074
30
0
10
-2.286641378957832
20
2.700506667342193
30
0
10
-2.284120901384561
20
2.653561896953138
30
0
10
-2.2759015880845
20
2.591613491250791
30
0
0
SPLINE
5
D1
330
11
100
AcDbEntity
100
AcDbSpline
8
Layer_2
210
0
220
0
230
1
70
8
71
3
72
8
73
4
74
0
42
1e-7
43
1e-7
44
1e-10
40
0
40
0
40
0
40
0
40
1
40
1
40
1
40
1
10
-2.2759015880845
20
2.591613491250791
30
0
10
-2.2703414557996284
20
2.54970715212397
30
0
10
-2.2545789506291736
20
2.5077639716271123
30
0
10
-2.2286140725731345
20
2.4657839497602176
30
0
0
SPLINE
5
D2
330
11
100
AcDbEntity
100
AcDbSpline
8
Layer_2
210
0
220
0
230
1
70
8
71
3
72
8
73
4
74
0
42
1e-7
43
1e-7
44
1e-10
40
0
40
0
40
0
40
0
40
1
40
1
40
1
40
1
10
-2.2286140725731345
20
2.4657839497602176
30
0
10
-2.2026491801079975
20
2.423803819292931
30
0
10
-2.1658082249548003
20
2.390683031970812
30
0
10
-2.118091147276896
20
2.3664217615012704
30
0
0
SPLINE
5
D3
330
11
100
AcDbEntity
100
AcDbSpline
8
Layer_2
210
0
220
0
230
1
70
8
71
3
72
8
73
4
74
0
42
1e-7
43
1e-7
44
1e-10
40
0
40
0
40
0
40
0
40
1
40
1
40
1
40
1
10
-2.118091147276896
20
2.3664217615012704
30
0
10
-2.070374047985345
20
2.342160328131141
30
0
10
-2.010075350777087
20
2.3348646553055854
30
0
10
-1.9371947680739459
20
2.3445344496438993
30
0
0
SPLINE
5
D4
330
11
100
AcDbEntity
100
AcDbSpline
8
Layer_2
210
0
220
0
230
1
70
8
71
3
72
8
73
4
74
0
42
1e-7
43
1e-7
44
1e-10
40
0
40
0
40
0
40
0
40
1
40
1
40
1
40
1
10
-1.9371947680739459
20
2.3445344496438993
30
0
10
-1.8479161234953476
20
2.356379938522534
30
0
10
-1.7724941216601457
20
2.399296906147404
30
0
10
-1.7109286212814006
20
2.473285537032744
30
0
0
SPLINE
5
D5
330
11
100
AcDbEntity
100
AcDbSpline
8
Layer_2
210
0
220
0
230
1
70
8
71
3
72
8
73
4
74
0
42
1e-7
43
1e-7
44
1e-10
40
0
40
0
40
0
40
0
40
1
40
1
40
1
40
1
10
-1.7109286212814006
20
2.473285537032744
30
0
10
-1.6493630593979103
20
2.5472741208224368
30
0
10
-1.6050003435090505
20
2.6426198387970485
30
0
10
-1.5778404736148208
20
2.7593226909565787
30
0
0
SPLINE
5
D6
330
11
100
AcDbEntity
100
AcDbSpline
8
Layer_2
210
0
220
0
230
1
70
8
71
3
72
8
73
4
74
0
42
1e-7
43
1e-7
44
1e-10
40
0
40
0
40
0
40
0
40
1
40
1
40
1
40
1
10
-1.5778404736148208
20
2.7593226909565787
30
0
10
-1.5506805530226697
20
2.876025577470756
30
0
10
-1.5461661023164988
20
3.002702525661355
30
0
10
-1.5642969369820725
20
3.1393533942414367
30
0
0
SPLINE
5
D7
330
11
100
AcDbEntity
100
AcDbSpline
8
Layer_2
210
0
220
0
230
1
70
8
71
3
72
8
73
4
74
0
42
1e-7
43
1e-7
44
1e-10
40
0
40
0
40
0
40
0
40
1
40
1
40
1
40
1
10
-1.5642969369820725
20
3.1393533942414367
30
0
10
-1.5831530175701845
20
3.2814703920470625
30
0
10
-1.6284372653794397
20
3.4061751797904196
30
0
10
-1.7001495283160746
20
3.5134678605354477
30
0
0
SPLINE
5
D8
330
11
100
AcDbEntity
100
AcDbSpline
8
Layer_2
210
0
220
0
230
1
70
8
71
3
72
8
73
4
74
0
42
1e-7
43
1e-7
44
1e-10
40
0
40
0
40
0
40
0
40
1
40
1
40
1
40
1
10
-1.7001495283160746
20
3.5134678605354477
30
0
10
-1.7718618473540426
20
3.620760547650976
30
0
10
-1.8586515378450033
20
3.701949639276472
30
0
10
-1.960518599788956
20
3.7570351354119387
30
0
0
SPLINE
5
D9
330
11
100
AcDbEntity
100
AcDbSpline
8
Layer_2
210
0
220
0
230
1
70
8
71
3
72
8
73
4
74
0
42
1e-7
43
1e-7
44
1e-10
40
0
40
0
40
0
40
0
40
1
40
1
40
1
40
1
10
-1.960518599788956
20
3.7570351354119387
30
0
10
-2.062385878933693
20
3.8121206027292094
30
0
10
-2.167068729694665
20
3.8325318868809477
30
0
10
-2.2745674792239017
20
3.818268954821147
30
0
0
SPLINE
5
DA
330
11
100
AcDbEntity
100
AcDbSpline
8
Layer_2
210
0
220
0
230
1
70
8
71
3
72
8
73
4
74
0
42
1e-7
43
1e-7
44
1e-10
40
0
40
0
40
0
40
0
40
1
40
1
40
1
40
1
10
-2.2745674792239017
20
3.818268954821147
30
0
10
-2.380244185677957
20
3.8042477714021916
30
0
10
-2.4674399821231865
20
3.7732107191878854
30
0
10
-2.5361548699104453
20
3.725157808359514
30
0
0
SPLINE
5
DB
330
11
100
AcDbEntity
100
AcDbSpline
8
Layer_2
210
0
220
0
230
1
70
8
71
3
72
8
73
4
74
0
42
1e-7
43
1e-7
44
1e-10
40
0
40
0
40
0
40
0
40
1
40
1
40
1
40
1
10
-2.5361548699104453
20
3.725157808359514
30
0
10
-2.604869702496939
20
3.677104897948167
30
0
10
-2.6641017650445225
20
3.596009556743875
30
0
10
-2.7138510575531933
20
3.4818717847466383
30
0
0
SPLINE
5
DC
330
11
100
AcDbEntity
100
AcDbSpline
8
Layer_2
210
0
220
0
230
1
70
8
71
3
72
8
73
4
74
0
42
1e-7
43
1e-7
44
1e-10
40
0
40
0
40
0
40
0
40
1
40
1
40
1
40
1
10
-2.7138510575531933
20
3.4818717847466383
30
0
10
-2.7463292495867035
20
3.4052531815431006
30
0
10
-2.770515531046597
20
3.3325158848564236
30
0
10
-2.7864099019328723
20
3.2636598946866053
30
0
0
SPLINE
5
DD
330
11
100
AcDbEntity
100
AcDbSpline
8
Layer_2
210
0
220
0
230
1
70
8
71
3
72
8
73
4
74
0
42
1e-7
43
1e-7
44
1e-10
40
0
40
0
40
0
40
0
40
1
40
1
40
1
40
1
10
-2.7864099019328723
20
3.2636598946866053
30
0
10
-2.8023042728191476
20
3.194803904516787
30
0
10
-2.8165814617724916
20
3.138214043626845
30
0
10
-2.8292414687929055
20
3.0938903120167787
30
0
0
SPLINE
5
DE
330
11
100
AcDbEntity
100
AcDbSpline
8
Layer_2
210
0
220
0
230
1
70
8
71
3
72
8
73
4
74
0
42
1e-7
43
1e-7
44
1e-10
40
0
40
0
40
0
40
0
40
1
40
1
40
1
40
1
10
-2.8292414687929055
20
3.0938903120167787
30
0
10
-2.8419014522654957
20
3.049566611159085
30
0
10
-2.8600745556864706
20
3.025833375453239
30
0
10
-2.883760708412359
20
3.022690697156358
30
0
0
SPLINE
5
DF
330
11
100
AcDbEntity
100
AcDbSpline
8
Layer_2
210
0
220
0
230
1
70
8
71
3
72
8
73
4
74
0
42
1e-7
43
1e-7
44
1e-10
40
0
40
0
40
0
40
0
40
1
40
1
40
1
40
1
10
-2.883760708412359
20
3.022690697156358
30
0
10
-2.9311330138641365
20
3.0164053405625952
30
0
10
-2.958807954323044
20
3.043325884304443
30
0
10
-2.9667855243856707
20
3.103452287656755
30
0
0
SPLINE
5
E0
330
11
100
AcDbEntity
100
AcDbSpline
8
Layer_2
210
0
220
0
230
1
70
8
71
3
72
8
73
4
74
0
42
1e-7
43
1e-7
44
1e-10
40
0
40
0
40
0
40
0
40
1
40
1
40
1
40
1
10
-2.9667855243856707
20
3.103452287656755
30
0
10
-2.9718621593888503
20
3.141714540633213
30
0
10
-2.967071050750269
20
3.178968439241636
30
0
10
-2.952412198469928
20
3.2152139834820246
30
0
0
SPLINE
5
E1
330
11
100
AcDbEntity
100
AcDbSpline
8
Layer_2
210
0
220
0
230
1
70
8
71
3
72
8
73
4
74
0
42
1e-7
43
1e-7
44
1e-10
40
0
40
0
40
0
40
0
40
1
40
1
40
1
40
1
10
-2.952412198469928
20
3.2152139834820246
30
0
10
-2.937753349791861
20
3.2514595548725107
30
0
10
-2.923517550428452
20
3.290893620194271
30
0
10
-2.9097048003796995
20
3.3335161794473045
30
0
0
SPLINE
5
E2
330
11
100
AcDbEntity
100
AcDbSpline
8
Layer_2
210
0
220
0
230
1
70
8
71
3
72
8
73
4
74
0
42
1e-7
43
1e-7
44
1e-10
40
0
40
0
40
0
40
0
40
1
40
1
40
1
40
1
10
-2.9097048003796995
20
3.3335161794473045
30
0
10
-2.8958920539332214
20
3.3761387658504356
30
0
10
-2.893095338260581
20
3.428424268690699
30
0
10
-2.901314653361779
20
3.4903726879680947
30
0
0
SPLINE
5
E3
330
11
100
AcDbEntity
100
AcDbSpline
8
Layer_2
210
0
220
0
230
1
70
8
71
3
72
8
73
4
74
0
42
1e-7
43
1e-7
44
1e-10
40
0
40
0
40
0
40
0
40
1
40
1
40
1
40
1
10
-2.901314653361779
20
3.4903726879680947
30
0
10
-2.9102591999764176
20
3.5577871278706428
30
0
10
-2.9392223562788873
20
3.611884508848586
30
0
10
-2.9882041222691877
20
3.652664830901924
30
0
0
SPLINE
5
E4
330
11
100
AcDbEntity
100
AcDbSpline
8
Layer_2
210
0
220
0
230
1
70
8
71
3
72
8
73
4
74
0
42
1e-7
43
1e-7
44
1e-10
40
0
40
0
40
0
40
0
40
1
40
1
40
1
40
1
10
-2.9882041222691877
20
3.652664830901924
30
0
10
-3.037185914959302
20
3.693445145959225
30
0
10
-3.099939064280817
20
3.708758668484696
30
0
10
-3.176463570233733
20
3.698605398478337
30
0
0
SPLINE
5
E5
330
11
100
AcDbEntity
100
AcDbSpline
8
Layer_2
210
0
220
0
230
1
70
8
71
3
72
8
73
4
74
0
42
1e-7
43
1e-7
44
1e-10
40
0
40
0
40
0
40
0
40
1
40
1
40
1
40
1
10
-3.176463570233733
20
3.698605398478337
30
0
10
-3.23841197593608
20
3.690386085178276
30
0
10
-3.2912637274456404
20
3.6625152425695426
30
0
10
-3.335018803048989
20
3.6149928631725565
30
0
0
SPLINE
5
E6
330
11
100
AcDbEntity
100
AcDbSpline
8
Layer_2
210
0
220
0
230
1
70
8
71
3
72
8
73
4
74
0
42
1e-7
43
1e-7
44
1e-10
40
0
40
0
40
0
40
0
40
1
40
1
40
1
40
1
10
-3.335018803048989
20
3.6149928631725565
30
0
10
-3.378773887240999
20
3.5674704964500505
30
0
10
-3.4133673956661705
20
3.5067944986866304
30
0
10
-3.4387993283245017
20
3.432964869882296
30
0
0
SPLINE
5
E7
330
11
100
AcDbEntity
100
AcDbSpline
8
Layer_2
210
0
220
0
230
1
70
8
71
3
72
8
73
4
74
0
42
1e-7
43
1e-7
44
1e-10
40
0
40
0
40
0
40
0
40
1
40
1
40
1
40
1
10
-3.4387993283245017
20
3.432964869882296
30
0
10
-3.464231271372632
20
3.359135267327491
30
0
10
-3.4808318093896435
20
3.278134014397556
30
0
10
-3.488600942375537
20
3.189961111092491
30
0
0
SPLINE
5
E8
330
11
100
AcDbEntity
100
AcDbSpline
8
Layer_2
210
0
220
0
230
1
70
8
71
3
72
8
73
4
74
0
42
1e-7
43
1e-7
44
1e-10
40
0
40
0
40
0
40
0
40
1
40
1
40
1
40
1
10
-3.300057191951274
20
1.8842062252381846
30
0
10
-3.3175967241830837
20
1.8067885885990602
30
0
10
-3.320443747660809
20
1.723440461565248
30
0
10
-3.3085982623844488
20
1.6341618441367478
30
0
0
SPLINE
5
E9
330
11
100
AcDbEntity
100
AcDbSpline
8
Layer_2
210
0
220
0
230
1
70
8
71
3
72
8
73
4
74
0
42
1e-7
43
1e-7
44
1e-10
40
0
40
0
40
0
40
0
40
1
40
1
40
1
40
1
10
-3.3085982623844488
20
1.6341618441367478
30
0
10
-3.297478015826078
20
1.5503493016335959
30
0
10
-3.281580049171223
20
1.4829303822306774
30
0
10
-3.260904362419884
20
1.4319050859279931
30
0
0
SPLINE
5
EA
330
11
100
AcDbEntity
100
AcDbSpline
8
Layer_2
210
0
220
0
230
1
70
8
71
3
72
8
73
4
74
0
42
1e-7
43
1e-7
44
1e-10
40
0
40
0
40
0
40
0
40
1
40
1
40
1
40
1
10
-3.260904362419884
20
1.4319050859279931
30
0
10
-3.2402286756685448
20
1.3808797896253089
30
0
10
-3.214235813860639
20
1.3351952164534593
30
0
10
-3.182925776996166
20
1.294851366412444
30
0
0
SPLINE
5
EB
330
11
100
AcDbEntity
100
AcDbSpline
8
Layer_2
210
0
220
0
230
1
70
8
71
3
72
8
73
4
74
0
42
1e-7
43
1e-7
44
1e-10
40
0
40
0
40
0
40
0
40
1
40
1
40
1
40
1
10
-3.182925776996166
20
1.294851366412444
30
0
10
-3.202985770040948
20
1.2643785300141785
30
0
10
-3.2184907317574267
20
1.234510055086631
30
0
10
-3.229440653884101
20
1.2052458598417948
30
0
0
SPLINE
5
EC
330
11
100
AcDbEntity
100
AcDbSpline
8
Layer_2
210
0
220
0
230
1
70
8
71
3
72
8
73
4
74
0
42
1e-7
43
1e-7
44
1e-10
40
0
40
0
40
0
40
0
40
1
40
1
40
1
40
1
10
-3.229440653884101
20
1.2052458598417948
30
0
10
-3.2403905880902597
20
1.1759817458783959
30
0
10
-3.2427228762601277
20
1.1376635362552359
30
0
10
-3.236437508859541
20
1.0902911493531646
30
0
0
SPLINE
5
ED
330
11
100
AcDbEntity
100
AcDbSpline
8
Layer_2
210
0
220
0
230
1
70
8
71
3
72
8
73
4
74
0
42
1e-7
43
1e-7
44
1e-10
40
0
40
0
40
0
40
0
40
1
40
1
40
1
40
1
10
-3.236437508859541
20
1.0902911493531646
30
0
10
-3.22821819555948
20
1.028342743650818
30
0
10
-3.2022857763151973
20
0.9831137219729107
30
0
10
-3.1586402365018866
20
0.9546040033757184
30
0
0
SPLINE
5
EE
330
11
100
AcDbEntity
100
AcDbSpline
8
Layer_2
210
0
220
0
230
1
70
8
71
3
72
8
73
4
74
0
42
1e-7
43
1e-7
44
1e-10
40
0
40
0
40
0
40
0
40
1
40
1
40
1
40
1
10
-3.1586402365018866
20
0.9546040033757184
30
0
10
-3.1149947047487614
20
0.9260942837091009
30
0
10
-3.067663763433702
20
0.9152238481118133
30
0
10
-3.016647412556709
20
0.9219926965838565
30
0
0
SPLINE
5
EF
330
11
100
AcDbEntity
100
AcDbSpline
8
Layer_2
210
0
220
0
230
1
70
8
71
3
72
8
73
4
74
0
42
1e-7
43
1e-7
44
1e-10
40
0
40
0
40
0
40
0
40
1
40
1
40
1
40
1
10
-3.016647412556709
20
0.9219926965838565
30
0
10
-2.985673209705536
20
0.926102353233887
30
0
10
-2.9565165492223167
20
0.9369236776216893
30
0
10
-2.929177431107053
20
0.9544566697472642
30
0
0
SPLINE
5
F0
330
11
100
AcDbEntity
100
AcDbSpline
8
Layer_2
210
0
220
0
230
1
70
8
71
3
72
8
73
4
74
0
42
1e-7
43
1e-7
44
1e-10
40
0
40
0
40
0
40
0
40
1
40
1
40
1
40
1
10
-2.929177431107053
20
0.9544566697472642
30
0
10
-2.9018383333543625
20
0.9719896591711332
30
0
10
-2.878928917981079
20
0.994960761389326
30
0
10
-2.8604491837361286
20
1.0233698107995493
30
0
0
SPLINE
5
F1
330
11
100
AcDbEntity
100
AcDbSpline
8
Layer_2
210
0
220
0
230
1
70
8
71
3
72
8
73
4
74
0
42
1e-7
43
1e-7
44
1e-10
40
0
40
0
40
0
40
0
40
1
40
1
40
1
40
1
10
-2.8604491837361286
20
1.0233698107995493
30
0
10
-2.829121288694669
20
1.0108396623366884
30
0
10
-2.7863733612015107
20
1.003069306228395
30
0
10
-2.7322054120634767
20
1.0000588239249628
30
0
0
SPLINE
5
F2
330
11
100
AcDbEntity
100
AcDbSpline
8
Layer_2
210
0
220
0
230
1
70
8
71
3
72
8
73
4
74
0
42
1e-7
43
1e-7
44
1e-10
40
0
40
0
40
0
40
0
40
1
40
1
40
1
40
1
10
-2.7322054120634767
20
1.0000588239249628
30
0
10
-2.6780374629254426
20
0.9970483416215304
30
0
10
-2.6199792909086637
20
0.9996527978449917
30
0
10
-2.5580308852063167
20
1.0078721111450526
30
0
0
SPLINE
5
F3
330
11
100
AcDbEntity
100
AcDbSpline
8
Layer_2
210
0
220
0
230
1
70
8
71
3
72
8
73
4
74
0
42
1e-7
43
1e-7
44
1e-10
40
0
40
0
40
0
40
0
40
1
40
1
40
1
40
1
10
-2.5580308852063167
20
1.0078721111450526
30
0
10
-2.446888090251864
20
1.022618535083134
30
0
10
-2.347208001027886
20
1.0608742698042994
30
0
10
-2.258990484552117
20
1.1226392500684899
30
0
0
SPLINE
5
F4
330
11
100
AcDbEntity
100
AcDbSpline
8
Layer_2
210
0
220
0
230
1
70
8
71
3
72
8
73
4
74
0
42
1e-7
43
1e-7
44
1e-10
40
0
40
0
40
0
40
0
40
1
40
1
40
1
40
1
10
-2.258990484552117
20
1.1226392500684899
30
0
10
-2.1707729788831713
20
1.1844043117829741
30
0
10
-2.1038253478746216
20
1.2702315323161057
30
0
10
-2.058147591526467
20
1.3801209116678839
30
0
0
SPLINE
5
F5
330
11
100
AcDbEntity
100
AcDbSpline
8
Layer_2
210
0
220
0
230
1
70
8
71
3
72
8
73
4
74
0
42
1e-7
43
1e-7
44
1e-10
40
0
40
0
40
0
40
0
40
1
40
1
40
1
40
1
10
-2.058147591526467
20
1.3801209116678839
30
0
10
-2.012469896683057
20
1.490010338115309
30
0
10
-2.000388680063003
20
1.626034583529597
30
0
10
-2.021903941666304
20
1.7881936479107488
30
0
0
SPLINE
5
F6
330
11
100
AcDbEntity
100
AcDbSpline
8
Layer_2
210
0
220
0
230
1
70
8
71
3
72
8
73
4
74
0
42
1e-7
43
1e-7
44
1e-10
40
0
40
0
40
0
40
0
40
1
40
1
40
1
40
1
10
-2.021903941666304
20
1.7881936479107488
30
0
10
-2.029156276613216
20
1.8428540034878107
30
0
10
-2.0430878612706143
20
1.8989457627475648
30
0
10
-2.0636986195916176
20
1.9564689772219814
30
0
0
SPLINE
5
F7
330
11
100
AcDbEntity
100
AcDbSpline
8
Layer_2
210
0
220
0
230
1
70
8
71
3
72
8
73
4
74
0
42
1e-7
43
1e-7
44
1e-10
40
0
40
0
40
0
40
0
40
1
40
1
40
1
40
1
10
-2.0636986195916176
20
1.9564689772219814
30
0
10
-2.084309372509209
20
2.013992150971251
30
0
10
-2.1116642926421525
20
2.0664488254950957
30
0
10
-2.145763298540153
20
2.113839011600339
30
0
0
SPLINE
5
F8
330
11
100
AcDbEntity
100
AcDbSpline
8
Layer_2
210
0
220
0
230
1
70
8
71
3
72
8
73
4
74
0
42
1e-7
43
1e-7
44
1e-10
40
0
40
0
40
0
40
0
40
1
40
1
40
1
40
1
10
-2.145763298540153
20
2.113839011600339
30
0
10
-2.179862385888448
20
2.1612291868987588
30
0
10
-2.2195247696904374
20
2.1981472482043762
30
0
10
-2.2647506168992684
20
2.224593204447405
30
0
0
SPLINE
5
F9
330
11
100
AcDbEntity
100
AcDbSpline
8
Layer_2
210
0
220
0
230
1
70
8
71
3
72
8
73
4
74
0
42
1e-7
43
1e-7
44
1e-10
40
0
40
0
40
0
40
0
40
1
40
1
40
1
40
1
10
-2.2647506168992684
20
2.224593204447405
30
0
10
-2.3099763826578052
20
2.251039171497257
30
0
10
-2.3608305259509152
20
2.260515105123186
30
0
10
-2.4173128838780116
20
2.25302102693884
30
0
0
SPLINE
5
FA
330
11
100
AcDbEntity
100
AcDbSpline
8
Layer_2
210
0
220
0
230
1
70
8
71
3
72
8
73
4
74
0
42
1e-7
43
1e-7
44
1e-10
40
0
40
0
40
0
40
0
40
1
40
1
40
1
40
1
10
-2.4173128838780116
20
2.25302102693884
30
0
10
-2.4792612895803585
20
2.244801713638779
30
0
10
-2.5230309663469526
20
2.22184404975284
30
0
10
-2.548621914853221
20
2.1841480403716655
30
0
0
SPLINE
5
FB
330
11
100
AcDbEntity
100
AcDbSpline
8
Layer_2
210
0
220
0
230
1
70
8
71
3
72
8
73
4
74
0
42
1e-7
43
1e-7
44
1e-10
40
0
40
0
40
0
40
0
40
1
40
1
40
1
40
1
10
-2.548621914853221
20
2.1841480403716655
30
0
10
-2.574212781233769
20
2.1464520367066715
30
0
10
-2.583261254080458
20
2.0993628247412293
30
0
10
-2.575767173194406
20
2.0428804464515595
30
0
0
SPLINE
5
FC
330
11
100
AcDbEntity
100
AcDbSpline
8
Layer_2
210
0
220
0
230
1
70
8
71
3
72
8
73
4
74
0
42
1e-7
43
1e-7
44
1e-10
40
0
40
0
40
0
40
0
40
1
40
1
40
1
40
1
10
-2.575767173194406
20
2.0428804464515595
30
0
10
-2.570690536390089
20
2.0046181799000524
30
0
10
-2.563452781343282
20
1.9745225357482188
30
0
10
-2.5540539080539824
20
1.9525935139960586
30
0
0
SPLINE
5
FD
330
11
100
AcDbEntity
100
AcDbSpline
8
Layer_2
210
0
220
0
230
1
70
8
71
3
72
8
73
4
74
0
42
1e-7
43
1e-7
44
1e-10
40
0
40
0
40
0
40
0
40
1
40
1
40
1
40
1
10
-2.5540539080539824
20
1.9525935139960586
30
0
10
-2.5446551108115654
20
1.930664440711928
30
0
10
-2.5341919263386723
20
1.9111942381558202
30
0
10
-2.5226644252787747
20
1.8941828140706183
30
0
0
SPLINE
5
FE
330
11
100
AcDbEntity
100
AcDbSpline
8
Layer_2
210
0
220
0
230
1
70
8
71
3
72
8
73
4
74
0
42
1e-7
43
1e-7
44
1e-10
40
0
40
0
40
0
40
0
40
1
40
1
40
1
40
1
10
-2.5226644252787747
20
1.8941828140706183
30
0
10
-2.511136848171995
20
1.8771714415173868
30
0
10
-2.5006737397459844
20
1.8577011874293088
30
0
10
-2.491274866456685
20
1.8357721656771486
30
0
0
SPLINE
5
FF
330
11
100
AcDbEntity
100
AcDbSpline
8
Layer_2
210
0
220
0
230
1
70
8
71
3
72
8
73
4
74
0
42
1e-7
43
1e-7
44
1e-10
40
0
40
0
40
0
40
0
40
1
40
1
40
1
40
1
10
-2.491274866456685
20
1.8357721656771486
30
0
10
-2.4818759859628363
20
1.8138430896247926
30
0
10
-2.474517357496174
20
1.7828364307228926
30
0
10
-2.4691989810566977
20
1.742752188971449
30
0
0
SPLINE
5
100
330
11
100
AcDbEntity
100
AcDbSpline
8
Layer_2
210
0
220
0
230
1
70
8
71
3
72
8
73
4
74
0
42
1e-7
43
1e-7
44
1e-10
40
0
40
0
40
0
40
0
40
1
40
1
40
1
40
1
10
-2.4691989810566977
20
1.742752188971449
30
0
10
-2.4578369894597554
20
1.6571176305432136
30
0
10
-2.465802087275819
20
1.5948759128754095
30
0
10
-2.4930941224111254
20
1.5560271390319786
30
0
0
SPLINE
5
101
330
11
100
AcDbEntity
100
AcDbSpline
8
Layer_2
210
0
220
0
230
1
70
8
71
3
72
8
73
4
74
0
42
1e-7
43
1e-7
44
1e-10
40
0
40
0
40
0
40
0
40
1
40
1
40
1
40
1
10
-2.4930941224111254
20
1.5560271390319786
30
0
10
-2.520386168353255
20
1.5171784466388416
30
0
10
-2.554985350080907
20
1.4949739528495434
30
0
10
-2.5968916484825812
20
1.4894138259680836
30
0
0
SPLINE
5
102
330
11
100
AcDbEntity
100
AcDbSpline
8
Layer_2
210
0
220
0
230
1
70
8
71
3
72
8
73
4
74
0
42
1e-7
43
1e-7
44
1e-10
40
0
40
0
40
0
40
0
40
1
40
1
40
1
40
1
10
-2.5968916484825812
20
1.4894138259680836
30
0
10
-2.588135299004372
20
1.5072624341218521
30
0
10
-2.5825584827681296
20
1.5385948203147886
30
0
10
-2.580161321949295
20
1.5834109683366573
30
0
0
SPLINE
5
103
330
11
100
AcDbEntity
100
AcDbSpline
8
Layer_2
210
0
220
0
230
1
70
8
71
3
72
8
73
4
74
0
42
1e-7
43
1e-7
44
1e-10
40
0
40
0
40
0
40
0
40
1
40
1
40
1
40
1
10
-2.580161321949295
20
1.5834109683366573
30
0
10
-2.577764155727049
20
1.628227075633379
30
0
10
-2.580070830447224
20
1.677054331661239
30
0
10
-2.5870814221567016
20
1.7298926848882665
30
0
0
SPLINE
5
104
330
11
100
AcDbEntity
100
AcDbSpline
8
Layer_2
210
0
220
0
230
1
70
8
71
3
72
8
73
4
74
0
42
1e-7
43
1e-7
44
1e-10
40
0
40
0
40
0
40
0
40
1
40
1
40
1
40
1
10
-2.5870814221567016
20
1.7298926848882665
30
0
10
-2.598926905631924
20
1.8191712887417177
30
0
10
-2.623410052306765
20
1.8988932493152137
30
0
10
-2.660530902906371
20
1.969058561205343
30
0
0
SPLINE
5
105
330
11
100
AcDbEntity
100
AcDbSpline
8
Layer_2
210
0
220
0
230
1
70
8
71
3
72
8
73
4
74
0
42
1e-7
43
1e-7
44
1e-10
40
0
40
0
40
0
40
0
40
1
40
1
40
1
40
1
10
-2.660530902906371
20
1.969058561205343
30
0
10
-2.697651756207683
20
2.039223893458046
30
0
10
-2.744621251280283
20
2.092786280946355
30
0
10
-2.80143947227617
20
2.12974573322602
30
0
0
SPLINE
5
106
330
11
100
AcDbEntity
100
AcDbSpline
8
Layer_2
210
0
220
0
230
1
70
8
71
3
72
8
73
4
74
0
42
1e-7
43
1e-7
44
1e-10
40
0
40
0
40
0
40
0
40
1
40
1
40
1
40
1
10
-2.80143947227617
20
2.12974573322602
30
0
10
-2.8582576783461553
20
2.166705177125536
30
0
10
-2.9231070320075716
20
2.1803500073095488
30
0
10
-2.995987533260419
20
2.1706802237780582
30
0
0
SPLINE
5
107
330
11
100
AcDbEntity
100
AcDbSpline
8
Layer_2
210
0
220
0
230
1
70
8
71
3
72
8
73
4
74
0
42
1e-7
43
1e-7
44
1e-10
40
0
40
0
40
0
40
0
40
1
40
1
40
1
40
1
10
-2.995987533260419
20
2.1706802237780582
30
0
10
-3.0816221052637034
20
2.1593182303799785
30
0
10
-3.149324142044889
20
2.128086484212345
30
0
10
-3.1990936436039763
20
2.076984985275157
30
0
0
SPLINE
5
108
330
11
100
AcDbEntity
100
AcDbSpline
8
Layer_2
210
0
220
0
230
1
70
8
71
3
72
8
73
4
74
0
42
1e-7
43
1e-7
44
1e-10
40
0
40
0
40
0
40
0
40
1
40
1
40
1
40
1
10
-3.1990936436039763
20
2.076984985275157
30
0
10
-3.24886314381221
20
2.0258834761566824
30
0
10
-3.282517659927976
20
1.9616238894776914
30
0
10
-3.300057191951274
20
1.8842062252381846
30
0
0
SPLINE
5
109
330
11
100
AcDbEntity
100
AcDbSpline
8
Layer_2
210
0
220
0
230
1
70
8
71
3
72
8
73
4
74
0
42
1e-7
43
1e-7
44
1e-10
40
0
40
0
40
0
40
0
40
1
40
1
40
1
40
1
10
-2.9868371173014374
20
1.525281506791841
30
0
10
-3.006926307582068
20
1.543938102091096
30
0
10
-3.0197509376954215
20
1.574219490555546
30
0
10
-3.0253110645768815
20
1.61612578895722
30
0
0
SPLINE
5
10A
330
11
100
AcDbEntity
100
AcDbSpline
8
Layer_2
210
0
220
0
230
1
70
8
71
3
72
8
73
4
74
0
42
1e-7
43
1e-7
44
1e-10
40
0
40
0
40
0
40
0
40
1
40
1
40
1
40
1
10
-3.0253110645768815
20
1.61612578895722
30
0
10
-3.0306294428174954
20
1.6562100442837127
30
0
10
-3.026084557761002
20
1.688332531565258
30
0
10
-3.0116763686822545
20
1.7124932562052675
30
0
0
SPLINE
5
10B
330
11
100
AcDbEntity
100
AcDbSpline
8
Layer_2
210
0
220
0
230
1
70
8
71
3
72
8
73
4
74
0
42
1e-7
43
1e-7
44
1e-10
40
0
40
0
40
0
40
0
40
1
40
1
40
1
40
1
10
-3.0116763686822545
20
1.7124932562052675
30
0
10
-2.997268191377419
20
1.736653965469091
30
0
10
-2.979132027537074
20
1.7501847876307262
30
0
10
-2.9572678771612195
20
1.7530857226901733
30
0
0
SPLINE
5
10C
330
11
100
AcDbEntity
100
AcDbSpline
8
Layer_2
210
0
220
0
230
1
70
8
71
3
72
8
73
4
74
0
42
1e-7
43
1e-7
44
1e-10
40
0
40
0
40
0
40
0
40
1
40
1
40
1
40
1
10
-2.9572678771612195
20
1.7530857226901733
30
0
10
-2.935403726785365
20
1.7559866577496204
30
0
10
-2.9143666247003233
20
1.7476533575860675
30
0
10
-2.8941565655026817
20
1.7280857814743689
30
0
0
SPLINE
5
10D
330
11
100
AcDbEntity
100
AcDbSpline
8
Layer_2
210
0
220
0
230
1
70
8
71
3
72
8
73
4
74
0
42
1e-7
43
1e-7
44
1e-10
40
0
40
0
40
0
40
0
40
1
40
1
40
1
40
1
10
-2.8941565655026817
20
1.7280857814743689
30
0
10
-2.873946547030187
20
1.7085181999592582
30
0
10
-2.8611823079484857
20
1.6786922869418688
30
0
10
-2.855863929707872
20
1.6386080316153762
30
0
0
SPLINE
5
10E
330
11
100
AcDbEntity
100
AcDbSpline
8
Layer_2
210
0
220
0
230
1
70
8
71
3
72
8
73
4
74
0
42
1e-7
43
1e-7
44
1e-10
40
0
40
0
40
0
40
0
40
1
40
1
40
1
40
1
10
-2.855863929707872
20
1.6386080316153762
30
0
10
-2.850303802826412
20
1.5967017332137021
30
0
10
-2.8547882968512526
20
1.5641237704850968
30
0
10
-2.8693173141218646
20
1.5408740320609426
30
0
0
SPLINE
5
10F
330
11
100
AcDbEntity
100
AcDbSpline
8
Layer_2
210
0
220
0
230
1
70
8
71
3
72
8
73
4
74
0
42
1e-7
43
1e-7
44
1e-10
40
0
40
0
40
0
40
0
40
1
40
1
40
1
40
1
10
-2.8693173141218646
20
1.5408740320609426
30
0
10
-2.8838463721176235
20
1.5176242882333768
30
0
10
-2.9020429817068414
20
1.5045489895150175
30
0
10
-2.9239071320826957
20
1.5016480544555704
30
0
0
SPLINE
5
110
330
11
100
AcDbEntity
100
AcDbSpline
8
Layer_2
210
0
220
0
230
1
70
8
71
3
72
8
73
4
74
0
42
1e-7
43
1e-7
44
1e-10
40
0
40
0
40
0
40
0
40
1
40
1
40
1
40
1
10
-2.9239071320826957
20
1.5016480544555704
30
0
10
-2.94577128245855
20
1.4987471193961233
30
0
10
-2.966747927020807
20
1.506624911492586
30
0
10
-2.9868371173014374
20
1.525281506791841
30
0
0
SPLINE
5
111
330
11
100
AcDbEntity
100
AcDbSpline
8
Layer_2
210
0
220
0
230
1
70
8
71
3
72
8
73
4
74
0
42
1e-7
43
1e-7
44
1e-10
40
0
40
0
40
0
40
0
40
1
40
1
40
1
40
1
10
-3.116019365446544
20
0.6543345888355342
30
0
10
-3.1518171329870244
20
0.6097220617604485
30
0
10
-3.1656063601072346
20
0.5564415953717323
30
0
10
-3.1573870468071736
20
0.4944931896693856
30
0
0
SPLINE
5
112
330
11
100
AcDbEntity
100
AcDbSpline
8
Layer_2
210
0
220
0
230
1
70
8
71
3
72
8
73
4
74
0
42
1e-7
43
1e-7
44
1e-10
40
0
40
0
40
0
40
0
40
1
40
1
40
1
40
1
10
-3.1573870468071736
20
0.4944931896693856
30
0
10
-3.1486842434299698
20
0.428900752116872
30
0
10
-3.1260936603734737
20
0.380910674012221
30
0
10
-3.0896152976376854
20
0.3505229553554323
30
0
0
SPLINE
5
113
330
11
100
AcDbEntity
100
AcDbSpline
8
Layer_2
210
0
220
0
230
1
70
8
71
3
72
8
73
4
74
0
42
1e-7
43
1e-7
44
1e-10
40
0
40
0
40
0
40
0
40
1
40
1
40
1
40
1
10
-3.0896152976376854
20
0.3505229553554323
30
0
10
-3.0531369317166472
20
0.32013526474931026
30
0
10
-3.008483038912219
20
0.3014933034252124
30
0
10
-2.9556536192243996
20
0.2945970713831396
30
0
0
SPLINE
5
114
330
11
100
AcDbEntity
100
AcDbSpline
8
Layer_2
210
0
220
0
230
1
70
8
71
3
72
8
73
4
74
0
42
1e-7
43
1e-7
44
1e-10
40
0
40
0
40
0
40
0
40
1
40
1
40
1
40
1
10
-2.9556536192243996
20
0.2945970713831396
30
0
10
-2.9028242009206933
20
0.28770079771535123
30
0
10
-2.8484424896547096
20
0.2865727956473117
30
0
10
-2.7925084949821994
20
0.2912129810270214
30
0
0
SPLINE
5
115
330
11
100
AcDbEntity
100
AcDbSpline
8
Layer_2
210
0
220
0
230
1
70
8
71
3
72
8
73
4
74
0
42
1e-7
43
1e-7
44
1e-10
40
0
40
0
40
0
40
0
40
1
40
1
40
1
40
1
10
-2.7925084949821994
20
0.2912129810270214
30
0
10
-2.7365745003096893
20
0.29585316640673115
30
0
10
-2.6849213679084136
20
0.3013159143291885
30
0
10
-2.6375490217314894
20
0.307601276326363
30
0
0
SPLINE
5
116
330
11
100
AcDbEntity
100
AcDbSpline
8
Layer_2
210
0
220
0
230
1
70
8
71
3
72
8
73
4
74
0
42
1e-7
43
1e-7
44
1e-10
40
0
40
0
40
0
40
0
40
1
40
1
40
1
40
1
10
-2.6375490217314894
20
0.307601276326363
30
0
10
-2.546448415528004
20
0.31968850303902
30
0
10
-2.4703368231119898
20
0.3015121812155458
30
0
10
-2.4092142798051834
20
0.25307226472738187
30
0
0
SPLINE
5
117
330
11
100
AcDbEntity
100
AcDbSpline
8
Layer_2
210
0
220
0
230
1
70
8
71
3
72
8
73
4
74
0
42
1e-7
43
1e-7
44
1e-10
40
0
40
0
40
0
40
0
40
1
40
1
40
1
40
1
10
-2.4092142798051834
20
0.25307226472738187
30
0
10
-2.3480916975743673
20
0.2046323672176787
30
0
10
-2.313058132251072
20
0.14670519172402935
30
0
10
-2.3041135838352966
20
0.07929073824643229
30
0
0
SPLINE
5
118
330
11
100
AcDbEntity
100
AcDbSpline
8
Layer_2
210
0
220
0
230
1
70
8
71
3
72
8
73
4
74
0
42
1e-7
43
1e-7
44
1e-10
40
0
40
0
40
0
40
0
40
1
40
1
40
1
40
1
10
-2.3041135838352966
20
0.07929073824643229
30
0
10
-2.300729156897569
20
0.053782542445362236
30
0
10
-2.3014722319416028
20
0.03143494631978584
30
0
10
-2.3063428796108676
20
0.012247857612586732
30
0
0
SPLINE
5
119
330
11
100
AcDbEntity
100
AcDbSpline
8
Layer_2
210
0
220
0
230
1
70
8
71
3
72
8
73
4
74
0
42
1e-7
43
1e-7
44
1e-10
40
0
40
0
40
0
40
0
40
1
40
1
40
1
40
1
10
-2.3063428796108676
20
0.012247857612586732
30
0
10
-2.3112134350230154
20
-0.006939301738082847
30
0
10
-2.316418678415505
20
-0.027097843739672223
30
0
10
-2.321958517531221
20
-0.04822783903565231
30
0
0
SPLINE
5
11A
330
11
100
AcDbEntity
100
AcDbSpline
8
Layer_2
210
0
220
0
230
1
70
8
71
3
72
8
73
4
74
0
42
1e-7
43
1e-7
44
1e-10
40
0
40
0
40
0
40
0
40
1
40
1
40
1
40
1
10
-2.321958517531221
20
-0.04822783903565231
30
0
10
-2.327498448904054
20
-0.06935776368816193
30
0
10
-2.328213496710043
20
-0.09540987772090109
30
0
10
-2.324103834656601
20
-0.12638412129722143
30
0
0
SPLINE
5
11B
330
11
100
AcDbEntity
100
AcDbSpline
8
Layer_2
210
0
220
0
230
1
70
8
71
3
72
8
73
4
74
0
42
1e-7
43
1e-7
44
1e-10
40
0
40
0
40
0
40
0
40
1
40
1
40
1
40
1
10
-2.324103834656601
20
-0.12638412129722143
30
0
10
-2.3146757961636824
20
-0.19744260662498533
30
0
10
-2.2836768713306705
20
-0.24941579467396074
30
0
10
-2.2311070601575653
20
-0.28230368544414874
30
0
0
SPLINE
5
11C
330
11
100
AcDbEntity
100
AcDbSpline
8
Layer_2
210
0
220
0
230
1
70
8
71
3
72
8
73
4
74
0
42
1e-7
43
1e-7
44
1e-10
40
0
40
0
40
0
40
0
40
1
40
1
40
1
40
1
10
-2.2311070601575653
20
-0.28230368544414874
30
0
10
-2.178537194684264
20
-0.3151915690097878
30
0
10
-2.1258330989091485
20
-0.32813021673900594
30
0
10
-2.072994772832219
20
-0.3211196286318029
30
0
0
SPLINE
5
11D
330
11
100
AcDbEntity
100
AcDbSpline
8
Layer_2
210
0
220
0
230
1
70
8
71
3
72
8
73
4
74
0
42
1e-7
43
1e-7
44
1e-10
40
0
40
0
40
0
40
0
40
1
40
1
40
1
40
1
10
-2.072994772832219
20
-0.3211196286318029
30
0
10
-2.011046367129872
20
-0.312900315331742
30
0
10
-1.9582550968828027
20
-0.2845739419044082
30
0
10
-1.9146208698338922
20
-0.23614057899327234
30
0
0
SPLINE
5
11E
330
11
100
AcDbEntity
100
AcDbSpline
8
Layer_2
210
0
220
0
230
1
70
8
71
3
72
8
73
4
74
0
42
1e-7
43
1e-7
44
1e-10
40
0
40
0
40
0
40
0
40
1
40
1
40
1
40
1
10
-1.9146208698338922
20
-0.23614057899327234
30
0
10
-1.8709866427849817
20
-0.18770721608213647
30
0
10
-1.8390377736403296
20
-0.13155375772001723
30
0
10
-1.8187741593359963
20
-0.06768035600067879
30
0
0
SPLINE
5
11F
330
11
100
AcDbEntity
100
AcDbSpline
8
Layer_2
210
0
220
0
230
1
70
8
71
3
72
8
73
4
74
0
42
1e-7
43
1e-7
44
1e-10
40
0
40
0
40
0
40
0
40
1
40
1
40
1
40
1
10
-1.8187741593359963
20
-0.06768035600067879
30
0
10
-1.7985105558384864
20
-0.003806872831046415
30
0
10
-1.7922466159703574
20
0.05728199320802672
30
0
10
-1.7999824427955495
20
0.11558639421030459
30
0
0
SPLINE
5
120
330
11
100
AcDbEntity
100
AcDbSpline
8
Layer_2
210
0
220
0
230
1
70
8
71
3
72
8
73
4
74
0
42
1e-7
43
1e-7
44
1e-10
40
0
40
0
40
0
40
0
40
1
40
1
40
1
40
1
10
-1.7999824427955495
20
0.11558639421030459
30
0
10
-1.8091687398521712
20
0.18482289076308306
30
0
10
-1.826707428135994
20
0.250633502912954
30
0
10
-1.8525984478103716
20
0.3130184043673292
30
0
0
SPLINE
5
121
330
11
100
AcDbEntity
100
AcDbSpline
8
Layer_2
210
0
220
0
230
1
70
8
71
3
72
8
73
4
74
0
42
1e-7
43
1e-7
44
1e-10
40
0
40
0
40
0
40
0
40
1
40
1
40
1
40
1
10
-1.8525984478103716
20
0.3130184043673292
30
0
10
-1.8784894620813375
20
0.3754032650965574
30
0
10
-1.9133461998709265
20
0.42501052175700704
30
0
10
-1.9571685743254328
20
0.4618401444303546
30
0
0
SPLINE
5
122
330
11
100
AcDbEntity
100
AcDbSpline
8
Layer_2
210
0
220
0
230
1
70
8
71
3
72
8
73
4
74
0
42
1e-7
43
1e-7
44
1e-10
40
0
40
0
40
0
40
0
40
1
40
1
40
1
40
1
10
-1.9571685743254328
20
0.4618401444303546
30
0
10
-1.9130687821802663
20
0.47881584793377197
30
0
10
-1.8822904254818413
20
0.5088567197812058
30
0
10
-1.864833677937569
20
0.5519628198093037
30
0
0
SPLINE
5
123
330
11
100
AcDbEntity
100
AcDbSpline
8
Layer_2
210
0
220
0
230
1
70
8
71
3
72
8
73
4
74
0
42
1e-7
43
1e-7
44
1e-10
40
0
40
0
40
0
40
0
40
1
40
1
40
1
40
1
10
-1.864833677937569
20
0.5519628198093037
30
0
10
-1.8473769231887476
20
0.5950688655372057
30
0
10
-1.8419120984316415
20
0.6412190626646365
30
0
10
-1.8484392036662505
20
0.6904134111915952
30
0
0
SPLINE
5
124
330
11
100
AcDbEntity
100
AcDbSpline
8
Layer_2
210
0
220
0
230
1
70
8
71
3
72
8
73
4
74
0
42
1e-7
43
1e-7
44
1e-10
40
0
40
0
40
0
40
0
40
1
40
1
40
1
40
1
10
-1.8484392036662505
20
0.6904134111915952
30
0
10
-1.8576254953194604
20
0.7596498670192267
30
0
10
-1.882461077645845
20
0.8105867303975061
30
0
10
-1.9229461108442873
20
0.8432239593502131
30
0
0
SPLINE
5
125
330
11
100
AcDbEntity
100
AcDbSpline
8
Layer_2
210
0
220
0
230
1
70
8
71
3
72
8
73
4
74
0
42
1e-7
43
1e-7
44
1e-10
40
0
40
0
40
0
40
0
40
1
40
1
40
1
40
1
10
-1.9229461108442873
20
0.8432239593502131
30
0
10
-1.9634311440427297
20
0.8758611883029201
30
0
10
-2.0129422537680064
20
0.8961763143998936
30
0
10
-2.071479440020118
20
0.9041693376411342
30
0
0
SPLINE
5
126
330
11
100
AcDbEntity
100
AcDbSpline
8
Layer_2
210
0
220
0
230
1
70
8
71
3
72
8
73
4
74
0
42
1e-7
43
1e-7
44
1e-10
40
0
40
0
40
0
40
0
40
1
40
1
40
1
40
1
10
-2.071479440020118
20
0.9041693376411342
30
0
10
-2.13001662627223
20
0.9121623608823747
30
0
10
-2.1927182574971247
20
0.913113543901113
30
0
10
-2.259584333694802
20
0.9070228866973489
30
0
0
SPLINE
5
127
330
11
100
AcDbEntity
100
AcDbSpline
8
Layer_2
210
0
220
0
230
1
70
8
71
3
72
8
73
4
74
0
42
1e-7
43
1e-7
44
1e-10
40
0
40
0
40
0
40
0
40
1
40
1
40
1
40
1
10
-2.259584333694802
20
0.9070228866973489
30
0
10
-2.3264504094421947
20
0.9009322260998225
30
0
10
-2.3917686581296067
20
0.8936563666317427
30
0
10
-2.455539079757037
20
0.8851953082931103
30
0
0
SPLINE
5
128
330
11
100
AcDbEntity
100
AcDbSpline
8
Layer_2
210
0
220
0
230
1
70
8
71
3
72
8
73
4
74
0
42
1e-7
43
1e-7
44
1e-10
40
0
40
0
40
0
40
0
40
1
40
1
40
1
40
1
10
-2.455539079757037
20
0.8851953082931103
30
0
10
-2.5502836906605912
20
0.8726245951055847
30
0
10
-2.6418118292250936
20
0.8567724690098626
30
0
10
-2.7301234554008222
20
0.8376389404999985
30
0
0
SPLINE
5
129
330
11
100
AcDbEntity
100
AcDbSpline
8
Layer_2
210
0
220
0
230
1
70
8
71
3
72
8
73
4
74
0
42
1e-7
43
1e-7
44
1e-10
40
0
40
0
40
0
40
0
40
1
40
1
40
1
40
1
10
-2.7301234554008222
20
0.8376389404999985
30
0
10
-2.8184350673260754
20
0.8185054087006284
30
0
10
-2.8958795197671288
20
0.7943244279478155
30
0
10
-2.9624568127239828
20
0.7650959982415604
30
0
0
SPLINE
5
12A
330
11
100
AcDbEntity
100
AcDbSpline
8
Layer_2
210
0
220
0
230
1
70
8
71
3
72
8
73
4
74
0
42
1e-7
43
1e-7
44
1e-10
40
0
40
0
40
0
40
0
40
1
40
1
40
1
40
1
10
-2.9624568127239828
20
0.7650959982415604
30
0
10
-3.02903407763017
20
0.7358675653500552
30
0
10
-3.0802215952043572
20
0.6989470955480463
30
0
10
-3.116019365446544
20
0.6543345888355342
30
0
0
SPLINE
5
12B
330
11
100
AcDbEntity
100
AcDbSpline
8
Layer_2
210
0
220
0
230
1
70
8
71
3
72
8
73
4
74
0
42
1e-7
43
1e-7
44
1e-10
40
0
40
0
40
0
40
0
40
1
40
1
40
1
40
1
10
-2.9512198082316647
20
-0.744957426504778
30
0
10
-2.9687593404634747
20
-0.8223750631439025
30
0
10
-2.9716063639412
20
-0.9057231901777146
30
0
10
-2.9597608786648397
20
-0.9950018076062148
30
0
0
SPLINE
5
12C
330
11
100
AcDbEntity
100
AcDbSpline
8
Layer_2
210
0
220
0
230
1
70
8
71
3
72
8
73
4
74
0
42
1e-7
43
1e-7
44
1e-10
40
0
40
0
40
0
40
0
40
1
40
1
40
1
40
1
10
-2.9597608786648397
20
-0.9950018076062148
30
0
10
-2.948640632106469
20
-1.0788143501093668
30
0
10
-2.9327426654516136
20
-1.1462332695122857
30
0
10
-2.9120669787002744
20
-1.19725856581497
30
0
0
SPLINE
5
12D
330
11
100
AcDbEntity
100
AcDbSpline
8
Layer_2
210
0
220
0
230
1
70
8
71
3
72
8
73
4
74
0
42
1e-7
43
1e-7
44
1e-10
40
0
40
0
40
0
40
0
40
1
40
1
40
1
40
1
10
-2.9120669787002744
20
-1.19725856581497
30
0
10
-2.8913912919489353
20
-1.2482838621176542
30
0
10
-2.8653984301410294
20
-1.2939684352895036
30
0
10
-2.8340883932765566
20
-1.334312285330519
30
0
0
SPLINE
5
12E
330
11
100
AcDbEntity
100
AcDbSpline
8
Layer_2
210
0
220
0
230
1
70
8
71
3
72
8
73
4
74
0
42
1e-7
43
1e-7
44
1e-10
40
0
40
0
40
0
40
0
40
1
40
1
40
1
40
1
10
-2.8340883932765566
20
-1.334312285330519
30
0
10
-2.8541483863213384
20
-1.3647851217287843
30
0
10
-2.8696533480378177
20
-1.3946535966563318
30
0
10
-2.880603270164492
20
-1.423917791901168
30
0
0
SPLINE
5
12F
330
11
100
AcDbEntity
100
AcDbSpline
8
Layer_2
210
0
220
0
230
1
70
8
71
3
72
8
73
4
74
0
42
1e-7
43
1e-7
44
1e-10
40
0
40
0
40
0
40
0
40
1
40
1
40
1
40
1
10
-2.880603270164492
20
-1.423917791901168
30
0
10
-2.8915532043706507
20
-1.453181905864567
30
0
10
-2.893885492540518
20
-1.491500115487727
30
0
10
-2.8876001251399317
20
-1.5388725023897982
30
0
0
SPLINE
5
130
330
11
100
AcDbEntity
100
AcDbSpline
8
Layer_2
210
0
220
0
230
1
70
8
71
3
72
8
73
4
74
0
42
1e-7
43
1e-7
44
1e-10
40
0
40
0
40
0
40
0
40
1
40
1
40
1
40
1
10
-2.8876001251399317
20
-1.5388725023897982
30
0
10
-2.8793808118398707
20
-1.600820908092145
30
0
10
-2.853448392595588
20
-1.6460499297700524
30
0
10
-2.809802852782277
20
-1.6745596483672447
30
0
0
SPLINE
5
131
330
11
100
AcDbEntity
100
AcDbSpline
8
Layer_2
210
0
220
0
230
1
70
8
71
3
72
8
73
4
74
0
42
1e-7
43
1e-7
44
1e-10
40
0
40
0
40
0
40
0
40
1
40
1
40
1
40
1
10
-2.809802852782277
20
-1.6745596483672447
30
0
10
-2.766157321029152
20
-1.7030693680338622
30
0
10
-2.718826379714092
20
-1.7139398036311497
30
0
10
-2.667810028837099
20
-1.7071709551591066
30
0
0
SPLINE
5
132
330
11
100
AcDbEntity
100
AcDbSpline
8
Layer_2
210
0
220
0
230
1
70
8
71
3
72
8
73
4
74
0
42
1e-7
43
1e-7
44
1e-10
40
0
40
0
40
0
40
0
40
1
40
1
40
1
40
1
10
-2.667810028837099
20
-1.7071709551591066
30
0
10
-2.636835825985926
20
-1.703061298509076
30
0
10
-2.6076791655027067
20
-1.6922399741212726
30
0
10
-2.580340047387443
20
-1.6747069819956977
30
0
0
SPLINE
5
133
330
11
100
AcDbEntity
100
AcDbSpline
8
Layer_2
210
0
220
0
230
1
70
8
71
3
72
8
73
4
74
0
42
1e-7
43
1e-7
44
1e-10
40
0
40
0
40
0
40
0
40
1
40
1
40
1
40
1
10
-2.580340047387443
20
-1.6747069819956977
30
0
10
-2.5530009496347525
20
-1.6571739925718287
30
0
10
-2.5300915342614694
20
-1.634202890353636
30
0
10
-2.511611800016519
20
-1.605793840943413
30
0
0
SPLINE
5
134
330
11
100
AcDbEntity
100
AcDbSpline
8
Layer_2
210
0
220
0
230
1
70
8
71
3
72
8
73
4
74
0
42
1e-7
43
1e-7
44
1e-10
40
0
40
0
40
0
40
0
40
1
40
1
40
1
40
1
10
-2.511611800016519
20
-1.605793840943413
30
0
10
-2.4802839049750594
20
-1.6183239894062738
30
0
10
-2.4375359774819008
20
-1.6260943455145676
30
0
10
-2.3833680283438667
20
-1.6291048278179998
30
0
0
SPLINE
5
135
330
11
100
AcDbEntity
100
AcDbSpline
8
Layer_2
210
0
220
0
230
1
70
8
71
3
72
8
73
4
74
0
42
1e-7
43
1e-7
44
1e-10
40
0
40
0
40
0
40
0
40
1
40
1
40
1
40
1
10
-2.3833680283438667
20
-1.6291048278179998
30
0
10
-2.3292000792058327
20
-1.632115310121432
30
0
10
-2.271141907189054
20
-1.6295108538979708
30
0
10
-2.2091935014867072
20
-1.6212915405979098
30
0
0
SPLINE
5
136
330
11
100
AcDbEntity
100
AcDbSpline
8
Layer_2
210
0
220
0
230
1
70
8
71
3
72
8
73
4
74
0
42
1e-7
43
1e-7
44
1e-10
40
0
40
0
40
0
40
0
40
1
40
1
40
1
40
1
10
-2.2091935014867072
20
-1.6212915405979098
30
0
10
-2.0980507065322547
20
-1.6065451166598284
30
0
10
-1.9983706173082767
20
-1.5682893819386627
30
0
10
-1.9101531008325074
20
-1.5065244016744723
30
0
0
SPLINE
5
137
330
11
100
AcDbEntity
100
AcDbSpline
8
Layer_2
210
0
220
0
230
1
70
8
71
3
72
8
73
4
74
0
42
1e-7
43
1e-7
44
1e-10
40
0
40
0
40
0
40
0
40
1
40
1
40
1
40
1
10
-1.9101531008325074
20
-1.5065244016744723
30
0
10
-1.8219355951635618
20
-1.444759339959988
30
0
10
-1.754987964155012
20
-1.3589321194268575
30
0
10
-1.7093102078068574
20
-1.2490427400750794
30
0
0
SPLINE
5
138
330
11
100
AcDbEntity
100
AcDbSpline
8
Layer_2
210
0
220
0
230
1
70
8
71
3
72
8
73
4
74
0
42
1e-7
43
1e-7
44
1e-10
40
0
40
0
40
0
40
0
40
1
40
1
40
1
40
1
10
-1.7093102078068574
20
-1.2490427400750794
30
0
10
-1.6636325129634477
20
-1.1391533136276544
30
0
10
-1.6515512963433934
20
-1.0031290682133658
30
0
10
-1.6730665579466946
20
-0.8409700038322141
30
0
0
SPLINE
5
139
330
11
100
AcDbEntity
100
AcDbSpline
8
Layer_2
210
0
220
0
230
1
70
8
71
3
72
8
73
4
74
0
42
1e-7
43
1e-7
44
1e-10
40
0
40
0
40
0
40
0
40
1
40
1
40
1
40
1
10
-1.6730665579466946
20
-0.8409700038322141
30
0
10
-1.6803188928936064
20
-0.786309648255152
30
0
10
-1.694250477551005
20
-0.7302178889953977
30
0
10
-1.7148612358720083
20
-0.6726946745209812
30
0
0
SPLINE
5
13A
330
11
100
AcDbEntity
100
AcDbSpline
8
Layer_2
210
0
220
0
230
1
70
8
71
3
72
8
73
4
74
0
42
1e-7
43
1e-7
44
1e-10
40
0
40
0
40
0
40
0
40
1
40
1
40
1
40
1
10
-1.7148612358720083
20
-0.6726946745209812
30
0
10
-1.7354719887896
20
-0.6151715007717116
30
0
10
-1.7628269089225435
20
-0.5627148262478671
30
0
10
-1.796925914820544
20
-0.515324640142624
30
0
0
SPLINE
5
13B
330
11
100
AcDbEntity
100
AcDbSpline
8
Layer_2
210
0
220
0
230
1
70
8
71
3
72
8
73
4
74
0
42
1e-7
43
1e-7
44
1e-10
40
0
40
0
40
0
40
0
40
1
40
1
40
1
40
1
10
-1.796925914820544
20
-0.515324640142624
30
0
10
-1.8310250021688388
20
-0.4679344648442044
30
0
10
-1.8706873859708277
20
-0.43101640353858717
30
0
10
-1.9159132331796584
20
-0.40457044729555836
30
0
0
SPLINE
5
13C
330
11
100
AcDbEntity
100
AcDbSpline
8
Layer_2
210
0
220
0
230
1
70
8
71
3
72
8
73
4
74
0
42
1e-7
43
1e-7
44
1e-10
40
0
40
0
40
0
40
0
40
1
40
1
40
1
40
1
10
-1.9159132331796584
20
-0.40457044729555836
30
0
10
-1.9611389989381953
20
-0.3781244802457061
30
0
10
-2.0119931422313058
20
-0.36864854661977636
30
0
10
-2.068475500158402
20
-0.3761426248041225
30
0
0
SPLINE
5
13D
330
11
100
AcDbEntity
100
AcDbSpline
8
Layer_2
210
0
220
0
230
1
70
8
71
3
72
8
73
4
74
0
42
1e-7
43
1e-7
44
1e-10
40
0
40
0
40
0
40
0
40
1
40
1
40
1
40
1
10
-2.068475500158402
20
-0.3761426248041225
30
0
10
-2.130423905860749
20
-0.3843619381041834
30
0
10
-2.1741935826273435
20
-0.4073196019901227
30
0
10
-2.199784531133612
20
-0.44501561137129697
30
0
0
SPLINE
5
13E
330
11
100
AcDbEntity
100
AcDbSpline
8
Layer_2
210
0
220
0
230
1
70
8
71
3
72
8
73
4
74
0
42
1e-7
43
1e-7
44
1e-10
40
0
40
0
40
0
40
0
40
1
40
1
40
1
40
1
10
-2.199784531133612
20
-0.44501561137129697
30
0
10
-2.22537539751416
20
-0.4827116150362912
30
0
10
-2.2344238703608488
20
-0.5298008270017333
30
0
10
-2.226929789474797
20
-0.5862832052914032
30
0
0
SPLINE
5
13F
330
11
100
AcDbEntity
100
AcDbSpline
8
Layer_2
210
0
220
0
230
1
70
8
71
3
72
8
73
4
74
0
42
1e-7
43
1e-7
44
1e-10
40
0
40
0
40
0
40
0
40
1
40
1
40
1
40
1
10
-2.226929789474797
20
-0.5862832052914032
30
0
10
-2.22185315267048
20
-0.6245454718429103
30
0
10
-2.214615397623672
20
-0.6546411159947444
30
0
10
-2.2052165243343724
20
-0.6765701377469046
30
0
0
SPLINE
5
140
330
11
100
AcDbEntity
100
AcDbSpline
8
Layer_2
210
0
220
0
230
1
70
8
71
3
72
8
73
4
74
0
42
1e-7
43
1e-7
44
1e-10
40
0
40
0
40
0
40
0
40
1
40
1
40
1
40
1
10
-2.2052165243343724
20
-0.6765701377469046
30
0
10
-2.1958177270919554
20
-0.6984992110310352
30
0
10
-2.185354542619063
20
-0.717969413587143
30
0
10
-2.173827041559165
20
-0.7349808376723449
30
0
0
SPLINE
5
141
330
11
100
AcDbEntity
100
AcDbSpline
8
Layer_2
210
0
220
0
230
1
70
8
71
3
72
8
73
4
74
0
42
1e-7
43
1e-7
44
1e-10
40
0
40
0
40
0
40
0
40
1
40
1
40
1
40
1
10
-2.173827041559165
20
-0.7349808376723449
30
0
10
-2.1622994644523854
20
-0.7519922102255764
30
0
10
-2.151836356026375
20
-0.7714624643136542
30
0
10
-2.1424374827370753
20
-0.7933914860658143
30
0
0
SPLINE
5
142
330
11
100
AcDbEntity
100
AcDbSpline
8
Layer_2
210
0
220
0
230
1
70
8
71
3
72
8
73
4
74
0
42
1e-7
43
1e-7
44
1e-10
40
0
40
0
40
0
40
0
40
1
40
1
40
1
40
1
10
-2.1424374827370753
20
-0.7933914860658143
30
0
10
-2.133038602243227
20
-0.8153205621181705
30
0
10
-2.1256799737765646
20
-0.8463272210200702
30
0
10
-2.120361597337088
20
-0.8864114627715137
30
0
0
SPLINE
5
143
330
11
100
AcDbEntity
100
AcDbSpline
8
Layer_2
210
0
220
0
230
1
70
8
71
3
72
8
73
4
74
0
42
1e-7
43
1e-7
44
1e-10
40
0
40
0
40
0
40
0
40
1
40
1
40
1
40
1
10
-2.120361597337088
20
-0.8864114627715137
30
0
10
-2.108999605740146
20
-0.9720460211997491
30
0
10
-2.11696470355621
20
-1.0342877388675529
30
0
10
-2.1442567386915163
20
-1.0731365127109838
30
0
0
SPLINE
5
144
330
11
100
AcDbEntity
100
AcDbSpline
8
Layer_2
210
0
220
0
230
1
70
8
71
3
72
8
73
4
74
0
42
1e-7
43
1e-7
44
1e-10
40
0
40
0
40
0
40
0
40
1
40
1
40
1
40
1
10
-2.1442567386915163
20
-1.0731365127109838
30
0
10
-2.171548784633646
20
-1.1119852051041208
30
0
10
-2.2061479663612977
20
-1.134189698893419
30
0
10
-2.2480542647629718
20
-1.1397498257748788
30
0
0
SPLINE
5
145
330
11
100
AcDbEntity
100
AcDbSpline
8
Layer_2
210
0
220
0
230
1
70
8
71
3
72
8
73
4
74
0
42
1e-7
43
1e-7
44
1e-10
40
0
40
0
40
0
40
0
40
1
40
1
40
1
40
1
10
-2.2480542647629718
20
-1.1397498257748788
30
0
10
-2.2392979152847623
20
-1.1219012176211103
30
0
10
-2.23372109904852
20
-1.0905688314281743
30
0
10
-2.2313239382296857
20
-1.0457526834063056
30
0
0
SPLINE
5
146
330
11
100
AcDbEntity
100
AcDbSpline
8
Layer_2
210
0
220
0
230
1
70
8
71
3
72
8
73
4
74
0
42
1e-7
43
1e-7
44
1e-10
40
0
40
0
40
0
40
0
40
1
40
1
40
1
40
1
10
-2.2313239382296857
20
-1.0457526834063056
30
0
10
-2.2289267720074397
20
-1.0009365761095839
30
0
10
-2.2312334467276145
20
-0.952109320081724
30
0
10
-2.238244038437092
20
-0.8992709668546964
30
0
0
SPLINE
5
147
330
11
100
AcDbEntity
100
AcDbSpline
8
Layer_2
210
0
220
0
230
1
70
8
71
3
72
8
73
4
74
0
42
1e-7
43
1e-7
44
1e-10
40
0
40
0
40
0
40
0
40
1
40
1
40
1
40
1
10
-2.238244038437092
20
-0.8992709668546964
30
0
10
-2.2500895219123147
20
-0.8099923630012452
30
0
10
-2.2745726685871555
20
-0.7302704024277488
30
0
10
-2.3116935191867616
20
-0.6601050905376195
30
0
0
SPLINE
5
148
330
11
100
AcDbEntity
100
AcDbSpline
8
Layer_2
210
0
220
0
230
1
70
8
71
3
72
8
73
4
74
0
42
1e-7
43
1e-7
44
1e-10
40
0
40
0
40
0
40
0
40
1
40
1
40
1
40
1
10
-2.3116935191867616
20
-0.6601050905376195
30
0
10
-2.3488143724880737
20
-0.5899397582849166
30
0
10
-2.3957838675606733
20
-0.536377370796608
30
0
10
-2.4526020885565605
20
-0.4994179185169427
30
0
0
SPLINE
5
149
330
11
100
AcDbEntity
100
AcDbSpline
8
Layer_2
210
0
220
0
230
1
70
8
71
3
72
8
73
4
74
0
42
1e-7
43
1e-7
44
1e-10
40
0
40
0
40
0
40
0
40
1
40
1
40
1
40
1
10
-2.4526020885565605
20
-0.4994179185169427
30
0
10
-2.509420294626546
20
-0.462458474617427
30
0
10
-2.5742696482879626
20
-0.44881364443341454
30
0
10
-2.64715014954081
20
-0.4584834279649048
30
0
0
SPLINE
5
14A
330
11
100
AcDbEntity
100
AcDbSpline
8
Layer_2
210
0
220
0
230
1
70
8
71
3
72
8
73
4
74
0
42
1e-7
43
1e-7
44
1e-10
40
0
40
0
40
0
40
0
40
1
40
1
40
1
40
1
10
-2.64715014954081
20
-0.4584834279649048
30
0
10
-2.7327847215440944
20
-0.46984542136298435
30
0
10
-2.8004867583252797
20
-0.5010771675306179
30
0
10
-2.850256259884367
20
-0.5521786664678059
30
0
0
SPLINE
5
14B
330
11
100
AcDbEntity
100
AcDbSpline
8
Layer_2
210
0
220
0
230
1
70
8
71
3
72
8
73
4
74
0
42
1e-7
43
1e-7
44
1e-10
40
0
40
0
40
0
40
0
40
1
40
1
40
1
40
1
10
-2.850256259884367
20
-0.5521786664678059
30
0
10
-2.9000257600926007
20
-0.6032801755862806
30
0
10
-2.933680276208367
20
-0.6675397622652712
30
0
10
-2.9512198082316647
20
-0.744957426504778
30
0
0
SPLINE
5
14C
330
11
100
AcDbEntity
100
AcDbSpline
8
Layer_2
210
0
220
0
230
1
70
8
71
3
72
8
73
4
74
0
42
1e-7
43
1e-7
44
1e-10
40
0
40
0
40
0
40
0
40
1
40
1
40
1
40
1
10
-2.6379997335818275
20
-1.1038821449511218
30
0
10
-2.658088923862458
20
-1.0852255496518668
30
0
10
-2.6709135539758115
20
-1.054944161187417
30
0
10
-2.6764736808572716
20
-1.013037862785743
30
0
0
SPLINE
5
14D
330
11
100
AcDbEntity
100
AcDbSpline
8
Layer_2
210
0
220
0
230
1
70
8
71
3
72
8
73
4
74
0
42
1e-7
43
1e-7
44
1e-10
40
0
40
0
40
0
40
0
40
1
40
1
40
1
40
1
10
-2.6764736808572716
20
-1.013037862785743
30
0
10
-2.6817920590978854
20
-0.9729536074592505
30
0
10
-2.6772471740413923
20
-0.940831120177705
30
0
10
-2.6628389849626446
20
-0.9166703955376954
30
0
0
SPLINE
5
14E
330
11
100
AcDbEntity
100
AcDbSpline
8
Layer_2
210
0
220
0
230
1
70
8
71
3
72
8
73
4
74
0
42
1e-7
43
1e-7
44
1e-10
40
0
40
0
40
0
40
0
40
1
40
1
40
1
40
1
10
-2.6628389849626446
20
-0.9166703955376954
30
0
10
-2.648430807657809
20
-0.892509686273872
30
0
10
-2.6302946438174644
20
-0.8789788641122369
30
0
10
-2.60843049344161
20
-0.8760779290527898
30
0
0
SPLINE
5
14F
330
11
100
AcDbEntity
100
AcDbSpline
8
Layer_2
210
0
220
0
230
1
70
8
71
3
72
8
73
4
74
0
42
1e-7
43
1e-7
44
1e-10
40
0
40
0
40
0
40
0
40
1
40
1
40
1
40
1
10
-2.60843049344161
20
-0.8760779290527898
30
0
10
-2.5865663430657557
20
-0.8731769939933427
30
0
10
-2.5655292409807133
20
-0.8815102941568947
30
0
10
-2.545319181783072
20
-0.9010778702685935
30
0
0
SPLINE
5
150
330
11
100
AcDbEntity
100
AcDbSpline
8
Layer_2
210
0
220
0
230
1
70
8
71
3
72
8
73
4
74
0
42
1e-7
43
1e-7
44
1e-10
40
0
40
0
40
0
40
0
40
1
40
1
40
1
40
1
10
-2.545319181783072
20
-0.9010778702685935
30
0
10
-2.525109163310577
20
-0.920645451783704
30
0
10
-2.5123449242288762
20
-0.9504713648010938
30
0
10
-2.5070265459882624
20
-0.9905556201275864
30
0
0
SPLINE
5
151
330
11
100
AcDbEntity
100
AcDbSpline
8
Layer_2
210
0
220
0
230
1
70
8
71
3
72
8
73
4
74
0
42
1e-7
43
1e-7
44
1e-10
40
0
40
0
40
0
40
0
40
1
40
1
40
1
40
1
10
-2.5070265459882624
20
-0.9905556201275864
30
0
10
-2.5014664191068023
20
-1.0324619185292603
30
0
10
-2.5059509131316426
20
-1.0650398812578659
30
0
10
-2.5204799304022547
20
-1.08828961968202
30
0
0
SPLINE
5
152
330
11
100
AcDbEntity
100
AcDbSpline
8
Layer_2
210
0
220
0
230
1
70
8
71
3
72
8
73
4
74
0
42
1e-7
43
1e-7
44
1e-10
40
0
40
0
40
0
40
0
40
1
40
1
40
1
40
1
10
-2.5204799304022547
20
-1.08828961968202
30
0
10
-2.5350089883980136
20
-1.1115393635095858
30
0
10
-2.5532055979872315
20
-1.1246146622279451
30
0
10
-2.5750697483630858
20
-1.1275155972873923
30
0
0
SPLINE
5
153
330
11
100
AcDbEntity
100
AcDbSpline
8
Layer_2
210
0
220
0
230
1
70
8
71
3
72
8
73
4
74
0
42
1e-7
43
1e-7
44
1e-10
40
0
40
0
40
0
40
0
40
1
40
1
40
1
40
1
10
-2.5750697483630858
20
-1.1275155972873923
30
0
10
-2.59693389873894
20
-1.1304165323468394
30
0
10
-2.617910543301197
20
-1.1225387402503768
30
0
10
-2.6379997335818275
20
-1.1038821449511218
30
0
0
SPLINE
5
154
330
11
100
AcDbEntity
100
AcDbSpline
8
Layer_2
210
0
220
0
230
1
70
8
71
3
72
8
73
4
74
0
42
1e-7
43
1e-7
44
1e-10
40
0
40
0
40
0
40
0
40
1
40
1
40
1
40
1
10
4.506887830478299
20
1.4262364842173039
30
0
10
4.434412397388136
20
1.4770512126586235
30
0
10
4.357403964439019
20
1.5192981446596354
30
0
10
4.275862531630949
20
1.55297728022034
30
0
0
SPLINE
5
155
330
11
100
AcDbEntity
100
AcDbSpline
8
Layer_2
210
0
220
0
230
1
70
8
71
3
72
8
73
4
74
0
42
1e-7
43
1e-7
44
1e-10
40
0
40
0
40
0
40
0
40
1
40
1
40
1
40
1
10
4.275862531630949
20
1.55297728022034
30
0
10
4.0652136719987775
20
1.639981779098334
30
0
10
3.8850417459788806
20
1.6671694923029468
30
0
10
3.7353469032486966
20
1.63454035176222
30
0
0
SPLINE
5
156
330
11
100
AcDbEntity
100
AcDbSpline
8
Layer_2
210
0
220
0
230
1
70
8
71
3
72
8
73
4
74
0
42
1e-7
43
1e-7
44
1e-10
40
0
40
0
40
0
40
0
40
1
40
1
40
1
40
1
10
3.7353469032486966
20
1.63454035176222
30
0
10
3.5856520397789327
20
1.6019112327516734
30
0
10
3.4809845142879383
20
1.513398467120782
30
0
10
3.4213443267757135
20
1.3690020548695456
30
0
0
SPLINE
5
157
330
11
100
AcDbEntity
100
AcDbSpline
8
Layer_2
210
0
220
0
230
1
70
8
71
3
72
8
73
4
74
0
42
1e-7
43
1e-7
44
1e-10
40
0
40
0
40
0
40
0
40
1
40
1
40
1
40
1
10
3.4213443267757135
20
1.3690020548695456
30
0
10
3.3715272374586993
20
1.248388601655607
30
0
10
3.370429851474442
20
1.1349954512450768
30
0
10
3.4180519855739084
20
1.0288225904288462
30
0
0
SPLINE
5
158
330
11
100
AcDbEntity
100
AcDbSpline
8
Layer_2
210
0
220
0
230
1
70
8
71
3
72
8
73
4
74
0
42
1e-7
43
1e-7
44
1e-10
40
0
40
0
40
0
40
0
40
1
40
1
40
1
40
1
10
3.4180519855739084
20
1.0288225904288462
30
0
10
3.4656742313840097
20
0.9226497131048763
30
0
10
3.5538547257736472
20
0.811159412303677
30
0
10
3.6825934687428217
20
0.694351688025248
30
0
0
SPLINE
5
159
330
11
100
AcDbEntity
100
AcDbSpline
8
Layer_2
210
0
220
0
230
1
70
8
71
3
72
8
73
4
74
0
42
1e-7
43
1e-7
44
1e-10
40
0
40
0
40
0
40
0
40
1
40
1
40
1
40
1
10
3.6825934687428217
20
0.694351688025248
30
0
10
3.7170493675564753
20
0.6622230431932435
30
0
10
3.749557222904351
20
0.6313961994680644
30
0
10
3.7801170034202847
20
0.6018710809082755
30
0
0
SPLINE
5
15A
330
11
100
AcDbEntity
100
AcDbSpline
8
Layer_2
210
0
220
0
230
1
70
8
71
3
72
8
73
4
74
0
42
1e-7
43
1e-7
44
1e-10
40
0
40
0
40
0
40
0
40
1
40
1
40
1
40
1
10
3.7801170034202847
20
0.6018710809082755
30
0
10
3.8106767586224066
20
0.5723459728038743
30
0
10
3.8206942722723
20
0.5448425722485827
30
0
10
3.810169544369965
20
0.5193608792424005
30
0
0
SPLINE
5
15B
330
11
100
AcDbEntity
100
AcDbSpline
8
Layer_2
210
0
220
0
230
1
70
8
71
3
72
8
73
4
74
0
42
1e-7
43
1e-7
44
1e-10
40
0
40
0
40
0
40
0
40
1
40
1
40
1
40
1
10
3.810169544369965
20
0.5193608792424005
30
0
10
3.7989431553943422
20
0.49218037632589867
30
0
10
3.7803306404004964
20
0.47600486487520394
30
0
10
3.75433213806219
20
0.4708344654070238
30
0
0
SPLINE
5
15C
330
11
100
AcDbEntity
100
AcDbSpline
8
Layer_2
210
0
220
0
230
1
70
8
71
3
72
8
73
4
74
0
42
1e-7
43
1e-7
44
1e-10
40
0
40
0
40
0
40
0
40
1
40
1
40
1
40
1
10
3.75433213806219
20
0.4708344654070238
30
0
10
3.7283335284162846
20
0.46566402136357155
30
0
10
3.7051415762726387
20
0.46728863371236373
30
0
10
3.6847561611145445
20
0.4757084411271624
30
0
0
SPLINE
5
15D
330
11
100
AcDbEntity
100
AcDbSpline
8
Layer_2
210
0
220
0
230
1
70
8
71
3
72
8
73
4
74
0
42
1e-7
43
1e-7
44
1e-10
40
0
40
0
40
0
40
0
40
1
40
1
40
1
40
1
10
3.6847561611145445
20
0.4757084411271624
30
0
10
3.6490817605293153
20
0.4904430727368967
30
0
10
3.6237292888415227
20
0.5048915746403196
30
0
10
3.6086987014758956
20
0.5190540541450299
30
0
0
SPLINE
5
15E
330
11
100
AcDbEntity
100
AcDbSpline
8
Layer_2
210
0
220
0
230
1
70
8
71
3
72
8
73
4
74
0
42
1e-7
43
1e-7
44
1e-10
40
0
40
0
40
0
40
0
40
1
40
1
40
1
40
1
10
3.6086987014758956
20
0.5190540541450299
30
0
10
3.593668082744105
20
0.5332164577083048
30
0
10
3.579662299918878
20
0.5474527711832337
30
0
10
3.5666812456926156
20
0.561762949994544
30
0
0
SPLINE
5
15F
330
11
100
AcDbEntity
100
AcDbSpline
8
Layer_2
210
0
220
0
230
1
70
8
71
3
72
8
73
4
74
0
42
1e-7
43
1e-7
44
1e-10
40
0
40
0
40
0
40
0
40
1
40
1
40
1
40
1
10
3.5666812456926156
20
0.561762949994544
30
0
10
3.553700298773952
20
0.5760731733811265
30
0
10
3.5341734217109035
20
0.5925898696611586
30
0
10
3.5081007663863413
20
0.6113129761023133
30
0
0
SPLINE
5
160
330
11
100
AcDbEntity
100
AcDbSpline
8
Layer_2
210
0
220
0
230
1
70
8
71
3
72
8
73
4
74
0
42
1e-7
43
1e-7
44
1e-10
40
0
40
0
40
0
40
0
40
1
40
1
40
1
40
1
10
3.5081007663863413
20
0.6113129761023133
30
0
10
3.482028066486507
20
0.6300361898510668
30
0
10
3.440112463968122
20
0.6513257774374727
30
0
10
3.3823539142559147
20
0.67518184616913
30
0
0
SPLINE
5
161
330
11
100
AcDbEntity
100
AcDbSpline
8
Layer_2
210
0
220
0
230
1
70
8
71
3
72
8
73
4
74
0
42
1e-7
43
1e-7
44
1e-10
40
0
40
0
40
0
40
0
40
1
40
1
40
1
40
1
10
3.3823539142559147
20
0.67518184616913
30
0
10
3.343281893850046
20
0.6913197999254397
30
0
10
3.299076781439024
20
0.6986406602689706
30
0
10
3.2497385770228475
20
0.6971444271997229
30
0
0
SPLINE
5
162
330
11
100
AcDbEntity
100
AcDbSpline
8
Layer_2
210
0
220
0
230
1
70
8
71
3
72
8
73
4
74
0
42
1e-7
43
1e-7
44
1e-10
40
0
40
0
40
0
40
0
40
1
40
1
40
1
40
1
10
3.2497385770228475
20
0.6971444271997229
30
0
10
3.200400271351424
20
0.6956482359520263
30
0
10
3.1532963505605283
20
0.6803034265507343
30
0
10
3.108426935166868
20
0.6511098603220847
30
0
0
SPLINE
5
163
330
11
100
AcDbEntity
100
AcDbSpline
8
Layer_2
210
0
220
0
230
1
70
8
71
3
72
8
73
4
74
0
42
1e-7
43
1e-7
44
1e-10
40
0
40
0
40
0
40
0
40
1
40
1
40
1
40
1
10
3.108426935166868
20
0.6511098603220847
30
0
10
3.063557367890337
20
0.6219163568257617
30
0
10
3.027089781281578
20
0.5733439896410821
30
0
10
2.9990237774763577
20
0.5053926564083921
30
0
0
SPLINE
5
164
330
11
100
AcDbEntity
100
AcDbSpline
8
Layer_2
210
0
220
0
230
1
70
8
71
3
72
8
73
4
74
0
42
1e-7
43
1e-7
44
1e-10
40
0
40
0
40
0
40
0
40
1
40
1
40
1
40
1
10
2.9990237774763577
20
0.5053926564083921
30
0
10
2.964642949476202
20
0.42215233774856703
30
0
10
2.9640991327751323
20
0.33537648434257067
30
0
10
2.9973924165236943
20
0.24506488157520678
30
0
0
SPLINE
5
165
330
11
100
AcDbEntity
100
AcDbSpline
8
Layer_2
210
0
220
0
230
1
70
8
71
3
72
8
73
4
74
0
42
1e-7
43
1e-7
44
1e-10
40
0
40
0
40
0
40
0
40
1
40
1
40
1
40
1
10
2.9973924165236943
20
0.24506488157520678
30
0
10
3.030685628733857
20
0.1547532490909948
30
0
10
3.0910760846975074
20
0.06866115116306476
30
0
10
3.1785637844146453
20
-0.01321141220858335
30
0
0
SPLINE
5
166
330
11
100
AcDbEntity
100
AcDbSpline
8
Layer_2
210
0
220
0
230
1
70
8
71
3
72
8
73
4
74
0
42
1e-7
43
1e-7
44
1e-10
40
0
40
0
40
0
40
0
40
1
40
1
40
1
40
1
10
3.1785637844146453
20
-0.01321141220858335
30
0
10
3.2660514885348193
20
-0.09508403666324285
30
0
10
3.3734997183886786
20
-0.16233213975421917
30
0
10
3.500908259361025
20
-0.2149558106320575
30
0
0
SPLINE
5
167
330
11
100
AcDbEntity
100
AcDbSpline
8
Layer_2
210
0
220
0
230
1
70
8
71
3
72
8
73
4
74
0
42
1e-7
43
1e-7
44
1e-10
40
0
40
0
40
0
40
0
40
1
40
1
40
1
40
1
10
3.500908259361025
20
-0.2149558106320575
30
0
10
3.6334132300643303
20
-0.26968446472975877
30
0
10
3.764052868128251
20
-0.2928195496073521
30
0
10
3.892827186761896
20
-0.2843612485138711
30
0
0
SPLINE
5
168
330
11
100
AcDbEntity
100
AcDbSpline
8
Layer_2
210
0
220
0
230
1
70
8
71
3
72
8
73
4
74
0
42
1e-7
43
1e-7
44
1e-10
40
0
40
0
40
0
40
0
40
1
40
1
40
1
40
1
10
3.892827186761896
20
-0.2843612485138711
30
0
10
4.021601538963223
20
-0.2759029020204604
30
0
10
4.135308200066566
20
-0.24133537108144845
30
0
10
4.233947170071926
20
-0.18065865569683548
30
0
0
SPLINE
5
169
330
11
100
AcDbEntity
100
AcDbSpline
8
Layer_2
210
0
220
0
230
1
70
8
71
3
72
8
73
4
74
0
42
1e-7
43
1e-7
44
1e-10
40
0
40
0
40
0
40
0
40
1
40
1
40
1
40
1
10
4.233947170071926
20
-0.18065865569683548
30
0
10
4.332586223720388
20
-0.11998173780172805
30
0
10
4.402604339700142
20
-0.03952937177801971
30
0
10
4.444001652968521
20
0.06069874221926019
30
0
0
SPLINE
5
16A
330
11
100
AcDbEntity
100
AcDbSpline
8
Layer_2
210
0
220
0
230
1
70
8
71
3
72
8
73
4
74
0
42
1e-7
43
1e-7
44
1e-10
40
0
40
0
40
0
40
0
40
1
40
1
40
1
40
1
10
4.444001652968521
20
0.06069874221926019
30
0
10
4.484697305163612
20
0.15922804630622045
30
0
10
4.501416327710054
20
0.25026034723815965
30
0
10
4.494158730100525
20
0.33379564109430837
30
0
0
SPLINE
5
16B
330
11
100
AcDbEntity
100
AcDbSpline
8
Layer_2
210
0
220
0
230
1
70
8
71
3
72
8
73
4
74
0
42
1e-7
43
1e-7
44
1e-10
40
0
40
0
40
0
40
0
40
1
40
1
40
1
40
1
10
4.494158730100525
20
0.33379564109430837
30
0
10
4.486901105251768
20
0.4173308869366804
30
0
10
4.446286510914076
20
0.5091750284235816
30
0
10
4.372314947087449
20
0.609328065555012
30
0
0
SPLINE
5
16C
330
11
100
AcDbEntity
100
AcDbSpline
8
Layer_2
210
0
220
0
230
1
70
8
71
3
72
8
73
4
74
0
42
1e-7
43
1e-7
44
1e-10
40
0
40
0
40
0
40
0
40
1
40
1
40
1
40
1
10
4.372314947087449
20
0.609328065555012
30
0
10
4.32220038632746
20
0.67576430652679
30
0
10
4.271301180324138
20
0.733078889037477
30
0
10
4.219617329077482
20
0.7812718130870722
30
0
0
SPLINE
5
16D
330
11
100
AcDbEntity
100
AcDbSpline
8
Layer_2
210
0
220
0
230
1
70
8
71
3
72
8
73
4
74
0
42
1e-7
43
1e-7
44
1e-10
40
0
40
0
40
0
40
0
40
1
40
1
40
1
40
1
10
4.219617329077482
20
0.7812718130870722
30
0
10
4.167933477830826
20
0.8294647371366674
30
0
10
4.12606381518018
20
0.8701240759098653
30
0
10
4.094008341125546
20
0.903249829406666
30
0
0
SPLINE
5
16E
330
11
100
AcDbEntity
100
AcDbSpline
8
Layer_2
210
0
220
0
230
1
70
8
71
3
72
8
73
4
74
0
42
1e-7
43
1e-7
44
1e-10
40
0
40
0
40
0
40
0
40
1
40
1
40
1
40
1
10
4.094008341125546
20
0.903249829406666
30
0
10
4.0619528819293365
20
0.9363755471342671
30
0
10
4.050485848604557
20
0.9639805342153562
30
0
10
4.05960728572648
20
0.9860646833423345
30
0
0
SPLINE
5
16F
330
11
100
AcDbEntity
100
AcDbSpline
8
Layer_2
210
0
220
0
230
1
70
8
71
3
72
8
73
4
74
0
42
1e-7
43
1e-7
44
1e-10
40
0
40
0
40
0
40
0
40
1
40
1
40
1
40
1
10
4.05960728572648
20
0.9860646833423345
30
0
10
4.0778501599703265
20
1.0302329815962912
30
0
10
4.115001504963911
20
1.040739911211003
30
0
10
4.171061282736517
20
1.0175854878695516
30
0
0
SPLINE
5
170
330
11
100
AcDbEntity
100
AcDbSpline
8
Layer_2
210
0
220
0
230
1
70
8
71
3
72
8
73
4
74
0
42
1e-7
43
1e-7
44
1e-10
40
0
40
0
40
0
40
0
40
1
40
1
40
1
40
1
10
4.171061282736517
20
1.0175854878695516
30
0
10
4.206735683321746
20
1.0028508562598173
30
0
10
4.2366029515873596
20
0.9800746851623034
30
0
10
4.2606630875333575
20
0.9492569745770103
30
0
0
SPLINE
5
171
330
11
100
AcDbEntity
100
AcDbSpline
8
Layer_2
210
0
220
0
230
1
70
8
71
3
72
8
73
4
74
0
42
1e-7
43
1e-7
44
1e-10
40
0
40
0
40
0
40
0
40
1
40
1
40
1
40
1
10
4.2606630875333575
20
0.9492569745770103
30
0
10
4.284723248793168
20
0.9184392535363294
30
0
10
4.311756251454603
20
0.8863936569835587
30
0
10
4.341762095517661
20
0.8531201849186976
30
0
0
SPLINE
5
172
330
11
100
AcDbEntity
100
AcDbSpline
8
Layer_2
210
0
220
0
230
1
70
8
71
3
72
8
73
4
74
0
42
1e-7
43
1e-7
44
1e-10
40
0
40
0
40
0
40
0
40
1
40
1
40
1
40
1
10
4.341762095517661
20
0.8531201849186976
30
0
10
4.371767964894531
20
0.8198467023984487
30
0
10
4.415650180767522
20
0.7912819241586486
30
0
10
4.473408743136636
20
0.7674258501992974
30
0
0
SPLINE
5
173
330
11
100
AcDbEntity
100
AcDbSpline
8
Layer_2
210
0
220
0
230
1
70
8
71
3
72
8
73
4
74
0
42
1e-7
43
1e-7
44
1e-10
40
0
40
0
40
0
40
0
40
1
40
1
40
1
40
1
10
4.473408743136636
20
0.7674258501992974
30
0
10
4.536263633981461
20
0.7414648348416343
30
0
10
4.597594918337799
20
0.7394989734843807
30
0
10
4.6574025962056504
20
0.7615282661275367
30
0
0
SPLINE
5
174
330
11
100
AcDbEntity
100
AcDbSpline
8
Layer_2
210
0
220
0
230
1
70
8
71
3
72
8
73
4
74
0
42
1e-7
43
1e-7
44
1e-10
40
0
40
0
40
0
40
0
40
1
40
1
40
1
40
1
10
4.6574025962056504
20
0.7615282661275367
30
0
10
4.717210281364664
20
0.783557585391428
30
0
10
4.7618487555539035
20
0.8302466456086031
30
0
10
4.791318018773373
20
0.9015954467790614
30
0
0
SPLINE
5
175
330
11
100
AcDbEntity
100
AcDbSpline
8
Layer_2
210
0
220
0
230
1
70
8
71
3
72
8
73
4
74
0
42
1e-7
43
1e-7
44
1e-10
40
0
40
0
40
0
40
0
40
1
40
1
40
1
40
1
10
4.791318018773373
20
0.9015954467790614
30
0
10
4.81517408750503
20
0.959353996491269
30
0
10
4.8174631055357695
20
1.0190603772374178
30
0
10
4.798185055531372
20
1.0807145739529194
30
0
0
SPLINE
5
176
330
11
100
AcDbEntity
100
AcDbSpline
8
Layer_2
210
0
220
0
230
1
70
8
71
3
72
8
73
4
74
0
42
1e-7
43
1e-7
44
1e-10
40
0
40
0
40
0
40
0
40
1
40
1
40
1
40
1
10
4.798185055531372
20
1.0807145739529194
30
0
10
4.7789070207977264
20
1.14236877176918
30
0
10
4.743656819547222
20
1.202665627753119
30
0
10
4.692434451779858
20
1.2616051419047363
30
0
0
SPLINE
5
177
330
11
100
AcDbEntity
100
AcDbSpline
8
Layer_2
210
0
220
0
230
1
70
8
71
3
72
8
73
4
74
0
42
1e-7
43
1e-7
44
1e-10
40
0
40
0
40
0
40
0
40
1
40
1
40
1
40
1
10
4.692434451779858
20
1.2616051419047363
30
0
10
4.6412121119401535
20
1.3205446519294186
30
0
10
4.579363238172968
20
1.3754217660336079
30
0
10
4.506887830478299
20
1.4262364842173039
30
0
0
SPLINE
5
178
330
11
100
AcDbEntity
100
AcDbSpline
8
Layer_2
210
0
220
0
230
1
70
8
71
3
72
8
73
4
74
0
42
1e-7
43
1e-7
44
1e-10
40
0
40
0
40
0
40
0
40
1
40
1
40
1
40
1
10
3.281799053000688
20
1.9158302495522517
30
0
10
3.2235231790861585
20
1.9697287483550574
30
0
10
3.1527650954558872
20
2.013868406528844
30
0
10
3.069524802109874
20
2.048249224073612
30
0
0
SPLINE
5
179
330
11
100
AcDbEntity
100
AcDbSpline
8
Layer_2
210
0
220
0
230
1
70
8
71
3
72
8
73
4
74
0
42
1e-7
43
1e-7
44
1e-10
40
0
40
0
40
0
40
0
40
1
40
1
40
1
40
1
10
3.069524802109874
20
2.048249224073612
30
0
10
2.991380887867196
20
2.080525079309292
30
0
10
2.925045407641145
20
2.100466496019129
30
0
10
2.870518361431723
20
2.1080734742031217
30
0
0
SPLINE
5
17A
330
11
100
AcDbEntity
100
AcDbSpline
8
Layer_2
210
0
220
0
230
1
70
8
71
3
72
8
73
4
74
0
42
1e-7
43
1e-7
44
1e-10
40
0
40
0
40
0
40
0
40
1
40
1
40
1
40
1
10
2.870518361431723
20
2.1080734742031217
30
0
10
2.8159913152223006
20
2.1156804523871147
30
0
10
2.7634308833904773
20
2.116012260330335
30
0
10
2.7128370659362515
20
2.109068898032782
30
0
0
SPLINE
5
17B
330
11
100
AcDbEntity
100
AcDbSpline
8
Layer_2
210
0
220
0
230
1
70
8
71
3
72
8
73
4
74
0
42
1e-7
43
1e-7
44
1e-10
40
0
40
0
40
0
40
0
40
1
40
1
40
1
40
1
10
2.7128370659362515
20
2.109068898032782
30
0
10
2.6964768120123774
20
2.141677779808435
30
0
10
2.6783624348110626
20
2.170039708003385
30
0
10
2.6584938593710636
20
2.194154716356964
30
0
0
SPLINE
5
17C
330
11
100
AcDbEntity
100
AcDbSpline
8
Layer_2
210
0
220
0
230
1
70
8
71
3
72
8
73
4
74
0
42
1e-7
43
1e-7
44
1e-10
40
0
40
0
40
0
40
0
40
1
40
1
40
1
40
1
10
2.6584938593710636
20
2.194154716356964
30
0
10
2.6386253603625964
20
2.218269694530965
30
0
10
2.606606961486336
20
2.2394486201465957
30
0
10
2.562438587290944
20
2.2576915257566053
30
0
0
SPLINE
5
17D
330
11
100
AcDbEntity
100
AcDbSpline
8
Layer_2
210
0
220
0
230
1
70
8
71
3
72
8
73
4
74
0
42
1e-7
43
1e-7
44
1e-10
40
0
40
0
40
0
40
0
40
1
40
1
40
1
40
1
10
2.562438587290944
20
2.2576915257566053
30
0
10
2.5046800375787366
20
2.2815475944882624
30
0
10
2.4525443461952103
20
2.2817039714800784
30
0
10
2.4060314357286408
20
2.2581606845384625
30
0
0
SPLINE
5
17E
330
11
100
AcDbEntity
100
AcDbSpline
8
Layer_2
210
0
220
0
230
1
70
8
71
3
72
8
73
4
74
0
42
1e-7
43
1e-7
44
1e-10
40
0
40
0
40
0
40
0
40
1
40
1
40
1
40
1
10
2.4060314357286408
20
2.2581606845384625
30
0
10
2.3595185283660145
20
2.2346174051118846
30
0
10
2.326438984331031
20
2.1990628253466564
30
0
10
2.3067928036236913
20
2.151496945242778
30
0
0
SPLINE
5
17F
330
11
100
AcDbEntity
100
AcDbSpline
8
Layer_2
210
0
220
0
230
1
70
8
71
3
72
8
73
4
74
0
42
1e-7
43
1e-7
44
1e-10
40
0
40
0
40
0
40
0
40
1
40
1
40
1
40
1
10
2.3067928036236913
20
2.151496945242778
30
0
10
2.2948647692578628
20
2.122617670386674
30
0
10
2.289657980838682
20
2.0919565995247877
30
0
10
2.2911724383661505
20
2.0595137326571185
30
0
0
SPLINE
5
180
330
11
100
AcDbEntity
100
AcDbSpline
8
Layer_2
210
0
220
0
230
1
70
8
71
3
72
8
73
4
74
0
42
1e-7
43
1e-7
44
1e-10
40
0
40
0
40
0
40
0
40
1
40
1
40
1
40
1
10
2.2911724383661505
20
2.0595137326571185
30
0
10
2.29268690373516
20
2.027070884774808
30
0
10
2.3011257541224026
20
1.9957451979665985
30
0
10
2.316488845486548
20
1.965536753950175
30
0
0
SPLINE
5
181
330
11
100
AcDbEntity
100
AcDbSpline
8
Layer_2
210
0
220
0
230
1
70
8
71
3
72
8
73
4
74
0
42
1e-7
43
1e-7
44
1e-10
40
0
40
0
40
0
40
0
40
1
40
1
40
1
40
1
10
2.316488845486548
20
1.965536753950175
30
0
10
2.28997347108379
20
1.9446710752286087
30
0
10
2.2618701815509774
20
1.9115354621145448
30
0
10
2.2321790528295447
20
1.8661298832418203
30
0
0
SPLINE
5
182
330
11
100
AcDbEntity
100
AcDbSpline
8
Layer_2
210
0
220
0
230
1
70
8
71
3
72
8
73
4
74
0
42
1e-7
43
1e-7
44
1e-10
40
0
40
0
40
0
40
0
40
1
40
1
40
1
40
1
10
2.2321790528295447
20
1.8661298832418203
30
0
10
2.202487924108112
20
1.8207243043690957
30
0
10
2.175714363352284
20
1.7691422243935475
30
0
10
2.151858294620627
20
1.71138367468134
30
0
0
SPLINE
5
183
330
11
100
AcDbEntity
100
AcDbSpline
8
Layer_2
210
0
220
0
230
1
70
8
71
3
72
8
73
4
74
0
42
1e-7
43
1e-7
44
1e-10
40
0
40
0
40
0
40
0
40
1
40
1
40
1
40
1
10
2.151858294620627
20
1.71138367468134
30
0
10
2.109057674888754
20
1.6077579788341385
30
0
10
2.0923480683857325
20
1.5023046219540912
30
0
10
2.1017293521208815
20
1.3950235214952076
30
0
0
SPLINE
5
184
330
11
100
AcDbEntity
100
AcDbSpline
8
Layer_2
210
0
220
0
230
1
70
8
71
3
72
8
73
4
74
0
42
1e-7
43
1e-7
44
1e-10
40
0
40
0
40
0
40
0
40
1
40
1
40
1
40
1
10
2.1017293521208815
20
1.3950235214952076
30
0
10
2.111110711797466
20
1.2877423896701607
30
0
10
2.1519654496110925
20
1.1868504302270038
30
0
10
2.22429356556176
20
1.0923476431657368
30
0
0
SPLINE
5
185
330
11
100
AcDbEntity
100
AcDbSpline
8
Layer_2
210
0
220
0
230
1
70
8
71
3
72
8
73
4
74
0
42
1e-7
43
1e-7
44
1e-10
40
0
40
0
40
0
40
0
40
1
40
1
40
1
40
1
10
2.22429356556176
20
1.0923476431657368
30
0
10
2.2966217530508266
20
0.9978448858213181
30
0
10
2.408381596800182
20
0.9193701226125843
30
0
10
2.5595730968098263
20
0.8569233535395353
30
0
0
SPLINE
5
186
330
11
100
AcDbEntity
100
AcDbSpline
8
Layer_2
210
0
220
0
230
1
70
8
71
3
72
8
73
4
74
0
42
1e-7
43
1e-7
44
1e-10
40
0
40
0
40
0
40
0
40
1
40
1
40
1
40
1
10
2.5595730968098263
20
0.8569233535395353
30
0
10
2.610536520792908
20
0.8358738820517836
30
0
10
2.6660792015835155
20
0.8198931086501875
30
0
10
2.7262011457862028
20
0.8089809417102296
30
0
0
SPLINE
5
187
330
11
100
AcDbEntity
100
AcDbSpline
8
Layer_2
210
0
220
0
230
1
70
8
71
3
72
8
73
4
74
0
42
1e-7
43
1e-7
44
1e-10
40
0
40
0
40
0
40
0
40
1
40
1
40
1
40
1
10
2.7262011457862028
20
0.8089809417102296
30
0
10
2.7863230520181723
20
0.7980687904533533
30
0
10
2.8454293248203455
20
0.7955305089450544
30
0
10
2.903519932826559
20
0.8013660212438969
30
0
0
SPLINE
5
188
330
11
100
AcDbEntity
100
AcDbSpline
8
Layer_2
210
0
220
0
230
1
70
8
71
3
72
8
73
4
74
0
42
1e-7
43
1e-7
44
1e-10
40
0
40
0
40
0
40
0
40
1
40
1
40
1
40
1
10
2.903519932826559
20
0.8013660212438969
30
0
10
2.961610572198935
20
0.8072016094841749
30
0
10
3.0134137430490657
20
0.8230912107785372
30
0
10
3.058929536587316
20
0.8490349652475438
30
0
0
SPLINE
5
189
330
11
100
AcDbEntity
100
AcDbSpline
8
Layer_2
210
0
220
0
230
1
70
8
71
3
72
8
73
4
74
0
42
1e-7
43
1e-7
44
1e-10
40
0
40
0
40
0
40
0
40
1
40
1
40
1
40
1
10
3.058929536587316
20
0.8490349652475438
30
0
10
3.1044452987594027
20
0.874978643775115
30
0
10
3.138078769650588
20
0.9142816569416778
30
0
10
3.1598298865285455
20
0.9669438528643618
30
0
0
SPLINE
5
18A
330
11
100
AcDbEntity
100
AcDbSpline
8
Layer_2
210
0
220
0
230
1
70
8
71
3
72
8
73
4
74
0
42
1e-7
43
1e-7
44
1e-10
40
0
40
0
40
0
40
0
40
1
40
1
40
1
40
1
10
3.1598298865285455
20
0.9669438528643618
30
0
10
3.1836859552602026
20
1.0247024025765694
30
0
10
3.185688873506732
20
1.0740868865148436
30
0
10
3.165838646014473
20
1.1150973027187985
30
0
0
SPLINE
5
18B
330
11
100
AcDbEntity
100
AcDbSpline
8
Layer_2
210
0
220
0
230
1
70
8
71
3
72
8
73
4
74
0
42
1e-7
43
1e-7
44
1e-10
40
0
40
0
40
0
40
0
40
1
40
1
40
1
40
1
10
3.165838646014473
20
1.1150973027187985
30
0
10
3.1459883824097106
20
1.1561076449417031
30
0
10
3.1097321650267915
20
1.1874884582751104
30
0
10
3.057069950118749
20
1.209239582994609
30
0
0
SPLINE
5
18C
330
11
100
AcDbEntity
100
AcDbSpline
8
Layer_2
210
0
220
0
230
1
70
8
71
3
72
8
73
4
74
0
42
1e-7
43
1e-7
44
1e-10
40
0
40
0
40
0
40
0
40
1
40
1
40
1
40
1
10
3.057069950118749
20
1.209239582994609
30
0
10
3.021395536876614
20
1.2239742198320371
30
0
10
2.9917130669744654
20
1.232753962171049
30
0
10
2.9680225404123033
20
1.235578810011645
30
0
0
SPLINE
5
18D
330
11
100
AcDbEntity
100
AcDbSpline
8
Layer_2
210
0
220
0
230
1
70
8
71
3
72
8
73
4
74
0
42
1e-7
43
1e-7
44
1e-10
40
0
40
0
40
0
40
0
40
1
40
1
40
1
40
1
10
2.9680225404123033
20
1.235578810011645
30
0
10
2.944332007245587
20
1.238403749476758
30
0
10
2.922238724978723
20
1.239077467196804
30
0
10
2.901742649036439
20
1.2376000704793815
30
0
0
SPLINE
5
18E
330
11
100
AcDbEntity
100
AcDbSpline
8
Layer_2
210
0
220
0
230
1
70
8
71
3
72
8
73
4
74
0
42
1e-7
43
1e-7
44
1e-10
40
0
40
0
40
0
40
0
40
1
40
1
40
1
40
1
10
2.901742649036439
20
1.2376000704793815
30
0
10
2.881246579698709
20
1.236122582137442
30
0
10
2.8591532908272903
20
1.2367963914820046
30
0
10
2.835462764265128
20
1.2396212393226005
30
0
0
SPLINE
5
18F
330
11
100
AcDbEntity
100
AcDbSpline
8
Layer_2
210
0
220
0
230
1
70
8
71
3
72
8
73
4
74
0
42
1e-7
43
1e-7
44
1e-10
40
0
40
0
40
0
40
0
40
1
40
1
40
1
40
1
10
2.835462764265128
20
1.2396212393226005
30
0
10
2.8117721870753427
20
1.242446108073972
30
0
10
2.7812403185464873
20
1.251576678335781
30
0
10
2.743867158678562
20
1.2670129501080274
30
0
0
SPLINE
5
190
330
11
100
AcDbEntity
100
AcDbSpline
8
Layer_2
210
0
220
0
230
1
70
8
71
3
72
8
73
4
74
0
42
1e-7
43
1e-7
44
1e-10
40
0
40
0
40
0
40
0
40
1
40
1
40
1
40
1
10
2.743867158678562
20
1.2670129501080274
30
0
10
2.6640244598393763
20
1.2999904559616078
30
0
10
2.6141041000719114
20
1.3380092918478492
30
0
10
2.594106092585277
20
1.3810692745177173
30
0
0
SPLINE
5
191
330
11
100
AcDbEntity
100
AcDbSpline
8
Layer_2
210
0
220
0
230
1
70
8
71
3
72
8
73
4
74
0
42
1e-7
43
1e-7
44
1e-10
40
0
40
0
40
0
40
0
40
1
40
1
40
1
40
1
10
2.594106092585277
20
1.3810692745177173
30
0
10
2.5741081610400776
20
1.4241292258214222
30
0
10
2.5721780962041976
20
1.4651952430423723
30
0
10
2.5883160342774256
20
1.5042672254775231
30
0
0
SPLINE
5
192
330
11
100
AcDbEntity
100
AcDbSpline
8
Layer_2
210
0
220
0
230
1
70
8
71
3
72
8
73
4
74
0
42
1e-7
43
1e-7
44
1e-10
40
0
40
0
40
0
40
0
40
1
40
1
40
1
40
1
10
2.5883160342774256
20
1.5042672254775231
30
0
10
2.5993952076216784
20
1.487759700308095
30
0
10
2.623741441907825
20
1.4672638426788032
30
0
10
2.66135478418511
20
1.4427797665018016
30
0
0
SPLINE
5
193
330
11
100
AcDbEntity
100
AcDbSpline
8
Layer_2
210
0
220
0
230
1
70
8
71
3
72
8
73
4
74
0
42
1e-7
43
1e-7
44
1e-10
40
0
40
0
40
0
40
0
40
1
40
1
40
1
40
1
10
2.66135478418511
20
1.4427797665018016
30
0
10
2.6989680884916774
20
1.4182957060078818
30
0
10
2.7424070699689778
20
1.3958797168998904
30
0
10
2.791671722012458
20
1.3755318908023448
30
0
0
SPLINE
5
194
330
11
100
AcDbEntity
100
AcDbSpline
8
Layer_2
210
0
220
0
230
1
70
8
71
3
72
8
73
4
74
0
42
1e-7
43
1e-7
44
1e-10
40
0
40
0
40
0
40
0
40
1
40
1
40
1
40
1
10
2.791671722012458
20
1.3755318908023448
30
0
10
2.8749120027015653
20
1.341151078485271
30
0
10
2.9561948191351353
20
1.3224931251835155
30
0
10
3.0355201869962487
20
1.3195580688677966
30
0
0
SPLINE
5
195
330
11
100
AcDbEntity
100
AcDbSpline
8
Layer_2
210
0
220
0
230
1
70
8
71
3
72
8
73
4
74
0
42
1e-7
43
1e-7
44
1e-10
40
0
40
0
40
0
40
0
40
1
40
1
40
1
40
1
10
3.0355201869962487
20
1.3195580688677966
30
0
10
3.1148455738427208
20
1.3166230047105367
30
0
10
3.184716709631242
20
1.3305185869021816
30
0
10
3.2451336447133343
20
1.3612448835426258
30
0
0
SPLINE
5
196
330
11
100
AcDbEntity
100
AcDbSpline
8
Layer_2
210
0
220
0
230
1
70
8
71
3
72
8
73
4
74
0
42
1e-7
43
1e-7
44
1e-10
40
0
40
0
40
0
40
0
40
1
40
1
40
1
40
1
10
3.2451336447133343
20
1.3612448835426258
30
0
10
3.305550565075053
20
1.3919711714469345
30
0
10
3.3497920114754414
20
1.441309944044716
30
0
10
3.377857983914498
20
1.5092612013359705
30
0
0
SPLINE
5
197
330
11
100
AcDbEntity
100
AcDbSpline
8
Layer_2
210
0
220
0
230
1
70
8
71
3
72
8
73
4
74
0
42
1e-7
43
1e-7
44
1e-10
40
0
40
0
40
0
40
0
40
1
40
1
40
1
40
1
10
3.377857983914498
20
1.5092612013359705
30
0
10
3.410835494995772
20
1.5891039128320623
30
0
10
3.4176390278006465
20
1.6633514696563347
30
0
10
3.3982685823291217
20
1.7320038718087873
30
0
0
SPLINE
5
198
330
11
100
AcDbEntity
100
AcDbSpline
8
Layer_2
210
0
220
0
230
1
70
8
71
3
72
8
73
4
74
0
42
1e-7
43
1e-7
44
1e-10
40
0
40
0
40
0
40
0
40
1
40
1
40
1
40
1
10
3.3982685823291217
20
1.7320038718087873
30
0
10
3.3788981273649172
20
1.8006562778820103
30
0
10
3.3400749509221064
20
1.8619317371298318
30
0
10
3.281799053000688
20
1.9158302495522517
30
0
0
SPLINE
5
199
330
11
100
AcDbEntity
100
AcDbSpline
8
Layer_2
210
0
220
0
230
1
70
8
71
3
72
8
73
4
74
0
42
1e-7
43
1e-7
44
1e-10
40
0
40
0
40
0
40
0
40
1
40
1
40
1
40
1
10
2.81435109145506
20
1.8240360671534068
30
0
10
2.8405527720726553
20
1.8321055186282647
30
0
10
2.87318953880141
20
1.828071279868343
30
0
10
2.912261521236561
20
1.811933341795115
30
0
0
SPLINE
5
19A
330
11
100
AcDbEntity
100
AcDbSpline
8
Layer_2
210
0
220
0
230
1
70
8
71
3
72
8
73
4
74
0
42
1e-7
43
1e-7
44
1e-10
40
0
40
0
40
0
40
0
40
1
40
1
40
1
40
1
10
2.912261521236561
20
1.811933341795115
30
0
10
2.949634693761392
20
1.7964970647951746
30
0
10
2.9751811412517064
20
1.7764998352381982
30
0
10
2.9889008480244215
20
1.7519416151534686
30
0
0
SPLINE
5
19B
330
11
100
AcDbEntity
100
AcDbSpline
8
Layer_2
210
0
220
0
230
1
70
8
71
3
72
8
73
4
74
0
42
1e-7
43
1e-7
44
1e-10
40
0
40
0
40
0
40
0
40
1
40
1
40
1
40
1
10
2.9889008480244215
20
1.7519416151534686
30
0
10
3.0026205473679246
20
1.7273834129533387
30
0
10
3.0052705011738183
20
1.7049116232595858
30
0
10
2.9968507094421013
20
1.6845262460722095
30
0
0
SPLINE
5
19C
330
11
100
AcDbEntity
100
AcDbSpline
8
Layer_2
210
0
220
0
230
1
70
8
71
3
72
8
73
4
74
0
42
1e-7
43
1e-7
44
1e-10
40
0
40
0
40
0
40
0
40
1
40
1
40
1
40
1
10
2.9968507094421013
20
1.6845262460722095
30
0
10
2.9884309177103843
20
1.6641408688848331
30
0
10
2.9706955170288656
20
1.650088854138956
30
0
10
2.943644469426828
20
1.6423702175176604
30
0
0
SPLINE
5
19D
330
11
100
AcDbEntity
100
AcDbSpline
8
Layer_2
210
0
220
0
230
1
70
8
71
3
72
8
73
4
74
0
42
1e-7
43
1e-7
44
1e-10
40
0
40
0
40
0
40
0
40
1
40
1
40
1
40
1
10
2.943644469426828
20
1.6423702175176604
30
0
10
2.916593437507872
20
1.6346516188670825
30
0
10
2.8843813196028965
20
1.6385104200710459
30
0
10
2.8470081470780655
20
1.6539466970709862
30
0
0
SPLINE
5
19E
330
11
100
AcDbEntity
100
AcDbSpline
8
Layer_2
210
0
220
0
230
1
70
8
71
3
72
8
73
4
74
0
42
1e-7
43
1e-7
44
1e-10
40
0
40
0
40
0
40
0
40
1
40
1
40
1
40
1
10
2.8470081470780655
20
1.6539466970709862
30
0
10
2.8079361646429146
20
1.6700846351442142
30
0
10
2.781965068328821
20
1.6902573022571488
30
0
10
2.769094712857466
20
1.7144646695175985
30
0
0
SPLINE
5
19F
330
11
100
AcDbEntity
100
AcDbSpline
8
Layer_2
210
0
220
0
230
1
70
8
71
3
72
8
73
4
74
0
42
1e-7
43
1e-7
44
1e-10
40
0
40
0
40
0
40
0
40
1
40
1
40
1
40
1
10
2.769094712857466
20
1.7144646695175985
30
0
10
2.756224373069193
20
1.738672074748766
30
0
10
2.753999137011632
20
1.760968450274956
30
0
10
2.762418928743349
20
1.7813538274623324
30
0
0
SPLINE
5
1A0
330
11
100
AcDbEntity
100
AcDbSpline
8
Layer_2
210
0
220
0
230
1
70
8
71
3
72
8
73
4
74
0
42
1e-7
43
1e-7
44
1e-10
40
0
40
0
40
0
40
0
40
1
40
1
40
1
40
1
10
2.762418928743349
20
1.7813538274623324
30
0
10
2.770838720475066
20
1.8017392046497087
30
0
10
2.7881494108374643
20
1.815966615678549
30
0
10
2.81435109145506
20
1.8240360671534068
30
0
0
SPLINE
5
1A1
330
11
100
AcDbEntity
100
AcDbSpline
8
Layer_2
210
0
220
0
230
1
70
8
71
3
72
8
73
4
74
0
42
1e-7
43
1e-7
44
1e-10
40
0
40
0
40
0
40
0
40
1
40
1
40
1
40
1
10
2.1246800592296893
20
2.3713846347432073
30
0
10
2.1039433612258844
20
2.4246926743695765
30
0
10
2.0646957373678783
20
2.4632747285485896
30
0
10
2.0069371876556708
20
2.4871307972802468
30
0
0
SPLINE
5
1A2
330
11
100
AcDbEntity
100
AcDbSpline
8
Layer_2
210
0
220
0
230
1
70
8
71
3
72
8
73
4
74
0
42
1e-7
43
1e-7
44
1e-10
40
0
40
0
40
0
40
0
40
1
40
1
40
1
40
1
10
2.0069371876556708
20
2.4871307972802468
30
0
10
1.9457810687504475
20
2.512390167247704
30
0
10
1.8929251504539724
20
2.516821187486801
30
0
10
1.848369432766245
20
2.5004238579975393
30
0
0
SPLINE
5
1A3
330
11
100
AcDbEntity
100
AcDbSpline
8
Layer_2
210
0
220
0
230
1
70
8
71
3
72
8
73
4
74
0
42
1e-7
43
1e-7
44
1e-10
40
0
40
0
40
0
40
0
40
1
40
1
40
1
40
1
10
1.848369432766245
20
2.5004238579975393
30
0
10
1.8038137377784824
20
2.4840265117244367
30
0
10
1.7653423792932328
20
2.4546760868399833
30
0
10
1.7329553573104959
20
2.4123725833441787
30
0
0
SPLINE
5
1A4
330
11
100
AcDbEntity
100
AcDbSpline
8
Layer_2
210
0
220
0
230
1
70
8
71
3
72
8
73
4
74
0
42
1e-7
43
1e-7
44
1e-10
40
0
40
0
40
0
40
0
40
1
40
1
40
1
40
1
10
1.7329553573104959
20
2.4123725833441787
30
0
10
1.7005682999708882
20
2.3700691018599085
30
0
10
1.6724005658914527
20
2.323537159436316
30
0
10
1.6484520869722954
20
2.272776806424924
30
0
0
SPLINE
5
1A5
330
11
100
AcDbEntity
100
AcDbSpline
8
Layer_2
210
0
220
0
230
1
70
8
71
3
72
8
73
4
74
0
42
1e-7
43
1e-7
44
1e-10
40
0
40
0
40
0
40
0
40
1
40
1
40
1
40
1
10
1.6484520869722954
20
2.272776806424924
30
0
10
1.624503608053138
20
2.222016453413532
30
0
10
1.6034079203278186
20
2.1745521546077575
30
0
10
1.585165030400891
20
2.130383818383083
30
0
0
SPLINE
5
1A6
330
11
100
AcDbEntity
100
AcDbSpline
8
Layer_2
210
0
220
0
230
1
70
8
71
3
72
8
73
4
74
0
42
1e-7
43
1e-7
44
1e-10
40
0
40
0
40
0
40
0
40
1
40
1
40
1
40
1
10
1.585165030400891
20
2.130383818383083
30
0
10
1.5500825726936112
20
2.045444765754374
30
0
10
1.4962856200391141
20
1.9886183541113558
30
0
10
1.4237741501497645
20
1.959904637107829
30
0
0
SPLINE
5
1A7
330
11
100
AcDbEntity
100
AcDbSpline
8
Layer_2
210
0
220
0
230
1
70
8
71
3
72
8
73
4
74
0
42
1e-7
43
1e-7
44
1e-10
40
0
40
0
40
0
40
0
40
1
40
1
40
1
40
1
10
1.4237741501497645
20
1.959904637107829
30
0
10
1.351262677234239
20
1.9311908769058908
30
0
10
1.2835794890256116
20
1.9298145070975998
30
0
10
1.2207245855238806
20
1.955775527682957
30
0
0
SPLINE
5
1A8
330
11
100
AcDbEntity
100
AcDbSpline
8
Layer_2
210
0
220
0
230
1
70
8
71
3
72
8
73
4
74
0
42
1e-7
43
1e-7
44
1e-10
40
0
40
0
40
0
40
0
40
1
40
1
40
1
40
1
10
1.2207245855238806
20
1.955775527682957
30
0
10
1.1969416264865826
20
1.9655986258781675
30
0
10
1.1779595780503351
20
1.977415945806007
30
0
10
1.1637783956398677
20
1.9912275947740734
30
0
0
SPLINE
5
1A9
330
11
100
AcDbEntity
100
AcDbSpline
8
Layer_2
210
0
220
0
230
1
70
8
71
3
72
8
73
4
74
0
42
1e-7
43
1e-7
44
1e-10
40
0
40
0
40
0
40
0
40
1
40
1
40
1
40
1
10
1.1637783956398677
20
1.9912275947740734
30
0
10
1.1495971059218015
20
2.005039199166868
30
0
10
1.1347419181414147
20
2.01962634317844
30
0
10
1.1192127249911081
20
2.0349889822335188
30
0
0
SPLINE
5
1AA
330
11
100
AcDbEntity
100
AcDbSpline
8
Layer_2
210
0
220
0
230
1
70
8
71
3
72
8
73
4
74
0
42
1e-7
43
1e-7
44
1e-10
40
0
40
0
40
0
40
0
40
1
40
1
40
1
40
1
10
1.1192127249911081
20
2.0349889822335188
30
0
10
1.1036836391484002
20
2.0503516658638694
30
0
10
1.0814793704767538
20
2.063996972445146
30
0
10
1.0526000576499324
20
2.0759250224940566
30
0
0
SPLINE
5
1AB
330
11
100
AcDbEntity
100
AcDbSpline
8
Layer_2
210
0
220
0
230
1
70
8
71
3
72
8
73
4
74
0
42
1e-7
43
1e-7
44
1e-10
40
0
40
0
40
0
40
0
40
1
40
1
40
1
40
1
10
1.0526000576499324
20
2.0759250224940566
30
0
10
0.9863475849551857
20
2.1032893443152134
30
0
10
0.9258380213726013
20
2.1024300819443082
30
0
10
0.871071366902178
20
2.073347235381342
30
0
0
SPLINE
5
1AC
330
11
100
AcDbEntity
100
AcDbSpline
8
Layer_2
210
0
220
0
230
1
70
8
71
3
72
8
73
4
74
0
42
1e-7
43
1e-7
44
1e-10
40
0
40
0
40
0
40
0
40
1
40
1
40
1
40
1
10
0.871071366902178
20
2.073347235381342
30
0
10
0.8163046915209793
20
2.0442643381907524
30
0
10
0.7787474460093008
20
2.0050905762306233
30
0
10
0.7583996303671429
20
1.9558259495009551
30
0
0
SPLINE
5
1AD
330
11
100
AcDbEntity
100
AcDbSpline
8
Layer_2
210
0
220
0
230
1
70
8
71
3
72
8
73
4
74
0
42
1e-7
43
1e-7
44
1e-10
40
0
40
0
40
0
40
0
40
1
40
1
40
1
40
1
10
0.7583996303671429
20
1.9558259495009551
30
0
10
0.7345435616354855
20
1.8980673997887476
30
0
10
0.7326792854971063
20
1.8381856319430687
30
0
10
0.7528066946444057
20
1.776180601388646
30
0
0
SPLINE
5
1AE
330
11
100
AcDbEntity
100
AcDbSpline
8
Layer_2
210
0
220
0
230
1
70
8
71
3
72
8
73
4
74
0
42
1e-7
43
1e-7
44
1e-10
40
0
40
0
40
0
40
0
40
1
40
1
40
1
40
1
10
0.7528066946444057
20
1.776180601388646
30
0
10
0.7729341037917052
20
1.7141755708342234
30
0
10
0.8055899906713262
20
1.6584303093517105
30
0
10
0.8507741720342352
20
1.6089448037319989
30
0
0
SPLINE
5
1AF
330
11
100
AcDbEntity
100
AcDbSpline
8
Layer_2
210
0
220
0
230
1
70
8
71
3
72
8
73
4
74
0
42
1e-7
43
1e-7
44
1e-10
40
0
40
0
40
0
40
0
40
1
40
1
40
1
40
1
10
0.8507741720342352
20
1.6089448037319989
30
0
10
0.8959584293385797
20
1.559459266746124
30
0
10
0.9457309692827373
20
1.5234901026730097
30
0
10
1.0000919751157409
20
1.5010373247217643
30
0
0
SPLINE
5
1B0
330
11
100
AcDbEntity
100
AcDbSpline
8
Layer_2
210
0
220
0
230
1
70
8
71
3
72
8
73
4
74
0
42
1e-7
43
1e-7
44
1e-10
40
0
40
0
40
0
40
0
40
1
40
1
40
1
40
1
10
1.0000919751157409
20
1.5010373247217643
30
0
10
1.0646456885277915
20
1.4743746430631197
30
0
10
1.1304086946300962
20
1.4566582865910314
30
0
10
1.1973811139393626
20
1.4478881166317374
30
0
0
SPLINE
5
1B1
330
11
100
AcDbEntity
100
AcDbSpline
8
Layer_2
210
0
220
0
230
1
70
8
71
3
72
8
73
4
74
0
42
1e-7
43
1e-7
44
1e-10
40
0
40
0
40
0
40
0
40
1
40
1
40
1
40
1
10
1.1973811139393626
20
1.4478881166317374
30
0
10
1.2643534952779114
20
1.4391179623555252
30
0
10
1.3247430086527099
20
1.4445011544441375
30
0
10
1.3785495847268774
20
1.4640376326392204
30
0
0
SPLINE
5
1B2
330
11
100
AcDbEntity
100
AcDbSpline
8
Layer_2
210
0
220
0
230
1
70
8
71
3
72
8
73
4
74
0
42
1e-7
43
1e-7
44
1e-10
40
0
40
0
40
0
40
0
40
1
40
1
40
1
40
1
10
1.3785495847268774
20
1.4640376326392204
30
0
10
1.3712010791353662
20
1.4173582405881842
30
0
10
1.381828058957864
20
1.375682965876892
30
0
10
1.4104306628681338
20
1.3390119290220517
30
0
0
SPLINE
5
1B3
330
11
100
AcDbEntity
100
AcDbSpline
8
Layer_2
210
0
220
0
230
1
70
8
71
3
72
8
73
4
74
0
42
1e-7
43
1e-7
44
1e-10
40
0
40
0
40
0
40
0
40
1
40
1
40
1
40
1
10
1.4104306628681338
20
1.3390119290220517
30
0
10
1.43903321615078
20
1.3023409130779868
30
0
10
1.4762680468742413
20
1.2745331374473874
30
0
10
1.5221351550385176
20
1.2555886021302538
30
0
0
SPLINE
5
1B4
330
11
100
AcDbEntity
100
AcDbSpline
8
Layer_2
210
0
220
0
230
1
70
8
71
3
72
8
73
4
74
0
42
1e-7
43
1e-7
44
1e-10
40
0
40
0
40
0
40
0
40
1
40
1
40
1
40
1
10
1.5221351550385176
20
1.2555886021302538
30
0
10
1.5866888304798505
20
1.228925936154691
30
0
10
1.6432192393177305
20
1.22496574967798
30
0
10
1.6917264252991249
20
1.2437082024245338
30
0
0
SPLINE
5
1B5
330
11
100
AcDbEntity
100
AcDbSpline
8
Layer_2
210
0
220
0
230
1
70
8
71
3
72
8
73
4
74
0
42
1e-7
43
1e-7
44
1e-10
40
0
40
0
40
0
40
0
40
1
40
1
40
1
40
1
10
1.6917264252991249
20
1.2437082024245338
30
0
10
1.7402336112805192
20
1.2624506551710877
30
0
10
1.7825825814242209
20
1.2951709709142496
30
0
10
1.8187733357302305
20
1.3418691496540194
30
0
0
SPLINE
5
1B6
330
11
100
AcDbEntity
100
AcDbSpline
8
Layer_2
210
0
220
0
230
1
70
8
71
3
72
8
73
4
74
0
42
1e-7
43
1e-7
44
1e-10
40
0
40
0
40
0
40
0
40
1
40
1
40
1
40
1
10
1.8187733357302305
20
1.3418691496540194
30
0
10
1.85496409003624
20
1.3885673283937892
30
0
10
1.8871386543065631
20
1.4423929423839024
30
0
10
1.9152970285411994
20
1.503345991624359
30
0
0
SPLINE
5
1B7
330
11
100
AcDbEntity
100
AcDbSpline
8
Layer_2
210
0
220
0
230
1
70
8
71
3
72
8
73
4
74
0
42
1e-7
43
1e-7
44
1e-10
40
0
40
0
40
0
40
0
40
1
40
1
40
1
40
1
10
1.9152970285411994
20
1.503345991624359
30
0
10
1.943455399611609
20
1.564299042171739
30
0
10
1.9698134448215925
20
1.6245042345997867
30
0
10
1.9943711641711497
20
1.6839615689085021
30
0
0
SPLINE
5
1B8
330
11
100
AcDbEntity
100
AcDbSpline
8
Layer_2
210
0
220
0
230
1
70
8
71
3
72
8
73
4
74
0
42
1e-7
43
1e-7
44
1e-10
40
0
40
0
40
0
40
0
40
1
40
1
40
1
40
1
10
1.9943711641711497
20
1.6839615689085021
30
0
10
2.030856912658842
20
1.7722981654164154
30
0
10
2.062892638038203
20
1.8594899216222376
30
0
10
2.090478329372491
20
1.9455367975948654
30
0
0
SPLINE
5
1B9
330
11
100
AcDbEntity
100
AcDbSpline
8
Layer_2
210
0
220
0
230
1
70
8
71
3
72
8
73
4
74
0
42
1e-7
43
1e-7
44
1e-10
40
0
40
0
40
0
40
0
40
1
40
1
40
1
40
1
10
2.090478329372491
20
1.9455367975948654
30
0
10
2.1180640107327457
20
2.0315836628709727
30
0
10
2.135844893332914
20
2.1107430164435073
30
0
10
2.143820977172996
20
2.183014858312469
30
0
0
SPLINE
5
1BA
330
11
100
AcDbEntity
100
AcDbSpline
8
Layer_2
210
0
220
0
230
1
70
8
71
3
72
8
73
4
74
0
42
1e-7
43
1e-7
44
1e-10
40
0
40
0
40
0
40
0
40
1
40
1
40
1
40
1
10
2.143820977172996
20
2.183014858312469
30
0
10
2.151797044229238
20
2.255286677481466
30
0
10
2.1454167382481355
20
2.318076602958379
30
0
10
2.1246800592296893
20
2.3713846347432073
30
0
0
SPLINE
5
1BB
330
11
100
AcDbEntity
100
AcDbSpline
8
Layer_2
210
0
220
0
230
1
70
8
71
3
72
8
73
4
74
0
42
1e-7
43
1e-7
44
1e-10
40
0
40
0
40
0
40
0
40
1
40
1
40
1
40
1
10
0.8304578480248148
20
2.9283100393328505
30
0
10
0.7721819741102851
20
2.982208538135656
30
0
10
0.7014238904800135
20
3.0263481963094425
30
0
10
0.6181835971340002
20
3.0607290138542105
30
0
0
SPLINE
5
1BC
330
11
100
AcDbEntity
100
AcDbSpline
8
Layer_2
210
0
220
0
230
1
70
8
71
3
72
8
73
4
74
0
42
1e-7
43
1e-7
44
1e-10
40
0
40
0
40
0
40
0
40
1
40
1
40
1
40
1
10
0.6181835971340002
20
3.0607290138542105
30
0
10
0.5400396828913222
20
3.093004869089891
30
0
10
0.4737042026652715
20
3.1129462857997274
30
0
10
0.4191771564558491
20
3.1205532639837203
30
0
0
SPLINE
5
1BD
330
11
100
AcDbEntity
100
AcDbSpline
8
Layer_2
210
0
220
0
230
1
70
8
71
3
72
8
73
4
74
0
42
1e-7
43
1e-7
44
1e-10
40
0
40
0
40
0
40
0
40
1
40
1
40
1
40
1
10
0.4191771564558491
20
3.1205532639837203
30
0
10
0.36465011024642663
20
3.1281602421677133
30
0
10
0.3120896784146032
20
3.1284920501109337
30
0
10
0.2614958609603777
20
3.1215486878133807
30
0
0
SPLINE
5
1BE
330
11
100
AcDbEntity
100
AcDbSpline
8
Layer_2
210
0
220
0
230
1
70
8
71
3
72
8
73
4
74
0
42
1e-7
43
1e-7
44
1e-10
40
0
40
0
40
0
40
0
40
1
40
1
40
1
40
1
10
0.2614958609603777
20
3.1215486878133807
30
0
10
0.24513560703650372
20
3.154157569589034
30
0
10
0.22702122983518846
20
3.1825194977839835
30
0
10
0.2071526543951896
20
3.2066345061375627
30
0
0
SPLINE
5
1BF
330
11
100
AcDbEntity
100
AcDbSpline
8
Layer_2
210
0
220
0
230
1
70
8
71
3
72
8
73
4
74
0
42
1e-7
43
1e-7
44
1e-10
40
0
40
0
40
0
40
0
40
1
40
1
40
1
40
1
10
0.2071526543951896
20
3.2066345061375627
30
0
10
0.18728415538672244
20
3.2307494843115636
30
0
10
0.15526575651046232
20
3.2519284099271943
30
0
10
0.11109738231507027
20
3.270171315537204
30
0
0
SPLINE
5
1C0
330
11
100
AcDbEntity
100
AcDbSpline
8
Layer_2
210
0
220
0
230
1
70
8
71
3
72
8
73
4
74
0
42
1e-7
43
1e-7
44
1e-10
40
0
40
0
40
0
40
0
40
1
40
1
40
1
40
1
10
0.11109738231507027
20
3.270171315537204
30
0
10
0.05333883260286275
20
3.294027384268861
30
0
10
0.0012031412193362762
20
3.294183761260677
30
0
10
-0.04530976924723329
20
3.270640474319061
30
0
0
SPLINE
5
1C1
330
11
100
AcDbEntity
100
AcDbSpline
8
Layer_2
210
0
220
0
230
1
70
8
71
3
72
8
73
4
74
0
42
1e-7
43
1e-7
44
1e-10
40
0
40
0
40
0
40
0
40
1
40
1
40
1
40
1
10
-0.04530976924723329
20
3.270640474319061
30
0
10
-0.09182267660985961
20
3.247097194892483
30
0
10
-0.12490222064484285
20
3.2115426151272555
30
0
10
-0.1445484013521825
20
3.163976735023377
30
0
0
SPLINE
5
1C2
330
11
100
AcDbEntity
100
AcDbSpline
8
Layer_2
210
0
220
0
230
1
70
8
71
3
72
8
73
4
74
0
42
1e-7
43
1e-7
44
1e-10
40
0
40
0
40
0
40
0
40
1
40
1
40
1
40
1
10
-0.1445484013521825
20
3.163976735023377
30
0
10
-0.15647643571801115
20
3.135097460167273
30
0
10
-0.16168322413719044
20
3.1044363893053863
30
0
10
-0.160168766609722
20
3.071993522437717
30
0
0
SPLINE
5
1C3
330
11
100
AcDbEntity
100
AcDbSpline
8
Layer_2
210
0
220
0
230
1
70
8
71
3
72
8
73
4
74
0
42
1e-7
43
1e-7
44
1e-10
40
0
40
0
40
0
40
0
40
1
40
1
40
1
40
1
10
-0.160168766609722
20
3.071993522437717
30
0
10
-0.15865430124071275
20
3.0395506745554064
30
0
10
-0.1502154508534705
20
3.008224987747197
30
0
10
-0.13485235948932495
20
2.9780165437307735
30
0
0
SPLINE
5
1C4
330
11
100
AcDbEntity
100
AcDbSpline
8
Layer_2
210
0
220
0
230
1
70
8
71
3
72
8
73
4
74
0
42
1e-7
43
1e-7
44
1e-10
40
0
40
0
40
0
40
0
40
1
40
1
40
1
40
1
10
-0.13485235948932495
20
2.9780165437307735
30
0
10
-0.16136773389208275
20
2.9571508650092073
30
0
10
-0.18947102342489608
20
2.9240152518951437
30
0
10
-0.21916215214632895
20
2.878609673022419
30
0
0
SPLINE
5
1C5
330
11
100
AcDbEntity
100
AcDbSpline
8
Layer_2
210
0
220
0
230
1
70
8
71
3
72
8
73
4
74
0
42
1e-7
43
1e-7
44
1e-10
40
0
40
0
40
0
40
0
40
1
40
1
40
1
40
1
10
-0.21916215214632895
20
2.878609673022419
30
0
10
-0.24885328086776182
20
2.8332040941496945
30
0
10
-0.27562684162358914
20
2.7816220141741463
30
0
10
-0.29948291035524643
20
2.723863464461939
30
0
0
SPLINE
5
1C6
330
11
100
AcDbEntity
100
AcDbSpline
8
Layer_2
210
0
220
0
230
1
70
8
71
3
72
8
73
4
74
0
42
1e-7
43
1e-7
44
1e-10
40
0
40
0
40
0
40
0
40
1
40
1
40
1
40
1
10
-0.29948291035524643
20
2.723863464461939
30
0
10
-0.3422835300871191
20
2.6202377686147376
30
0
10
-0.3589931365901408
20
2.514784411734689
30
0
10
-0.34961185285499197
20
2.4075033112758057
30
0
0
SPLINE
5
1C7
330
11
100
AcDbEntity
100
AcDbSpline
8
Layer_2
210
0
220
0
230
1
70
8
71
3
72
8
73
4
74
0
42
1e-7
43
1e-7
44
1e-10
40
0
40
0
40
0
40
0
40
1
40
1
40
1
40
1
10
-0.34961185285499197
20
2.4075033112758057
30
0
10
-0.3402304931784077
20
2.300222179450759
30
0
10
-0.2993757553647819
20
2.1993302200076026
30
0
10
-0.2270476394141142
20
2.104827432946336
30
0
0
SPLINE
5
1C8
330
11
100
AcDbEntity
100
AcDbSpline
8
Layer_2
210
0
220
0
230
1
70
8
71
3
72
8
73
4
74
0
42
1e-7
43
1e-7
44
1e-10
40
0
40
0
40
0
40
0
40
1
40
1
40
1
40
1
10
-0.2270476394141142
20
2.104827432946336
30
0
10
-0.1547194519250474
20
2.0103246756019173
30
0
10
-0.04295960817569161
20
1.9318499123931832
30
0
10
0.10823189183395265
20
1.8694031433201341
30
0
0
SPLINE
5
1C9
330
11
100
AcDbEntity
100
AcDbSpline
8
Layer_2
210
0
220
0
230
1
70
8
71
3
72
8
73
4
74
0
42
1e-7
43
1e-7
44
1e-10
40
0
40
0
40
0
40
0
40
1
40
1
40
1
40
1
10
0.10823189183395265
20
1.8694031433201341
30
0
10
0.15919531581703472
20
1.8483536718323825
30
0
10
0.21473799660764215
20
1.8323728984307863
30
0
10
0.2748599408103293
20
1.8214607314908284
30
0
0
SPLINE
5
1CA
330
11
100
AcDbEntity
100
AcDbSpline
8
Layer_2
210
0
220
0
230
1
70
8
71
3
72
8
73
4
74
0
42
1e-7
43
1e-7
44
1e-10
40
0
40
0
40
0
40
0
40
1
40
1
40
1
40
1
10
0.2748599408103293
20
1.8214607314908284
30
0
10
0.3349818470422987
20
1.8105485802339523
30
0
10
0.39408811984447195
20
1.8080102987256532
30
0
10
0.45217872785068514
20
1.8138458110244957
30
0
0
SPLINE
5
1CB
330
11
100
AcDbEntity
100
AcDbSpline
8
Layer_2
210
0
220
0
230
1
70
8
71
3
72
8
73
4
74
0
42
1e-7
43
1e-7
44
1e-10
40
0
40
0
40
0
40
0
40
1
40
1
40
1
40
1
10
0.45217872785068514
20
1.8138458110244957
30
0
10
0.5102693672230616
20
1.8196813992647736
30
0
10
0.5620725380731918
20
1.835571000559136
30
0
10
0.6075883316114418
20
1.8615147550281426
30
0
0
SPLINE
5
1CC
330
11
100
AcDbEntity
100
AcDbSpline
8
Layer_2
210
0
220
0
230
1
70
8
71
3
72
8
73
4
74
0
42
1e-7
43
1e-7
44
1e-10
40
0
40
0
40
0
40
0
40
1
40
1
40
1
40
1
10
0.6075883316114418
20
1.8615147550281426
30
0
10
0.6531040937835284
20
1.8874584335557139
30
0
10
0.6867375646747141
20
1.9267614467222764
30
0
10
0.7084886815526718
20
1.9794236426449605
30
0
0
SPLINE
5
1CD
330
11
100
AcDbEntity
100
AcDbSpline
8
Layer_2
210
0
220
0
230
1
70
8
71
3
72
8
73
4
74
0
42
1e-7
43
1e-7
44
1e-10
40
0
40
0
40
0
40
0
40
1
40
1
40
1
40
1
10
0.7084886815526718
20
1.9794236426449605
30
0
10
0.7323447502843291
20
2.037182192357168
30
0
10
0.7343476685308584
20
2.0865666762954422
30
0
10
0.7144974410385991
20
2.127577092499397
30
0
0
SPLINE
5
1CE
330
11
100
AcDbEntity
100
AcDbSpline
8
Layer_2
210
0
220
0
230
1
70
8
71
3
72
8
73
4
74
0
42
1e-7
43
1e-7
44
1e-10
40
0
40
0
40
0
40
0
40
1
40
1
40
1
40
1
10
0.7144974410385991
20
2.127577092499397
30
0
10
0.6946471774338367
20
2.1685874347223018
30
0
10
0.6583909600509181
20
2.1999682480557095
30
0
10
0.6057287451428752
20
2.221719372775208
30
0
0
SPLINE
5
1CF
330
11
100
AcDbEntity
100
AcDbSpline
8
Layer_2
210
0
220
0
230
1
70
8
71
3
72
8
73
4
74
0
42
1e-7
43
1e-7
44
1e-10
40
0
40
0
40
0
40
0
40
1
40
1
40
1
40
1
10
0.6057287451428752
20
2.221719372775208
30
0
10
0.5700543319007401
20
2.236454009612636
30
0
10
0.5403718619985911
20
2.245233751951648
30
0
10
0.5166813354364291
20
2.2480585997922438
30
0
0
SPLINE
5
1D0
330
11
100
AcDbEntity
100
AcDbSpline
8
Layer_2
210
0
220
0
230
1
70
8
71
3
72
8
73
4
74
0
42
1e-7
43
1e-7
44
1e-10
40
0
40
0
40
0
40
0
40
1
40
1
40
1
40
1
10
0.5166813354364291
20
2.2480585997922438
30
0
10
0.49299080226971276
20
2.2508835392573565
30
0
10
0.4708975200028484
20
2.2515572569774025
30
0
10
0.45040144406056426
20
2.25007986025998
30
0
0
SPLINE
5
1D1
330
11
100
AcDbEntity
100
AcDbSpline
8
Layer_2
210
0
220
0
230
1
70
8
71
3
72
8
73
4
74
0
42
1e-7
43
1e-7
44
1e-10
40
0
40
0
40
0
40
0
40
1
40
1
40
1
40
1
10
0.45040144406056426
20
2.25007986025998
30
0
10
0.4299053747228345
20
2.248602371918041
30
0
10
0.40781208585141626
20
2.2492761812626036
30
0
10
0.3841215592892543
20
2.2521010291031995
30
0
0
SPLINE
5
1D2
330
11
100
AcDbEntity
100
AcDbSpline
8
Layer_2
210
0
220
0
230
1
70
8
71
3
72
8
73
4
74
0
42
1e-7
43
1e-7
44
1e-10
40
0
40
0
40
0
40
0
40
1
40
1
40
1
40
1
10
0.3841215592892543
20
2.2521010291031995
30
0
10
0.3604309820994687
20
2.2549258978545708
30
0
10
0.32989911357061363
20
2.26405646811638
30
0
10
0.2925259537026884
20
2.279492739888626
30
0
0
SPLINE
5
1D3
330
11
100
AcDbEntity
100
AcDbSpline
8
Layer_2
210
0
220
0
230
1
70
8
71
3
72
8
73
4
74
0
42
1e-7
43
1e-7
44
1e-10
40
0
40
0
40
0
40
0
40
1
40
1
40
1
40
1
10
0.2925259537026884
20
2.279492739888626
30
0
10
0.2126832548635026
20
2.3124702457422064
30
0
10
0.16276289509603772
20
2.3504890816284476
30
0
10
0.1427648876094032
20
2.3935490642983157
30
0
0
SPLINE
5
1D4
330
11
100
AcDbEntity
100
AcDbSpline
8
Layer_2
210
0
220
0
230
1
70
8
71
3
72
8
73
4
74
0
42
1e-7
43
1e-7
44
1e-10
40
0
40
0
40
0
40
0
40
1
40
1
40
1
40
1
10
0.1427648876094032
20
2.3935490642983157
30
0
10
0.12276695606420411
20
2.436609015602021
30
0
10
0.12083689122832426
20
2.4776750328229706
30
0
10
0.13697482930155225
20
2.5167470152581215
30
0
0
SPLINE
5
1D5
330
11
100
AcDbEntity
100
AcDbSpline
8
Layer_2
210
0
220
0
230
1
70
8
71
3
72
8
73
4
74
0
42
1e-7
43
1e-7
44
1e-10
40
0
40
0
40
0
40
0
40
1
40
1
40
1
40
1
10
0.13697482930155225
20
2.5167470152581215
30
0
10
0.14805400264580515
20
2.5002394900886933
30
0
10
0.17240023693195144
20
2.479743632459402
30
0
10
0.21001357920923636
20
2.4552595562824004
30
0
0
SPLINE
5
1D6
330
11
100
AcDbEntity
100
AcDbSpline
8
Layer_2
210
0
220
0
230
1
70
8
71
3
72
8
73
4
74
0
42
1e-7
43
1e-7
44
1e-10
40
0
40
0
40
0
40
0
40
1
40
1
40
1
40
1
10
0.21001357920923636
20
2.4552595562824004
30
0
10
0.24762688351580353
20
2.4307754957884806
30
0
10
0.2910658649931041
20
2.408359506680489
30
0
10
0.34033051703658423
20
2.3880116805829434
30
0
0
SPLINE
5
1D7
330
11
100
AcDbEntity
100
AcDbSpline
8
Layer_2
210
0
220
0
230
1
70
8
71
3
72
8
73
4
74
0
42
1e-7
43
1e-7
44
1e-10
40
0
40
0
40
0
40
0
40
1
40
1
40
1
40
1
10
0.34033051703658423
20
2.3880116805829434
30
0
10
0.4235707977256916
20
2.3536308682658693
30
0
10
0.5048536141592614
20
2.3349729149641143
30
0
10
0.5841789820203748
20
2.332037858648395
30
0
0
SPLINE
5
1D8
330
11
100
AcDbEntity
100
AcDbSpline
8
Layer_2
210
0
220
0
230
1
70
8
71
3
72
8
73
4
74
0
42
1e-7
43
1e-7
44
1e-10
40
0
40
0
40
0
40
0
40
1
40
1
40
1
40
1
10
0.5841789820203748
20
2.332037858648395
30
0
10
0.6635043688668469
20
2.3291027944911353
30
0
10
0.7333755046553683
20
2.34299837668278
30
0
10
0.7937924397374606
20
2.3737246733232245
30
0
0
SPLINE
5
1D9
330
11
100
AcDbEntity
100
AcDbSpline
8
Layer_2
210
0
220
0
230
1
70
8
71
3
72
8
73
4
74
0
42
1e-7
43
1e-7
44
1e-10
40
0
40
0
40
0
40
0
40
1
40
1
40
1
40
1
10
0.7937924397374606
20
2.3737246733232245
30
0
10
0.8542093600991797
20
2.4044509612275333
30
0
10
0.8984508064995672
20
2.453789733825315
30
0
10
0.9265167789386238
20
2.5217409911165696
30
0
0
SPLINE
5
1DA
330
11
100
AcDbEntity
100
AcDbSpline
8
Layer_2
210
0
220
0
230
1
70
8
71
3
72
8
73
4
74
0
42
1e-7
43
1e-7
44
1e-10
40
0
40
0
40
0
40
0
40
1
40
1
40
1
40
1
10
0.9265167789386238
20
2.5217409911165696
30
0
10
0.959494290019898
20
2.601583702612661
30
0
10
0.9662978228247728
20
2.675831259436934
30
0
10
0.9469273773532481
20
2.744483661589386
30
0
0
SPLINE
5
1DB
330
11
100
AcDbEntity
100
AcDbSpline
8
Layer_2
210
0
220
0
230
1
70
8
71
3
72
8
73
4
74
0
42
1e-7
43
1e-7
44
1e-10
40
0
40
0
40
0
40
0
40
1
40
1
40
1
40
1
10
0.9469273773532481
20
2.744483661589386
30
0
10
0.9275569223890439
20
2.813136067662609
30
0
10
0.8887337459462329
20
2.8744115269104307
30
0
10
0.8304578480248148
20
2.9283100393328505
30
0
0
SPLINE
5
1DC
330
11
100
AcDbEntity
100
AcDbSpline
8
Layer_2
210
0
220
0
230
1
70
8
71
3
72
8
73
4
74
0
42
1e-7
43
1e-7
44
1e-10
40
0
40
0
40
0
40
0
40
1
40
1
40
1
40
1
10
0.3630098864791851
20
2.836515856934005
30
0
10
0.3892115670967805
20
2.844585308408863
30
0
10
0.4218483338255366
20
2.8405510696489413
30
0
10
0.4609203162606874
20
2.8244131315757133
30
0
0
SPLINE
5
1DD
330
11
100
AcDbEntity
100
AcDbSpline
8
Layer_2
210
0
220
0
230
1
70
8
71
3
72
8
73
4
74
0
42
1e-7
43
1e-7
44
1e-10
40
0
40
0
40
0
40
0
40
1
40
1
40
1
40
1
10
0.4609203162606874
20
2.8244131315757133
30
0
10
0.49829348878551855
20
2.8089768545757727
30
0
10
0.5238399362758327
20
2.7889796250187966
30
0
10
0.5375596430485479
20
2.7644214049340667
30
0
0
SPLINE
5
1DE
330
11
100
AcDbEntity
100
AcDbSpline
8
Layer_2
210
0
220
0
230
1
70
8
71
3
72
8
73
4
74
0
42
1e-7
43
1e-7
44
1e-10
40
0
40
0
40
0
40
0
40
1
40
1
40
1
40
1
10
0.5375596430485479
20
2.7644214049340667
30
0
10
0.551279342392051
20
2.739863202733937
30
0
10
0.5539292961979443
20
2.7173914130401844
30
0
10
0.5455095044662273
20
2.697006035852808
30
0
0
SPLINE
5
1DF
330
11
100
AcDbEntity
100
AcDbSpline
8
Layer_2
210
0
220
0
230
1
70
8
71
3
72
8
73
4
74
0
42
1e-7
43
1e-7
44
1e-10
40
0
40
0
40
0
40
0
40
1
40
1
40
1
40
1
10
0.5455095044662273
20
2.697006035852808
30
0
10
0.5370897127345102
20
2.6766206586654313
30
0
10
0.519354312052992
20
2.6625686439195544
30
0
10
0.4923032644509544
20
2.6548500072982586
30
0
0
SPLINE
5
1E0
330
11
100
AcDbEntity
100
AcDbSpline
8
Layer_2
210
0
220
0
230
1
70
8
71
3
72
8
73
4
74
0
42
1e-7
43
1e-7
44
1e-10
40
0
40
0
40
0
40
0
40
1
40
1
40
1
40
1
10
0.4923032644509544
20
2.6548500072982586
30
0
10
0.46525223253199854
20
2.6471314086476805
30
0
10
0.43304011462702324
20
2.6509902098516442
30
0
10
0.3956669421021921
20
2.666426486851585
30
0
0
SPLINE
5
1E1
330
11
100
AcDbEntity
100
AcDbSpline
8
Layer_2
210
0
220
0
230
1
70
8
71
3
72
8
73
4
74
0
42
1e-7
43
1e-7
44
1e-10
40
0
40
0
40
0
40
0
40
1
40
1
40
1
40
1
10
0.3956669421021921
20
2.666426486851585
30
0
10
0.3565949596670413
20
2.682564424924813
30
0
10
0.3306238633529466
20
2.702737092037747
30
0
10
0.31775350788159185
20
2.726944459298197
30
0
0
SPLINE
5
1E2
330
11
100
AcDbEntity
100
AcDbSpline
8
Layer_2
210
0
220
0
230
1
70
8
71
3
72
8
73
4
74
0
42
1e-7
43
1e-7
44
1e-10
40
0
40
0
40
0
40
0
40
1
40
1
40
1
40
1
10
0.31775350788159185
20
2.726944459298197
30
0
10
0.3048831680933187
20
2.751151864529364
30
0
10
0.30265793203575836
20
2.773448240055554
30
0
10
0.31107772376747533
20
2.7938336172429303
30
0
0
SPLINE
5
1E3
330
11
100
AcDbEntity
100
AcDbSpline
8
Layer_2
210
0
220
0
230
1
70
8
71
3
72
8
73
4
74
0
42
1e-7
43
1e-7
44
1e-10
40
0
40
0
40
0
40
0
40
1
40
1
40
1
40
1
10
0.31107772376747533
20
2.7938336172429303
30
0
10
0.3194975154991923
20
2.814218994430307
30
0
10
0.33680820586158966
20
2.828446405459147
30
0
10
0.3630098864791851
20
2.836515856934005
30
0
0
SPLINE
5
1E5
330
11
100
AcDbEntity
100
AcDbSpline
8
Layer_3
210
0
220
0
230
1
70
8
71
3
72
8
73
4
74
0
42
1e-7
43
1e-7
44
1e-10
40
0
40
0
40
0
40
0
40
1
40
1
40
1
40
1
10
-3.34
20
4.845
30
0
10
-3.34
20
4.63251271556981
30
0
10
-3.51251271556981
20
4.46
30
0
10
-3.725
20
4.46
30
0
0
SPLINE
5
1E6
330
11
100
AcDbEntity
100
AcDbSpline
8
Layer_3
210
0
220
0
230
1
70
8
71
3
72
8
73
4
74
0
42
1e-7
43
1e-7
44
1e-10
40
0
40
0
40
0
40
0
40
1
40
1
40
1
40
1
10
-3.725
20
4.46
30
0
10
-3.93748728443019
20
4.46
30
0
10
-4.11
20
4.63251271556981
30
0
10
-4.11
20
4.845
30
0
0
SPLINE
5
1E7
330
11
100
AcDbEntity
100
AcDbSpline
8
Layer_3
210
0
220
0
230
1
70
8
71
3
72
8
73
4
74
0
42
1e-7
43
1e-7
44
1e-10
40
0
40
0
40
0
40
0
40
1
40
1
40
1
40
1
10
-4.11
20
4.845
30
0
10
-4.11
20
5.05748728443019
30
0
10
-3.93748728443019
20
5.2299999999999995
30
0
10
-3.725
20
5.2299999999999995
30
0
0
SPLINE
5
1E8
330
11
100
AcDbEntity
100
AcDbSpline
8
Layer_3
210
0
220
0
230
1
70
8
71
3
72
8
73
4
74
0
42
1e-7
43
1e-7
44
1e-10
40
0
40
0
40
0
40
0
40
1
40
1
40
1
40
1
10
-3.725
20
5.2299999999999995
30
0
10
-3.51251271556981
20
5.2299999999999995
30
0
10
-3.34
20
5.05748728443019
30
0
10
-3.34
20
4.845
30
0
0
ENDSEC
0
SECTION
2
OBJECTS
0
DICTIONARY
5
1
330
0
100
AcDbDictionary
281
1
3
ACAD_GROUP
350
15
0
DICTIONARY
5
15
330
1
100
AcDbDictionary
281
1
0
ENDSEC
0
EOF